  0
SECTION
  2
HEADER
  9
$ACADVER
  1
AC1014
  9
$ACADMAINTVER
 70
     0
  9
$DWGCODEPAGE
  3
ANSI_932
  9
$INSBASE
 10
0.0
 20
0.0
 30
0.0
  9
$EXTMIN
 10
197.0
 20
44.681315
 30
0.0
  9
$EXTMAX
 10
1883.4
 20
1499.313558
 30
0.0
  9
$LIMMIN
 10
0.0
 20
0.0
  9
$LIMMAX
 10
420.0
 20
297.0
  9
$ORTHOMODE
 70
     0
  9
$REGENMODE
 70
     1
  9
$FILLMODE
 70
     1
  9
$QTEXTMODE
 70
     0
  9
$MIRRTEXT
 70
     1
  9
$DRAGMODE
 70
     2
  9
$LTSCALE
 40
1.0
  9
$OSMODE
 70
     0
  9
$ATTMODE
 70
     1
  9
$TEXTSIZE
 40
0.2
  9
$TRACEWID
 40
0.05
  9
$TEXTSTYLE
  7
STANDARD
  9
$CLAYER
  8
LAY-1
  9
$CELTYPE
  6
CONTINUOUS
  9
$CECOLOR
 62
   256
  9
$CELTSCALE
 40
1.0
  9
$DELOBJ
 70
     1
  9
$DISPSILH
 70
     0
  9
$DIMSCALE
 40
1.0
  9
$DIMASZ
 40
0.18
  9
$DIMEXO
 40
0.0625
  9
$DIMDLI
 40
0.38
  9
$DIMRND
 40
0.0
  9
$DIMDLE
 40
0.0
  9
$DIMEXE
 40
0.18
  9
$DIMTP
 40
0.0
  9
$DIMTM
 40
0.0
  9
$DIMTXT
 40
0.18
  9
$DIMCEN
 40
0.09
  9
$DIMTSZ
 40
0.0
  9
$DIMTOL
 70
     0
  9
$DIMLIM
 70
     0
  9
$DIMTIH
 70
     1
  9
$DIMTOH
 70
     1
  9
$DIMSE1
 70
     0
  9
$DIMSE2
 70
     0
  9
$DIMTAD
 70
     0
  9
$DIMZIN
 70
     0
  9
$DIMBLK
  1

  9
$DIMASO
 70
     1
  9
$DIMSHO
 70
     1
  9
$DIMPOST
  1

  9
$DIMAPOST
  1

  9
$DIMALT
 70
     0
  9
$DIMALTD
 70
     2
  9
$DIMALTF
 40
25.4
  9
$DIMLFAC
 40
1.0
  9
$DIMTOFL
 70
     0
  9
$DIMTVP
 40
0.0
  9
$DIMTIX
 70
     0
  9
$DIMSOXD
 70
     0
  9
$DIMSAH
 70
     0
  9
$DIMBLK1
  1

  9
$DIMBLK2
  1

  9
$DIMSTYLE
  2
STANDARD
  9
$DIMCLRD
 70
     0
  9
$DIMCLRE
 70
     0
  9
$DIMCLRT
 70
     0
  9
$DIMTFAC
 40
1.0
  9
$DIMGAP
 40
0.09
  9
$DIMJUST
 70
     0
  9
$DIMSD1
 70
     0
  9
$DIMSD2
 70
     0
  9
$DIMTOLJ
 70
     1
  9
$DIMTZIN
 70
     0
  9
$DIMALTZ
 70
     0
  9
$DIMALTTZ
 70
     0
  9
$DIMFIT
 70
     3
  9
$DIMUPT
 70
     0
  9
$DIMUNIT
 70
     2
  9
$DIMDEC
 70
     4
  9
$DIMTDEC
 70
     4
  9
$DIMALTU
 70
     2
  9
$DIMALTTD
 70
     2
  9
$DIMTXSTY
  7
STANDARD
  9
$DIMAUNIT
 70
     0
  9
$LUNITS
 70
     2
  9
$LUPREC
 70
     4
  9
$SKETCHINC
 40
0.1
  9
$FILLETRAD
 40
0.0
  9
$AUNITS
 70
     0
  9
$AUPREC
 70
     0
  9
$MENU
  1
acad
  9
$ELEVATION
 40
0.0
  9
$PELEVATION
 40
0.0
  9
$THICKNESS
 40
0.0
  9
$LIMCHECK
 70
     0
  9
$BLIPMODE
 70
     1
  9
$CHAMFERA
 40
0.0
  9
$CHAMFERB
 40
0.0
  9
$CHAMFERC
 40
0.0
  9
$CHAMFERD
 40
0.0
  9
$SKPOLY
 70
     0
  9
$TDCREATE
 40
2456797.144865185
  9
$TDUPDATE
 40
2456797.144865185
  9
$TDINDWG
 40
0.0000000000
  9
$TDUSRTIMER
 40
0.0000000000
  9
$USRTIMER
 70
     1
  9
$ANGBASE
 50
0.0
  9
$ANGDIR
 70
     0
  9
$PDMODE
 70
     0
  9
$PDSIZE
 40
0.0
  9
$PLINEWID
 40
0.0
  9
$COORDS
 70
     1
  9
$SPLFRAME
 70
     0
  9
$SPLINETYPE
 70
     6
  9
$SPLINESEGS
 70
     8
  9
$ATTDIA
 70
     0
  9
$ATTREQ
 70
     1
  9
$HANDLING
 70
     1
  9
$HANDSEED
  5
6F1
  9
$SURFTAB1
 70
     6
  9
$SURFTAB2
 70
     6
  9
$SURFTYPE
 70
     6
  9
$SURFU
 70
     6
  9
$SURFV
 70
     6
  9
$UCSNAME
  2

  9
$UCSORG
 10
0.0
 20
0.0
 30
0.0
  9
$UCSXDIR
 10
1.0
 20
0.0
 30
0.0
  9
$UCSYDIR
 10
0.0
 20
1.0
 30
0.0
  9
$PUCSNAME
  2

  9
$PUCSORG
 10
0.0
 20
0.0
 30
0.0
  9
$PUCSXDIR
 10
1.0
 20
0.0
 30
0.0
  9
$PUCSYDIR
 10
0.0
 20
1.0
 30
0.0
  9
$USERI1
 70
     0
  9
$USERI2
 70
     0
  9
$USERI3
 70
     0
  9
$USERI4
 70
     0
  9
$USERI5
 70
     0
  9
$USERR1
 40
0.0
  9
$USERR2
 40
0.0
  9
$USERR3
 40
0.0
  9
$USERR4
 40
0.0
  9
$USERR5
 40
0.0
  9
$WORLDVIEW
 70
     1
  9
$SHADEDGE
 70
     3
  9
$SHADEDIF
 70
    70
  9
$TILEMODE
 70
     1
  9
$MAXACTVP
 70
    16
  9
$PINSBASE
 10
0.0
 20
0.0
 30
0.0
  9
$PLIMCHECK
 70
     0
  9
$PEXTMIN
 10
1.000000E+20
 20
1.000000E+20
 30
1.000000E+20
  9
$PEXTMAX
 10
-1.000000E+20
 20
-1.000000E+20
 30
-1.000000E+20
  9
$PLIMMIN
 10
0.0
 20
0.0
  9
$PLIMMAX
 10
12.0
 20
9.0
  9
$UNITMODE
 70
     0
  9
$VISRETAIN
 70
     0
  9
$PLINEGEN
 70
     1
  9
$PSLTSCALE
 70
     0
  9
$TREEDEPTH
 70
  3020
  9
$PICKSTYLE
 70
     1
  9
$CMLSTYLE
  2
Standard
  9
$CMLJUST
 70
     0
  9
$CMLSCALE
 40
1.0
  9
$PROXYGRAPHICS
 70
     0
  9
$MEASUREMENT
 70
     0
  0
ENDSEC
  0
SECTION
  2
CLASSES
  0
CLASS
  1
LWPOLYLINE
  2
AcDbPolyline
  3
"AutoCAD"
 90
        0
280
     0
281
     1
  0
CLASS
  1
IMAGE
  2
AcDbRasterImage
  3
ISM
 90
      127
280
     0
281
     1
  0
CLASS
  1
OLE2FRAME
  2
AcDbOle2Frame
  3
""
 90
        0
280
     0
281
     1
  0
CLASS
  1
HATCH
  2
AcDbHatch
  3
"ACAD_SEDONA"
 90
        0
280
     0
281
     1
  0
CLASS
  1
DICTIONARYVAR
  2
AcDbDictionaryVar
  3
"AutoCAD"
 90
        0
280
     0
281
     0
  0
CLASS
  1
RASTERVARIABLES
  2
AcDbRasterVariables
  3
ISM
 90
        0
280
     0
281
     0
  0
CLASS
  1
IMAGEDEF
  2
AcDbRasterImageDef
  3
ISM
 90
        0
280
     0
281
     0
  0
CLASS
  1
IMAGEDEF_REACTOR
  2
AcDbRasterImageDefReactor
  3
ISM
 90
        1
280
     0
281
     0
  0
CLASS
  1
IDBUFFER
  2
AcDbIdBuffer
  3
"Acad"
 90
        0
280
     0
281
     0
  0
CLASS
  1
SPATIAL_FILTER
  2
AcDbSpatialFilter
  3
"Acad"
 90
        0
280
     0
281
     0
  0
CLASS
  1
XRECORD
  2
AcDbXrecord
  3
"<Built In>"
 90
        0
280
     0
281
     0
  0
CLASS
  1
SORTENTSTABLE
  2
AcDbSortentsTable
  3
"AutoCAD"
 90
        0
280
     0
281
     0
  0
CLASS
  1
LAYER_INDEX
  2
AcDbLayerIndex
  3
"Acad"
 90
        0
280
     0
281
     0
  0
CLASS
  1
SPATIAL_INDEX
  2
AcDbSpatialIndex
  3
"Acad"
 90
        0
280
     0
281
     0
  0
CLASS
  1
OBJECT_PTR
  2
CAseDLPNTableRecord
  3
"ASE-LPNTableRecord"
 90
        1
280
     0
281
     0
  0
CLASS
  1
LAYOUT
  2
AcDbLayout
  3
"AutoCAD 2000"
 90
        0
280
     0
281
     0
  0
CLASS
  1
PLOTSETTINGS
  2
AcDbPlotSettings
  3
"AutoCAD 2000"
 90
        0
280
     0
281
     0
  0
CLASS
  1
ACDBDICTIONARYWDFLT
  2
AcDbDictionaryWithDefault
  3
"AutoCAD 2000"
 90
        0
280
     0
281
     0
  0
CLASS
  1
ACDBPLACEHOLDER
  2
AcDbPlaceHolder
  3
"AutoCAD 2000"
 90
        0
280
     0
281
     0
  0
CLASS
  1
VBA_PROJECT
  2
AcDbVbaProject
  3
"acadvba"
 90
        0
280
     0
281
     0
  0
CLASS
  1
WIPEOUT
  2
AcDbWipeout
  3
WipeOut|AutoCAD Express Tool|expresstools@autodesk.com
 90
      127
280
     0
281
     1
  0
CLASS
  1
WIPEOUTVARIABLES
  2
AcDbWipeoutVariables
  3
WipeOut|AutoCAD Express Tool|expresstools@autodesk.com
 90
        0
280
     0
281
     0
  0
CLASS
  1
RTEXT
  2
RText
  3
RText|AutoCAD Express Tool|expresstools@autodesk.com
 90
        0
280
     0
281
     1
  0
CLASS
  1
ARCALIGNEDTEXT
  2
AcDbArcAlignedText
  3
ATEXT|AutoCAD Express Tool|expresstools@autodesk.com
 90
        0
280
     0
281
     1
  0
ENDSEC
  0
SECTION
  2
TABLES
  0
TABLE
  2
VPORT
  5
7
100
AcDbSymbolTable
 70
     1
  0
VPORT
  5
15
100
AcDbSymbolTableRecord
100
AcDbViewportTableRecord
  2
*ACTIVE
 70
     0
 10
0.0
 20
0.0
 11
1.0
 21
1.0
 12
1040.2
 22
771.997437
 13
0.0
 23
0.0
 14
1.0
 24
1.0
 15
0.0
 25
0.0
 16
0.0
 26
0.0
 36
1.0
 17
0.0
 27
0.0
 37
0.0
 40
1454.632244
 41
1.722533
 42
50.0
 43
0.0
 44
0.0
 50
0.0
 51
0.0
 71
     0
 72
  1000
 73
     1
 74
     1
 75
     0
 76
     0
 77
     0
 78
     0
  0
ENDTAB
  0
TABLE
  2
LTYPE
  5
4
100
AcDbSymbolTable
 70
     9
  0
LTYPE
  5
11
100
AcDbSymbolTableRecord
100
AcDbLinetypeTableRecord
  2
BYBLOCK
 70
    64
  3

 72
    65
 73
     0
 40
0.0
  0
LTYPE
  5
12
100
AcDbSymbolTableRecord
100
AcDbLinetypeTableRecord
  2
BYLAYER
 70
    64
  3

 72
    65
 73
     0
 40
0.0
  0
LTYPE
  5
13
100
AcDbSymbolTableRecord
100
AcDbLinetypeTableRecord
  2
CONTINUOUS
 70
    64
  3
実線
 72
    65
 73
     0
 40
0.0
  0
LTYPE
  5
1D
100
AcDbSymbolTableRecord
100
AcDbLinetypeTableRecord
  2
EXLTYPE1
 70
    64
  3
破線
 72
    65
 73
     2
 40
4.0
 49
3.0
 74
     0
 49
-1.0
 74
     0
  0
LTYPE
  5
1E
100
AcDbSymbolTableRecord
100
AcDbLinetypeTableRecord
  2
EXLTYPE2
 70
    64
  3
点線
 72
    65
 73
     2
 40
2.0
 49
1.0
 74
     0
 49
-1.0
 74
     0
  0
LTYPE
  5
1F
100
AcDbSymbolTableRecord
100
AcDbLinetypeTableRecord
  2
EXLTYPE3
 70
    64
  3
一点鎖線
 72
    65
 73
     4
 40
33.0
 49
30.0
 74
     0
 49
-1.0
 74
     0
 49
1.0
 74
     0
 49
-1.0
 74
     0
  0
LTYPE
  5
20
100
AcDbSymbolTableRecord
100
AcDbLinetypeTableRecord
  2
EXLTYPE4
 70
    64
  3
二点鎖線
 72
    65
 73
     6
 40
35.0
 49
30.0
 74
     0
 49
-1.0
 74
     0
 49
1.0
 74
     0
 49
-1.0
 74
     0
 49
1.0
 74
     0
 49
-1.0
 74
     0
  0
LTYPE
  5
21
100
AcDbSymbolTableRecord
100
AcDbLinetypeTableRecord
  2
EXLTYPE5
 70
    64
  3
三点鎖線
 72
    65
 73
     8
 40
37.0
 49
30.0
 74
     0
 49
-1.0
 74
     0
 49
1.0
 74
     0
 49
-1.0
 74
     0
 49
1.0
 74
     0
 49
-1.0
 74
     0
 49
1.0
 74
     0
 49
-1.0
 74
     0
  0
LTYPE
  5
22
100
AcDbSymbolTableRecord
100
AcDbLinetypeTableRecord
  2
EXLTYPE6
 70
    64
  3
四点鎖線
 72
    65
 73
    10
 40
39.0
 49
30.0
 74
     0
 49
-1.0
 74
     0
 49
1.0
 74
     0
 49
-1.0
 74
     0
 49
1.0
 74
     0
 49
-1.0
 74
     0
 49
1.0
 74
     0
 49
-1.0
 74
     0
 49
1.0
 74
     0
 49
-1.0
 74
     0
  0
ENDTAB
  0
TABLE
  2
LAYER
  5
2
100
AcDbSymbolTable
 70
     4
  0
LAYER
  5
14
100
AcDbSymbolTableRecord
100
AcDbLayerTableRecord
  2
0
 70
     0
 62
     7
  6
CONTINUOUS
  0
LAYER
  5
25
100
AcDbSymbolTableRecord
100
AcDbLayerTableRecord
  2
LAY-1
 70
    64
 62
     3
  6
CONTINUOUS
  0
LAYER
  5
26
100
AcDbSymbolTableRecord
100
AcDbLayerTableRecord
  2
LAY-2
 70
    64
 62
     7
  6
CONTINUOUS
  0
LAYER
  5
27
100
AcDbSymbolTableRecord
100
AcDbLayerTableRecord
  2
LAY-5
 70
    64
 62
     1
  6
CONTINUOUS
  0
ENDTAB
  0
TABLE
  2
STYLE
  5
3
100
AcDbSymbolTable
 70
     3
  0
STYLE
  5
17
100
AcDbSymbolTableRecord
100
AcDbTextStyleTableRecord
  2
STANDARD
 70
     0
 40
0.0
 41
1.0
 50
0.0
 71
     0
 42
0.0
  3
monotxt
  4
extfont
  0
STYLE
  5
23
100
AcDbSymbolTableRecord
100
AcDbTextStyleTableRecord
  2
EXCADSTD
 70
    64
 40
0.0
 41
1.0
 50
0.0
 71
     0
 42
0.2
  3
monotxt
  4
extfont
  0
STYLE
  5
24
100
AcDbSymbolTableRecord
100
AcDbTextStyleTableRecord
  2
EXCADVERT
 70
    68
 40
0.0
 41
1.0
 50
0.0
 71
     0
 42
0.286885
  3
monotxt
  4
extfont
  0
ENDTAB
  0
TABLE
  2
VIEW
  5
5
100
AcDbSymbolTable
 70
     0
  0
ENDTAB
  0
TABLE
  2
UCS
  5
6
100
AcDbSymbolTable
 70
     0
  0
ENDTAB
  0
TABLE
  2
APPID
  5
8
100
AcDbSymbolTable
 70
     1
  0
APPID
  5
16
100
AcDbSymbolTableRecord
100
AcDbRegAppTableRecord
  2
ACAD
 70
     0
  0
ENDTAB
  0
TABLE
  2
DIMSTYLE
  5
9
100
AcDbSymbolTable
 70
     1
  0
DIMSTYLE
105
18
100
AcDbSymbolTableRecord
100
AcDbDimStyleTableRecord
  2
STANDARD
 70
     0
  3

  4

  5

  6

  7

 40
1.0
 41
0.18
 42
0.0625
 43
0.38
 44
0.18
 45
0.0
 46
0.0
 47
0.0
 48
0.0
 71
     0
 72
     0
 73
     1
 74
     1
 75
     0
 76
     0
 77
     0
 78
     0
140
0.18
141
0.09
142
0.0
143
25.4
144
1.0
145
0.0
146
1.0
147
0.09
170
     0
171
     2
172
     1
173
     0
174
     0
175
     0
176
     0
177
     0
178
     0
270
     2
271
     4
272
     4
273
     2
274
     2
275
     0
280
     0
281
     0
282
     0
283
     1
284
     0
285
     0
286
     0
287
     3
288
     0
340
17
  0
ENDTAB
  0
TABLE
  2
BLOCK_RECORD
  5
1
100
AcDbSymbolTable
 70
    14
  0
BLOCK_RECORD
  5
A
100
AcDbSymbolTableRecord
100
AcDbBlockTableRecord
  2
*MODEL_SPACE
  0
BLOCK_RECORD
  5
B
100
AcDbSymbolTableRecord
100
AcDbBlockTableRecord
  2
*PAPER_SPACE
  0
BLOCK_RECORD
  5
28
100
AcDbSymbolTableRecord
100
AcDbBlockTableRecord
  2
_EX_NORM
  0
BLOCK_RECORD
  5
29
100
AcDbSymbolTableRecord
100
AcDbBlockTableRecord
  2
_EX_BNORM
  0
BLOCK_RECORD
  5
2A
100
AcDbSymbolTableRecord
100
AcDbBlockTableRecord
  2
_EX_BCIR
  0
BLOCK_RECORD
  5
2B
100
AcDbSymbolTableRecord
100
AcDbBlockTableRecord
  2
_EX_RCIVIL
  0
BLOCK_RECORD
  5
2C
100
AcDbSymbolTableRecord
100
AcDbBlockTableRecord
  2
_EX_SLANT
  0
BLOCK_RECORD
  5
2D
100
AcDbSymbolTableRecord
100
AcDbBlockTableRecord
  2
_EX_NONE
  0
BLOCK_RECORD
  5
2E
100
AcDbSymbolTableRecord
100
AcDbBlockTableRecord
  2
_EX_CIVIL
  0
BLOCK_RECORD
  5
2F
100
AcDbSymbolTableRecord
100
AcDbBlockTableRecord
  2
_EX_WCIR
  0
BLOCK_RECORD
  5
30
100
AcDbSymbolTableRecord
100
AcDbBlockTableRecord
  2
_EX_WCIR2
  0
BLOCK_RECORD
  5
31
100
AcDbSymbolTableRecord
100
AcDbBlockTableRecord
  2
_EX_WNORM
  0
BLOCK_RECORD
  5
32
100
AcDbSymbolTableRecord
100
AcDbBlockTableRecord
  2
_EX_NNORM
  0
BLOCK_RECORD
  5
33
100
AcDbSymbolTableRecord
100
AcDbBlockTableRecord
  2
_EX_BBOX
  0
BLOCK_RECORD
  5
34
100
AcDbSymbolTableRecord
100
AcDbBlockTableRecord
  2
_EX_WBOX
  0
BLOCK_RECORD
  5
35
100
AcDbSymbolTableRecord
100
AcDbBlockTableRecord
  2
_EX_INTEGRAL
  0
ENDTAB
  0
ENDSEC
  0
SECTION
  2
BLOCKS
  0
BLOCK
  5
D
100
AcDbEntity
  8
0
100
AcDbBlockBegin
  2
*MODEL_SPACE
 70
     0
 10
0.0
 20
0.0
 30
0.0
  3
*MODEL_SPACE
  1

  0
ENDBLK
  5
E
100
AcDbEntity
  8
0
100
AcDbBlockEnd
  0
BLOCK
  5
F
100
AcDbEntity
 67
     1
  8
0
100
AcDbBlockBegin
  2
*PAPER_SPACE
 70
     0
 10
0.0
 20
0.0
 30
0.0
  3
*PAPER_SPACE
  1

  0
ENDBLK
  5
10
100
AcDbEntity
 67
     1
  8
0
100
AcDbBlockEnd
  0
BLOCK
  5
36
100
AcDbEntity
  8
0
100
AcDbBlockBegin
  2
_EX_NORM
 70
     0
 10
0.0
 20
0.0
 30
0.0
  3
_EX_NORM
  1

  0
LINE
  5
37
100
AcDbEntity
  8
0
  6
CONTINUOUS
 62
     0
100
AcDbLine
 10
0.0
 20
0.0
 30
0.0
 11
-1.0
 21
0.0
 31
0.0
  0
LINE
  5
38
100
AcDbEntity
  8
0
  6
CONTINUOUS
 62
     0
100
AcDbLine
 10
0.0
 20
0.0
 30
0.0
 11
-1.0
 21
0.166667
 31
0.0
  0
LINE
  5
39
100
AcDbEntity
  8
0
  6
CONTINUOUS
 62
     0
100
AcDbLine
 10
0.0
 20
0.0
 30
0.0
 11
-1.0
 21
-0.166667
 31
0.0
  0
ENDBLK
  5
3A
100
AcDbEntity
  8
0
100
AcDbBlockEnd
  0
BLOCK
  5
3B
100
AcDbEntity
  8
0
100
AcDbBlockBegin
  2
_EX_BNORM
 70
     0
 10
0.0
 20
0.0
 30
0.0
  3
_EX_BNORM
  1

  0
LINE
  5
3C
100
AcDbEntity
  8
0
  6
CONTINUOUS
 62
     0
100
AcDbLine
 10
0.0
 20
0.0
 30
0.0
 11
-1.0
 21
0.0
 31
0.0
  0
LINE
  5
3D
100
AcDbEntity
  8
0
  6
CONTINUOUS
 62
     0
100
AcDbLine
 10
0.0
 20
0.0
 30
0.0
 11
-1.0
 21
0.166667
 31
0.0
  0
LINE
  5
3E
100
AcDbEntity
  8
0
  6
CONTINUOUS
 62
     0
100
AcDbLine
 10
0.0
 20
0.0
 30
0.0
 11
-1.0
 21
-0.166667
 31
0.0
  0
LINE
  5
3F
100
AcDbEntity
  8
0
  6
CONTINUOUS
 62
     0
100
AcDbLine
 10
0.0
 20
0.0
 30
0.0
 11
-1.0
 21
0.083333
 31
0.0
  0
LINE
  5
40
100
AcDbEntity
  8
0
  6
CONTINUOUS
 62
     0
100
AcDbLine
 10
0.0
 20
0.0
 30
0.0
 11
-1.0
 21
-0.083333
 31
0.0
  0
LINE
  5
41
100
AcDbEntity
  8
0
  6
CONTINUOUS
 62
     0
100
AcDbLine
 10
-1.0
 20
0.166667
 30
0.0
 11
-1.0
 21
-0.166667
 31
0.0
  0
ENDBLK
  5
42
100
AcDbEntity
  8
0
100
AcDbBlockEnd
  0
BLOCK
  5
43
100
AcDbEntity
  8
0
100
AcDbBlockBegin
  2
_EX_BCIR
 70
     0
 10
0.0
 20
0.0
 30
0.0
  3
_EX_BCIR
  1

  0
LINE
  5
44
100
AcDbEntity
  8
0
  6
CONTINUOUS
 62
     0
100
AcDbLine
 10
0.0
 20
0.0
 30
0.0
 11
-1.0
 21
0.0
 31
0.0
  0
CIRCLE
  5
45
100
AcDbEntity
  8
0
  6
CONTINUOUS
 62
     0
100
AcDbCircle
 10
0.0
 20
0.0
 30
0.0
 40
0.5
  0
CIRCLE
  5
46
100
AcDbEntity
  8
0
  6
CONTINUOUS
 62
     0
100
AcDbCircle
 10
0.0
 20
0.0
 30
0.0
 40
0.25
  0
ENDBLK
  5
47
100
AcDbEntity
  8
0
100
AcDbBlockEnd
  0
BLOCK
  5
48
100
AcDbEntity
  8
0
100
AcDbBlockBegin
  2
_EX_RCIVIL
 70
     0
 10
0.0
 20
0.0
 30
0.0
  3
_EX_RCIVIL
  1

  0
LINE
  5
49
100
AcDbEntity
  8
0
  6
CONTINUOUS
 62
     0
100
AcDbLine
 10
0.0
 20
0.0
 30
0.0
 11
-1.0
 21
0.0
 31
0.0
  0
LINE
  5
4A
100
AcDbEntity
  8
0
  6
CONTINUOUS
 62
     0
100
AcDbLine
 10
-1.0
 20
-0.25
 30
0.0
 11
0.0
 21
-0.25
 31
0.0
  0
LINE
  5
4B
100
AcDbEntity
  8
0
  6
CONTINUOUS
 62
     0
100
AcDbLine
 10
-1.0
 20
-0.125
 30
0.0
 11
0.0
 21
-0.125
 31
0.0
  0
ENDBLK
  5
4C
100
AcDbEntity
  8
0
100
AcDbBlockEnd
  0
BLOCK
  5
4D
100
AcDbEntity
  8
0
100
AcDbBlockBegin
  2
_EX_SLANT
 70
     0
 10
0.0
 20
0.0
 30
0.0
  3
_EX_SLANT
  1

  0
LINE
  5
4E
100
AcDbEntity
  8
0
  6
CONTINUOUS
 62
     0
100
AcDbLine
 10
0.0
 20
0.0
 30
0.0
 11
-1.0
 21
0.0
 31
0.0
  0
LINE
  5
4F
100
AcDbEntity
  8
0
  6
CONTINUOUS
 62
     0
100
AcDbLine
 10
0.707107
 20
0.707107
 30
0.0
 11
-0.707107
 21
-0.707107
 31
0.0
  0
ENDBLK
  5
50
100
AcDbEntity
  8
0
100
AcDbBlockEnd
  0
BLOCK
  5
51
100
AcDbEntity
  8
0
100
AcDbBlockBegin
  2
_EX_NONE
 70
     0
 10
0.0
 20
0.0
 30
0.0
  3
_EX_NONE
  1

  0
LINE
  5
52
100
AcDbEntity
  8
0
  6
CONTINUOUS
 62
     0
100
AcDbLine
 10
0.0
 20
0.0
 30
0.0
 11
-1.0
 21
0.0
 31
0.0
  0
ENDBLK
  5
53
100
AcDbEntity
  8
0
100
AcDbBlockEnd
  0
BLOCK
  5
54
100
AcDbEntity
  8
0
100
AcDbBlockBegin
  2
_EX_CIVIL
 70
     0
 10
0.0
 20
0.0
 30
0.0
  3
_EX_CIVIL
  1

  0
LINE
  5
55
100
AcDbEntity
  8
0
  6
CONTINUOUS
 62
     0
100
AcDbLine
 10
0.0
 20
0.0
 30
0.0
 11
-1.0
 21
0.0
 31
0.0
  0
LINE
  5
56
100
AcDbEntity
  8
0
  6
CONTINUOUS
 62
     0
100
AcDbLine
 10
-1.0
 20
0.25
 30
0.0
 11
0.0
 21
0.25
 31
0.0
  0
LINE
  5
57
100
AcDbEntity
  8
0
  6
CONTINUOUS
 62
     0
100
AcDbLine
 10
-1.0
 20
0.125
 30
0.0
 11
0.0
 21
0.125
 31
0.0
  0
ENDBLK
  5
58
100
AcDbEntity
  8
0
100
AcDbBlockEnd
  0
BLOCK
  5
59
100
AcDbEntity
  8
0
100
AcDbBlockBegin
  2
_EX_WCIR
 70
     0
 10
0.0
 20
0.0
 30
0.0
  3
_EX_WCIR
  1

  0
LINE
  5
5A
100
AcDbEntity
  8
0
  6
CONTINUOUS
 62
     0
100
AcDbLine
 10
0.0
 20
0.0
 30
0.0
 11
-1.0
 21
0.0
 31
0.0
  0
CIRCLE
  5
5B
100
AcDbEntity
  8
0
  6
CONTINUOUS
 62
     0
100
AcDbCircle
 10
0.0
 20
0.0
 30
0.0
 40
0.5
  0
ENDBLK
  5
5C
100
AcDbEntity
  8
0
100
AcDbBlockEnd
  0
BLOCK
  5
5D
100
AcDbEntity
  8
0
100
AcDbBlockBegin
  2
_EX_WCIR2
 70
     0
 10
0.0
 20
0.0
 30
0.0
  3
_EX_WCIR2
  1

  0
LINE
  5
5E
100
AcDbEntity
  8
0
  6
CONTINUOUS
 62
     0
100
AcDbLine
 10
-0.5
 20
0.0
 30
0.0
 11
-1.0
 21
0.0
 31
0.0
  0
CIRCLE
  5
5F
100
AcDbEntity
  8
0
  6
CONTINUOUS
 62
     0
100
AcDbCircle
 10
0.0
 20
0.0
 30
0.0
 40
0.5
  0
ENDBLK
  5
60
100
AcDbEntity
  8
0
100
AcDbBlockEnd
  0
BLOCK
  5
61
100
AcDbEntity
  8
0
100
AcDbBlockBegin
  2
_EX_WNORM
 70
     0
 10
0.0
 20
0.0
 30
0.0
  3
_EX_WNORM
  1

  0
LINE
  5
62
100
AcDbEntity
  8
0
  6
CONTINUOUS
 62
     0
100
AcDbLine
 10
-1.0
 20
0.0
 30
0.0
 11
-1.0
 21
0.0
 31
0.0
  0
LINE
  5
63
100
AcDbEntity
  8
0
  6
CONTINUOUS
 62
     0
100
AcDbLine
 10
0.0
 20
0.0
 30
0.0
 11
-1.0
 21
0.166667
 31
0.0
  0
LINE
  5
64
100
AcDbEntity
  8
0
  6
CONTINUOUS
 62
     0
100
AcDbLine
 10
0.0
 20
0.0
 30
0.0
 11
-1.0
 21
-0.166667
 31
0.0
  0
LINE
  5
65
100
AcDbEntity
  8
0
  6
CONTINUOUS
 62
     0
100
AcDbLine
 10
-1.0
 20
0.166667
 30
0.0
 11
-1.0
 21
-0.166667
 31
0.0
  0
ENDBLK
  5
66
100
AcDbEntity
  8
0
100
AcDbBlockEnd
  0
BLOCK
  5
67
100
AcDbEntity
  8
0
100
AcDbBlockBegin
  2
_EX_NNORM
 70
     0
 10
0.0
 20
0.0
 30
0.0
  3
_EX_NNORM
  1

  0
LINE
  5
68
100
AcDbEntity
  8
0
  6
CONTINUOUS
 62
     0
100
AcDbLine
 10
0.0
 20
0.0
 30
0.0
 11
-1.0
 21
0.0
 31
0.0
  0
LINE
  5
69
100
AcDbEntity
  8
0
  6
CONTINUOUS
 62
     0
100
AcDbLine
 10
0.0
 20
0.0
 30
0.0
 11
-1.0
 21
0.166667
 31
0.0
  0
LINE
  5
6A
100
AcDbEntity
  8
0
  6
CONTINUOUS
 62
     0
100
AcDbLine
 10
0.0
 20
0.0
 30
0.0
 11
-1.0
 21
-0.166667
 31
0.0
  0
LINE
  5
6B
100
AcDbEntity
  8
0
  6
CONTINUOUS
 62
     0
100
AcDbLine
 10
-1.0
 20
0.166667
 30
0.0
 11
-1.0
 21
-0.166667
 31
0.0
  0
ENDBLK
  5
6C
100
AcDbEntity
  8
0
100
AcDbBlockEnd
  0
BLOCK
  5
6D
100
AcDbEntity
  8
0
100
AcDbBlockBegin
  2
_EX_BBOX
 70
     0
 10
0.0
 20
0.0
 30
0.0
  3
_EX_BBOX
  1

  0
LINE
  5
6E
100
AcDbEntity
  8
0
  6
CONTINUOUS
 62
     0
100
AcDbLine
 10
0.0
 20
0.0
 30
0.0
 11
-1.0
 21
0.0
 31
0.0
  0
LINE
  5
6F
100
AcDbEntity
  8
0
  6
CONTINUOUS
 62
     0
100
AcDbLine
 10
-0.5
 20
0.5
 30
0.0
 11
0.5
 21
0.5
 31
0.0
  0
LINE
  5
70
100
AcDbEntity
  8
0
  6
CONTINUOUS
 62
     0
100
AcDbLine
 10
0.5
 20
0.5
 30
0.0
 11
0.5
 21
-0.5
 31
0.0
  0
LINE
  5
71
100
AcDbEntity
  8
0
  6
CONTINUOUS
 62
     0
100
AcDbLine
 10
0.5
 20
-0.5
 30
0.0
 11
-0.5
 21
-0.5
 31
0.0
  0
LINE
  5
72
100
AcDbEntity
  8
0
  6
CONTINUOUS
 62
     0
100
AcDbLine
 10
-0.5
 20
-0.5
 30
0.0
 11
-0.5
 21
0.5
 31
0.0
  0
LINE
  5
73
100
AcDbEntity
  8
0
  6
CONTINUOUS
 62
     0
100
AcDbLine
 10
-0.25
 20
0.25
 30
0.0
 11
0.25
 21
0.25
 31
0.0
  0
LINE
  5
74
100
AcDbEntity
  8
0
  6
CONTINUOUS
 62
     0
100
AcDbLine
 10
0.25
 20
0.25
 30
0.0
 11
0.25
 21
-0.25
 31
0.0
  0
LINE
  5
75
100
AcDbEntity
  8
0
  6
CONTINUOUS
 62
     0
100
AcDbLine
 10
0.25
 20
-0.25
 30
0.0
 11
-0.25
 21
-0.25
 31
0.0
  0
LINE
  5
76
100
AcDbEntity
  8
0
  6
CONTINUOUS
 62
     0
100
AcDbLine
 10
-0.25
 20
-0.25
 30
0.0
 11
-0.25
 21
0.25
 31
0.0
  0
ENDBLK
  5
77
100
AcDbEntity
  8
0
100
AcDbBlockEnd
  0
BLOCK
  5
78
100
AcDbEntity
  8
0
100
AcDbBlockBegin
  2
_EX_WBOX
 70
     0
 10
0.0
 20
0.0
 30
0.0
  3
_EX_WBOX
  1

  0
LINE
  5
79
100
AcDbEntity
  8
0
  6
CONTINUOUS
 62
     0
100
AcDbLine
 10
-0.5
 20
0.0
 30
0.0
 11
-1.0
 21
0.0
 31
0.0
  0
LINE
  5
7A
100
AcDbEntity
  8
0
  6
CONTINUOUS
 62
     0
100
AcDbLine
 10
-0.5
 20
0.5
 30
0.0
 11
0.5
 21
0.5
 31
0.0
  0
LINE
  5
7B
100
AcDbEntity
  8
0
  6
CONTINUOUS
 62
     0
100
AcDbLine
 10
0.5
 20
0.5
 30
0.0
 11
0.5
 21
-0.5
 31
0.0
  0
LINE
  5
7C
100
AcDbEntity
  8
0
  6
CONTINUOUS
 62
     0
100
AcDbLine
 10
0.5
 20
-0.5
 30
0.0
 11
-0.5
 21
-0.5
 31
0.0
  0
LINE
  5
7D
100
AcDbEntity
  8
0
  6
CONTINUOUS
 62
     0
100
AcDbLine
 10
-0.5
 20
-0.5
 30
0.0
 11
-0.5
 21
0.5
 31
0.0
  0
ENDBLK
  5
7E
100
AcDbEntity
  8
0
100
AcDbBlockEnd
  0
BLOCK
  5
7F
100
AcDbEntity
  8
0
100
AcDbBlockBegin
  2
_EX_INTEGRAL
 70
     0
 10
0.0
 20
0.0
 30
0.0
  3
_EX_INTEGRAL
  1

  0
LINE
  5
80
100
AcDbEntity
  8
0
  6
CONTINUOUS
 62
     0
100
AcDbLine
 10
0.0
 20
0.0
 30
0.0
 11
-1.0
 21
0.0
 31
0.0
  0
ARC
  5
81
100
AcDbEntity
  8
0
  6
CONTINUOUS
 62
     0
100
AcDbCircle
 10
0.542115
 20
0.164992
 30
0.0
 40
0.56667
100
AcDbArc
 50
73.07249
 51
196.927513
  0
ARC
  5
82
100
AcDbEntity
  8
0
  6
CONTINUOUS
 62
     0
100
AcDbCircle
 10
-0.542115
 20
-0.164992
 30
0.0
 40
0.56667
100
AcDbArc
 50
253.072487
 51
16.927513
  0
ENDBLK
  5
83
100
AcDbEntity
  8
0
100
AcDbBlockEnd
  0
ENDSEC
  0
SECTION
  2
ENTITIES
  0
LINE
  5
84
100
AcDbEntity
  8
LAY-1
  6
CONTINUOUS
 62
     1
100
AcDbLine
 10
1643.10161
 20
625.958336
 30
0.0
 11
1643.324287
 21
626.181012
 31
0.0
  0
TEXT
  5
85
100
AcDbEntity
  8
LAY-1
  6
CONTINUOUS
 62
     3
100
AcDbText
 10
1640.034084
 20
617.62932
 30
0.0
 40
1.4
  1
！
 41
0.84
  7
EXCADSTD
 72
     5
 11
1641.154084
 21
617.62932
 31
0.0
100
AcDbText
  0
LINE
  5
86
100
AcDbEntity
  8
LAY-1
  6
EXLTYPE3
 62
     1
100
AcDbLine
 10
1174.406118
 20
949.681315
 30
0.0
 11
1155.206118
 21
949.681315
 31
0.0
  0
LINE
  5
87
100
AcDbEntity
  8
LAY-1
  6
EXLTYPE3
 62
     1
100
AcDbLine
 10
1174.406118
 20
1019.681315
 30
0.0
 11
1155.206118
 21
1019.681315
 31
0.0
  0
LINE
  5
88
100
AcDbEntity
  8
LAY-1
  6
EXLTYPE3
 62
     1
100
AcDbLine
 10
830.604077
 20
949.681315
 30
0.0
 11
849.804077
 21
949.681315
 31
0.0
  0
LINE
  5
89
100
AcDbEntity
  8
LAY-1
  6
EXLTYPE3
 62
     1
100
AcDbLine
 10
830.604077
 20
1019.681315
 30
0.0
 11
849.804077
 21
1019.681315
 31
0.0
  0
LINE
  5
8A
100
AcDbEntity
  8
LAY-1
  6
CONTINUOUS
 62
     1
100
AcDbLine
 10
907.747269
 20
577.912959
 30
0.0
 11
906.841844
 21
579.481202
 31
0.0
  0
LINE
  5
8B
100
AcDbEntity
  8
LAY-1
  6
CONTINUOUS
 62
     1
100
AcDbLine
 10
919.405918
 20
577.912959
 30
0.0
 11
920.311344
 21
579.481202
 31
0.0
  0
LINE
  5
8C
100
AcDbEntity
  8
LAY-1
  6
CONTINUOUS
 62
     1
100
AcDbLine
 10
919.405918
 20
577.912959
 30
0.0
 11
919.273679
 21
573.681315
 31
0.0
  0
LINE
  5
8D
100
AcDbEntity
  8
LAY-1
  6
CONTINUOUS
 62
     1
100
AcDbLine
 10
907.747269
 20
577.912959
 30
0.0
 11
907.879508
 21
573.681315
 31
0.0
  0
LINE
  5
8E
100
AcDbEntity
  8
LAY-1
  6
EXLTYPE4
 62
     1
100
AcDbLine
 10
878.540845
 20
533.681315
 30
0.0
 11
878.540845
 21
491.681315
 31
0.0
  0
LINE
  5
8F
100
AcDbEntity
  8
LAY-1
  6
EXLTYPE4
 62
     1
100
AcDbLine
 10
878.540845
 20
491.681315
 30
0.0
 11
881.040845
 21
491.681315
 31
0.0
  0
LINE
  5
90
100
AcDbEntity
  8
LAY-1
  6
EXLTYPE4
 62
     1
100
AcDbLine
 10
881.040845
 20
491.681315
 30
0.0
 11
881.040845
 21
532.776419
 31
0.0
  0
LINE
  5
91
100
AcDbEntity
  8
LAY-1
  6
EXLTYPE4
 62
     1
100
AcDbLine
 10
893.040845
 20
541.681315
 30
0.0
 11
878.540845
 21
533.681315
 31
0.0
  0
LINE
  5
92
100
AcDbEntity
  8
LAY-1
  6
EXLTYPE4
 62
     1
100
AcDbLine
 10
895.040845
 20
540.500557
 30
0.0
 11
881.040845
 21
532.776419
 31
0.0
  0
LINE
  5
93
100
AcDbEntity
  8
LAY-1
  6
CONTINUOUS
 62
     1
100
AcDbLine
 10
919.042711
 20
520.881427
 30
0.0
 11
919.147473
 21
517.881427
 31
0.0
  0
LINE
  5
94
100
AcDbEntity
  8
LAY-1
  6
CONTINUOUS
 62
     1
100
AcDbLine
 10
907.038979
 20
520.881427
 30
0.0
 11
906.934217
 21
517.881427
 31
0.0
  0
LINE
  5
95
100
AcDbEntity
  8
LAY-1
  6
EXLTYPE4
 62
     1
100
AcDbLine
 10
893.040845
 20
544.881315
 30
0.0
 11
893.040845
 21
541.681315
 31
0.0
  0
LINE
  5
96
100
AcDbEntity
  8
LAY-1
  6
EXLTYPE4
 62
     1
100
AcDbLine
 10
895.040845
 20
544.881315
 30
0.0
 11
895.040845
 21
540.500557
 31
0.0
  0
LINE
  5
97
100
AcDbEntity
  8
LAY-1
  6
CONTINUOUS
 62
     1
100
AcDbLine
 10
960.0
 20
565.0
 30
0.0
 11
958.830364
 21
567.025868
 31
0.0
  0
LINE
  5
98
100
AcDbEntity
  8
LAY-1
  6
CONTINUOUS
 62
     1
100
AcDbLine
 10
984.860843
 20
564.741315
 30
0.0
 11
986.17983
 21
567.025868
 31
0.0
  0
LINE
  5
99
100
AcDbEntity
  8
LAY-1
  6
CONTINUOUS
 62
     1
100
AcDbLine
 10
984.860843
 20
564.741315
 30
0.0
 11
984.577718
 21
555.681315
 31
0.0
  0
LINE
  5
9A
100
AcDbEntity
  8
LAY-1
  6
CONTINUOUS
 62
     1
100
AcDbLine
 10
960.149352
 20
564.741315
 30
0.0
 11
960.432477
 21
555.681315
 31
0.0
  0
LINE
  5
9B
100
AcDbEntity
  8
LAY-1
  6
EXLTYPE3
 62
     1
100
AcDbLine
 10
813.114766
 20
984.681315
 30
0.0
 11
1193.114766
 21
984.681315
 31
0.0
  0
LINE
  5
9C
100
AcDbEntity
  8
LAY-1
  6
EXLTYPE3
 62
     1
100
AcDbLine
 10
1002.505097
 20
1081.049835
 30
0.0
 11
1002.505097
 21
560.681315
 31
0.0
  0
LINE
  5
9D
100
AcDbEntity
  8
LAY-1
  6
CONTINUOUS
 62
     1
100
AcDbLine
 10
984.652753
 20
512.810168
 30
0.0
 11
984.56303
 21
515.681315
 31
0.0
  0
LINE
  5
9E
100
AcDbEntity
  8
LAY-1
  6
CONTINUOUS
 62
     1
100
AcDbLine
 10
960.357441
 20
512.810168
 30
0.0
 11
960.447165
 21
515.681315
 31
0.0
  0
LINE
  5
9F
100
AcDbEntity
  8
LAY-1
  6
EXLTYPE3
 62
     1
100
AcDbLine
 10
1158.805097
 20
853.681315
 30
0.0
 11
1139.505097
 21
853.681315
 31
0.0
  0
LINE
  5
A0
100
AcDbEntity
  8
LAY-1
  6
EXLTYPE3
 62
     1
100
AcDbLine
 10
1152.505097
 20
860.681315
 30
0.0
 11
1152.505097
 21
846.581315
 31
0.0
  0
LINE
  5
A1
100
AcDbEntity
  8
LAY-1
  6
EXLTYPE3
 62
     1
100
AcDbLine
 10
846.205097
 20
853.681315
 30
0.0
 11
865.505097
 21
853.681315
 31
0.0
  0
LINE
  5
A2
100
AcDbEntity
  8
LAY-1
  6
EXLTYPE3
 62
     1
100
AcDbLine
 10
852.505097
 20
860.681315
 30
0.0
 11
852.505097
 21
846.581315
 31
0.0
  0
LINE
  5
A3
100
AcDbEntity
  8
LAY-1
  6
EXLTYPE3
 62
     1
100
AcDbLine
 10
1152.505097
 20
610.681315
 30
0.0
 11
1152.505097
 21
596.581315
 31
0.0
  0
LINE
  5
A4
100
AcDbEntity
  8
LAY-1
  6
EXLTYPE3
 62
     1
100
AcDbLine
 10
1158.805097
 20
603.681315
 30
0.0
 11
1139.505097
 21
603.681315
 31
0.0
  0
LINE
  5
A5
100
AcDbEntity
  8
LAY-1
  6
EXLTYPE3
 62
     1
100
AcDbLine
 10
852.505097
 20
610.681315
 30
0.0
 11
852.505097
 21
596.581315
 31
0.0
  0
LINE
  5
A6
100
AcDbEntity
  8
LAY-1
  6
EXLTYPE3
 62
     1
100
AcDbLine
 10
846.205097
 20
603.681315
 30
0.0
 11
865.505097
 21
603.681315
 31
0.0
  0
LINE
  5
A7
100
AcDbEntity
  8
LAY-1
  6
EXLTYPE3
 62
     1
100
AcDbLine
 10
998.014766
 20
164.681315
 30
0.0
 11
1120.014766
 21
164.681315
 31
0.0
  0
LINE
  5
A8
100
AcDbEntity
  8
LAY-1
  6
EXLTYPE3
 62
     1
100
AcDbLine
 10
1062.505097
 20
238.581315
 30
0.0
 11
1062.505097
 21
88.481315
 31
0.0
  0
CIRCLE
  5
A9
100
AcDbEntity
  8
LAY-1
  6
CONTINUOUS
 62
     1
100
AcDbCircle
 10
1062.505097
 20
135.681315
 30
0.0
 40
10.4775
  0
CIRCLE
  5
AA
100
AcDbEntity
  8
LAY-1
  6
CONTINUOUS
 62
     1
100
AcDbCircle
 10
1062.505097
 20
193.681315
 30
0.0
 40
10.4775
  0
LINE
  5
AB
100
AcDbEntity
  8
LAY-1
  6
EXLTYPE3
 62
     1
100
AcDbLine
 10
1002.505097
 20
1205.681315
 30
0.0
 11
1002.505097
 21
1437.181315
 31
0.0
  0
LINE
  5
AC
100
AcDbEntity
  8
LAY-1
  6
CONTINUOUS
 62
     1
100
AcDbLine
 10
421.524661
 20
579.691315
 30
0.0
 11
422.430086
 21
581.259558
 31
0.0
  0
LINE
  5
AD
100
AcDbEntity
  8
LAY-1
  6
CONTINUOUS
 62
     1
100
AcDbLine
 10
409.704872
 20
579.691315
 30
0.0
 11
408.799446
 21
581.259558
 31
0.0
  0
LINE
  5
AE
100
AcDbEntity
  8
LAY-1
  6
CONTINUOUS
 62
     1
100
AcDbLine
 10
409.704872
 20
579.691315
 30
0.0
 11
409.892684
 21
573.681315
 31
0.0
  0
LINE
  5
AF
100
AcDbEntity
  8
LAY-1
  6
CONTINUOUS
 62
     1
100
AcDbLine
 10
421.524661
 20
579.691315
 30
0.0
 11
421.336849
 21
573.681315
 31
0.0
  0
LINE
  5
B0
100
AcDbEntity
  8
LAY-1
  6
CONTINUOUS
 62
     1
100
AcDbLine
 10
402.605518
 20
546.672207
 30
0.0
 11
402.605518
 21
557.672097
 31
0.0
  0
LINE
  5
B1
100
AcDbEntity
  8
LAY-1
  6
CONTINUOUS
 62
     1
100
AcDbLine
 10
408.605458
 20
542.872245
 30
0.0
 11
408.605458
 21
545.172222
 31
0.0
  0
LINE
  5
B2
100
AcDbEntity
  8
LAY-1
  6
CONTINUOUS
 62
     1
100
AcDbLine
 10
415.605388
 20
545.172222
 30
0.0
 11
413.105413
 21
545.172222
 31
0.0
  0
LINE
  5
B3
100
AcDbEntity
  8
LAY-1
  6
CONTINUOUS
 62
     1
100
AcDbLine
 10
422.605318
 20
554.672127
 30
0.0
 11
422.605318
 21
552.172152
 31
0.0
  0
LINE
  5
B4
100
AcDbEntity
  8
LAY-1
  6
CONTINUOUS
 62
     1
100
AcDbLine
 10
424.605298
 20
554.672127
 30
0.0
 11
422.605318
 21
554.672127
 31
0.0
  0
LINE
  5
B5
100
AcDbEntity
  8
LAY-1
  6
CONTINUOUS
 62
     1
100
AcDbLine
 10
422.614696
 20
552.18153
 30
0.0
 11
422.614696
 21
549.681555
 31
0.0
  0
LINE
  5
B6
100
AcDbEntity
  8
LAY-1
  6
CONTINUOUS
 62
     1
100
AcDbLine
 10
410.114821
 20
542.18163
 30
0.0
 11
408.614836
 21
545.1816
 31
0.0
  0
LINE
  5
B7
100
AcDbEntity
  8
LAY-1
  6
CONTINUOUS
 62
     1
100
AcDbLine
 10
408.614836
 20
545.1816
 30
0.0
 11
408.614836
 21
561.18144
 31
0.0
  0
LINE
  5
B8
100
AcDbEntity
  8
LAY-1
  6
CONTINUOUS
 62
     1
100
AcDbLine
 10
413.114791
 20
561.18144
 30
0.0
 11
413.114791
 21
559.18146
 31
0.0
  0
LINE
  5
B9
100
AcDbEntity
  8
LAY-1
  6
CONTINUOUS
 62
     1
100
AcDbLine
 10
413.114791
 20
559.18146
 30
0.0
 11
415.614766
 21
559.18146
 31
0.0
  0
ARC
  5
BA
100
AcDbEntity
  8
LAY-1
  6
CONTINUOUS
 62
     1
100
AcDbCircle
 10
415.614766
 20
552.18153
 30
0.0
 40
6.99993
100
AcDbArc
 50
0.0
 51
90.0
  0
LINE
  5
BB
100
AcDbEntity
  8
LAY-1
  6
CONTINUOUS
 62
     1
100
AcDbLine
 10
424.914673
 20
545.1816
 30
0.0
 11
422.614696
 21
545.1816
 31
0.0
  0
LINE
  5
BC
100
AcDbEntity
  8
LAY-1
  6
CONTINUOUS
 62
     1
100
AcDbLine
 10
422.614696
 20
545.1816
 30
0.0
 11
421.114711
 21
542.18163
 31
0.0
  0
LINE
  5
BD
100
AcDbEntity
  8
LAY-1
  6
CONTINUOUS
 62
     1
100
AcDbLine
 10
410.114821
 20
534.18171
 30
0.0
 11
410.114821
 21
542.18163
 31
0.0
  0
LINE
  5
BE
100
AcDbEntity
  8
LAY-1
  6
CONTINUOUS
 62
     1
100
AcDbLine
 10
421.114711
 20
539.18166
 30
0.0
 11
410.114821
 21
539.18166
 31
0.0
  0
LINE
  5
BF
100
AcDbEntity
  8
LAY-1
  6
CONTINUOUS
 62
     1
100
AcDbLine
 10
421.114711
 20
542.18163
 30
0.0
 11
421.114711
 21
534.18171
 31
0.0
  0
LINE
  5
C0
100
AcDbEntity
  8
LAY-1
  6
CONTINUOUS
 62
     1
100
AcDbLine
 10
421.114711
 20
534.18171
 30
0.0
 11
422.614696
 21
530.18175
 31
0.0
  0
LINE
  5
C1
100
AcDbEntity
  8
LAY-1
  6
CONTINUOUS
 62
     1
100
AcDbLine
 10
422.614696
 20
530.18175
 30
0.0
 11
422.614696
 21
523.18182
 31
0.0
  0
LINE
  5
C2
100
AcDbEntity
  8
LAY-1
  6
CONTINUOUS
 62
     1
100
AcDbLine
 10
422.614696
 20
523.18182
 30
0.0
 11
420.095139
 21
496.262733
 31
0.0
  0
ARC
  5
C3
100
AcDbEntity
  8
LAY-1
  6
CONTINUOUS
 62
     1
100
AcDbCircle
 10
415.614767
 20
496.682085
 30
0.0
 40
4.499955
100
AcDbArc
 50
185.34716
 51
354.652841
  0
LINE
  5
C4
100
AcDbEntity
  8
LAY-1
  6
CONTINUOUS
 62
     1
100
AcDbLine
 10
411.134394
 20
496.262733
 30
0.0
 11
408.614836
 21
523.18182
 31
0.0
  0
LINE
  5
C5
100
AcDbEntity
  8
LAY-1
  6
CONTINUOUS
 62
     1
100
AcDbLine
 10
408.614836
 20
523.18182
 30
0.0
 11
408.614836
 21
530.18175
 31
0.0
  0
LINE
  5
C6
100
AcDbEntity
  8
LAY-1
  6
CONTINUOUS
 62
     1
100
AcDbLine
 10
408.614836
 20
530.18175
 30
0.0
 11
410.114821
 21
534.18171
 31
0.0
  0
ARC
  5
C7
100
AcDbEntity
  8
LAY-1
  6
CONTINUOUS
 62
     1
100
AcDbCircle
 10
415.614766
 20
534.681705
 30
0.0
 40
9.9999
100
AcDbArc
 50
236.632987
 51
303.367013
  0
LINE
  5
C8
100
AcDbEntity
  8
LAY-1
  6
CONTINUOUS
 62
     1
100
AcDbLine
 10
410.114821
 20
526.330142
 30
0.0
 11
411.408301
 21
525.899858
 31
0.0
  0
LINE
  5
C9
100
AcDbEntity
  8
LAY-1
  6
CONTINUOUS
 62
     1
100
AcDbLine
 10
410.114821
 20
526.330142
 30
0.0
 11
411.059175
 21
525.26649
 31
0.0
  0
LINE
  5
CA
100
AcDbEntity
  8
LAY-1
  6
CONTINUOUS
 62
     1
100
AcDbLine
 10
421.114711
 20
526.330142
 30
0.0
 11
420.170357
 21
525.26649
 31
0.0
  0
LINE
  5
CB
100
AcDbEntity
  8
LAY-1
  6
CONTINUOUS
 62
     1
100
AcDbLine
 10
421.114711
 20
526.330142
 30
0.0
 11
419.821232
 21
525.899858
 31
0.0
  0
LINE
  5
CC
100
AcDbEntity
  8
LAY-1
  6
CONTINUOUS
 62
     1
100
AcDbLine
 10
422.614696
 20
554.681505
 30
0.0
 11
422.614696
 21
552.18153
 31
0.0
  0
ARC
  5
CD
100
AcDbEntity
  8
LAY-1
  6
CONTINUOUS
 62
     1
100
AcDbCircle
 10
398.105563
 20
552.172152
 30
0.0
 40
9.9999
100
AcDbArc
 50
146.632987
 51
213.367013
  0
LINE
  5
CE
100
AcDbEntity
  8
LAY-1
  6
CONTINUOUS
 62
     1
100
AcDbLine
 10
389.754
 20
557.672097
 30
0.0
 11
389.323717
 21
556.378617
 31
0.0
  0
LINE
  5
CF
100
AcDbEntity
  8
LAY-1
  6
CONTINUOUS
 62
     1
100
AcDbLine
 10
389.754
 20
557.672097
 30
0.0
 11
388.690349
 21
556.727743
 31
0.0
  0
LINE
  5
D0
100
AcDbEntity
  8
LAY-1
  6
CONTINUOUS
 62
     1
100
AcDbLine
 10
389.754
 20
546.672207
 30
0.0
 11
388.690349
 21
547.616561
 31
0.0
  0
LINE
  5
D1
100
AcDbEntity
  8
LAY-1
  6
CONTINUOUS
 62
     1
100
AcDbLine
 10
389.754
 20
546.672207
 30
0.0
 11
389.323717
 21
547.965686
 31
0.0
  0
LINE
  5
D2
100
AcDbEntity
  8
LAY-1
  6
CONTINUOUS
 62
     1
100
AcDbLine
 10
439.609669
 20
565.0
 30
0.0
 11
438.440033
 21
567.025868
 31
0.0
  0
LINE
  5
D3
100
AcDbEntity
  8
LAY-1
  6
CONTINUOUS
 62
     1
100
AcDbLine
 10
464.470512
 20
564.741315
 30
0.0
 11
465.789499
 21
567.025868
 31
0.0
  0
LINE
  5
D4
100
AcDbEntity
  8
LAY-1
  6
CONTINUOUS
 62
     1
100
AcDbLine
 10
464.470512
 20
564.741315
 30
0.0
 11
464.187387
 21
555.681315
 31
0.0
  0
LINE
  5
D5
100
AcDbEntity
  8
LAY-1
  6
CONTINUOUS
 62
     1
100
AcDbLine
 10
439.759021
 20
564.741315
 30
0.0
 11
440.042146
 21
555.681315
 31
0.0
  0
LINE
  5
D6
100
AcDbEntity
  8
LAY-1
  6
EXLTYPE3
 62
     1
100
AcDbLine
 10
306.304589
 20
984.681315
 30
0.0
 11
562.814766
 21
984.681315
 31
0.0
  0
LINE
  5
D7
100
AcDbEntity
  8
LAY-1
  6
EXLTYPE3
 62
     1
100
AcDbLine
 10
452.114766
 20
585.681315
 30
0.0
 11
452.114766
 21
432.581315
 31
0.0
  0
LINE
  5
D8
100
AcDbEntity
  8
LAY-1
  6
EXLTYPE3
 62
     1
100
AcDbLine
 10
487.114766
 20
465.396033
 30
0.0
 11
487.114766
 21
437.396033
 31
0.0
  0
LINE
  5
D9
100
AcDbEntity
  8
LAY-1
  6
EXLTYPE3
 62
     1
100
AcDbLine
 10
417.114766
 20
465.396033
 30
0.0
 11
417.114766
 21
437.396033
 31
0.0
  0
LINE
  5
DA
100
AcDbEntity
  8
LAY-1
  6
CONTINUOUS
 62
     1
100
AcDbLine
 10
442.689274
 20
501.181315
 30
0.0
 11
441.264766
 21
498.713994
 31
0.0
  0
LINE
  5
DB
100
AcDbEntity
  8
LAY-1
  6
CONTINUOUS
 62
     1
100
AcDbLine
 10
461.540258
 20
501.181315
 30
0.0
 11
462.964766
 21
498.713994
 31
0.0
  0
LINE
  5
DC
100
AcDbEntity
  8
LAY-1
  6
CONTINUOUS
 62
     1
100
AcDbLine
 10
442.799266
 20
504.681315
 30
0.0
 11
442.689274
 21
501.181315
 31
0.0
  0
LINE
  5
DD
100
AcDbEntity
  8
LAY-1
  6
CONTINUOUS
 62
     1
100
AcDbLine
 10
461.430266
 20
504.681315
 30
0.0
 11
461.540258
 21
501.181315
 31
0.0
  0
LINE
  5
DE
100
AcDbEntity
  8
LAY-1
  6
CONTINUOUS
 62
     1
100
AcDbLine
 10
464.262422
 20
512.810168
 30
0.0
 11
464.172699
 21
515.681315
 31
0.0
  0
LINE
  5
DF
100
AcDbEntity
  8
LAY-1
  6
CONTINUOUS
 62
     1
100
AcDbLine
 10
464.262422
 20
512.810168
 30
0.0
 11
465.491516
 21
510.681315
 31
0.0
  0
LINE
  5
E0
100
AcDbEntity
  8
LAY-1
  6
CONTINUOUS
 62
     1
100
AcDbLine
 10
439.96711
 20
512.810168
 30
0.0
 11
440.056834
 21
515.681315
 31
0.0
  0
LINE
  5
E1
100
AcDbEntity
  8
LAY-1
  6
CONTINUOUS
 62
     1
100
AcDbLine
 10
439.96711
 20
512.810168
 30
0.0
 11
438.738016
 21
510.681315
 31
0.0
  0
LINE
  5
E2
100
AcDbEntity
  8
LAY-1
  6
EXLTYPE3
 62
     1
100
AcDbLine
 10
352.114766
 20
870.681315
 30
0.0
 11
352.114766
 21
835.981315
 31
0.0
  0
LINE
  5
E3
100
AcDbEntity
  8
LAY-1
  6
EXLTYPE3
 62
     1
100
AcDbLine
 10
333.885251
 20
853.681315
 30
0.0
 11
372.585251
 21
853.681315
 31
0.0
  0
LINE
  5
E4
100
AcDbEntity
  8
LAY-1
  6
EXLTYPE3
 62
     1
100
AcDbLine
 10
352.114766
 20
623.381315
 30
0.0
 11
352.114766
 21
581.481315
 31
0.0
  0
LINE
  5
E5
100
AcDbEntity
  8
LAY-1
  6
EXLTYPE3
 62
     1
100
AcDbLine
 10
371.085251
 20
603.681315
 30
0.0
 11
330.685251
 21
603.681315
 31
0.0
  0
LINE
  5
E6
100
AcDbEntity
  8
LAY-1
  6
EXLTYPE3
 62
     1
100
AcDbLine
 10
1803.924944
 20
984.681315
 30
0.0
 11
1547.414766
 21
984.681315
 31
0.0
  0
LINE
  5
E7
100
AcDbEntity
  8
LAY-1
  6
EXLTYPE3
 62
     1
100
AcDbLine
 10
1715.114766
 20
1035.281315
 30
0.0
 11
1715.114766
 21
938.381315
 31
0.0
  0
LINE
  5
E8
100
AcDbEntity
  8
LAY-1
  6
EXLTYPE3
 62
     1
100
AcDbLine
 10
1693.114766
 20
465.396033
 30
0.0
 11
1693.114766
 21
437.396033
 31
0.0
  0
LINE
  5
E9
100
AcDbEntity
  8
LAY-1
  6
EXLTYPE3
 62
     1
100
AcDbLine
 10
1623.114766
 20
465.396033
 30
0.0
 11
1623.114766
 21
437.396033
 31
0.0
  0
LINE
  5
EA
100
AcDbEntity
  8
LAY-1
  6
CONTINUOUS
 62
     1
100
AcDbLine
 10
1648.689274
 20
501.181315
 30
0.0
 11
1647.264766
 21
498.713994
 31
0.0
  0
LINE
  5
EB
100
AcDbEntity
  8
LAY-1
  6
CONTINUOUS
 62
     1
100
AcDbLine
 10
1667.540258
 20
501.181315
 30
0.0
 11
1668.964766
 21
498.713994
 31
0.0
  0
LINE
  5
EC
100
AcDbEntity
  8
LAY-1
  6
CONTINUOUS
 62
     1
100
AcDbLine
 10
1648.799266
 20
504.681315
 30
0.0
 11
1648.689274
 21
501.181315
 31
0.0
  0
LINE
  5
ED
100
AcDbEntity
  8
LAY-1
  6
CONTINUOUS
 62
     1
100
AcDbLine
 10
1667.430266
 20
504.681315
 30
0.0
 11
1667.540258
 21
501.181315
 31
0.0
  0
LINE
  5
EE
100
AcDbEntity
  8
LAY-1
  6
CONTINUOUS
 62
     1
100
AcDbLine
 10
1645.96711
 20
512.810168
 30
0.0
 11
1646.056834
 21
515.681315
 31
0.0
  0
LINE
  5
EF
100
AcDbEntity
  8
LAY-1
  6
CONTINUOUS
 62
     1
100
AcDbLine
 10
1645.96711
 20
512.810168
 30
0.0
 11
1644.738016
 21
510.681315
 31
0.0
  0
LINE
  5
F0
100
AcDbEntity
  8
LAY-1
  6
EXLTYPE3
 62
     1
100
AcDbLine
 10
1758.114766
 20
870.681315
 30
0.0
 11
1758.114766
 21
835.981315
 31
0.0
  0
LINE
  5
F1
100
AcDbEntity
  8
LAY-1
  6
EXLTYPE3
 62
     1
100
AcDbLine
 10
1776.344282
 20
853.681315
 30
0.0
 11
1737.644282
 21
853.681315
 31
0.0
  0
LINE
  5
F2
100
AcDbEntity
  8
LAY-1
  6
EXLTYPE3
 62
     1
100
AcDbLine
 10
1739.144282
 20
603.681315
 30
0.0
 11
1779.544282
 21
603.681315
 31
0.0
  0
LINE
  5
F3
100
AcDbEntity
  8
LAY-1
  6
EXLTYPE3
 62
     1
100
AcDbLine
 10
1758.114766
 20
623.381315
 30
0.0
 11
1758.114766
 21
581.481315
 31
0.0
  0
LINE
  5
F4
100
AcDbEntity
  8
LAY-1
  6
CONTINUOUS
 62
     1
100
AcDbLine
 10
1670.470512
 20
564.741315
 30
0.0
 11
1671.789499
 21
567.025868
 31
0.0
  0
LINE
  5
F5
100
AcDbEntity
  8
LAY-1
  6
CONTINUOUS
 62
     1
100
AcDbLine
 10
1670.470512
 20
564.741315
 30
0.0
 11
1670.187387
 21
555.681315
 31
0.0
  0
LINE
  5
F6
100
AcDbEntity
  8
LAY-1
  6
CONTINUOUS
 62
     1
100
AcDbLine
 10
1670.262422
 20
512.810168
 30
0.0
 11
1670.172699
 21
515.681315
 31
0.0
  0
LINE
  5
F7
100
AcDbEntity
  8
LAY-1
  6
CONTINUOUS
 62
     1
100
AcDbLine
 10
1670.262422
 20
512.810168
 30
0.0
 11
1671.491516
 21
510.681315
 31
0.0
  0
LINE
  5
F8
100
AcDbEntity
  8
LAY-1
  6
CONTINUOUS
 62
     1
100
AcDbLine
 10
1707.624014
 20
546.672207
 30
0.0
 11
1707.624014
 21
557.672097
 31
0.0
  0
ARC
  5
F9
100
AcDbEntity
  8
LAY-1
  6
CONTINUOUS
 62
     1
100
AcDbCircle
 10
1712.123969
 20
552.172152
 30
0.0
 40
9.9999
100
AcDbArc
 50
326.632987
 51
33.367013
  0
LINE
  5
FA
100
AcDbEntity
  8
LAY-1
  6
CONTINUOUS
 62
     1
100
AcDbLine
 10
1720.475532
 20
557.672097
 30
0.0
 11
1720.905816
 21
556.378617
 31
0.0
  0
LINE
  5
FB
100
AcDbEntity
  8
LAY-1
  6
CONTINUOUS
 62
     1
100
AcDbLine
 10
1720.475532
 20
557.672097
 30
0.0
 11
1721.539184
 21
556.727743
 31
0.0
  0
LINE
  5
FC
100
AcDbEntity
  8
LAY-1
  6
CONTINUOUS
 62
     1
100
AcDbLine
 10
1720.475532
 20
546.672207
 30
0.0
 11
1721.539184
 21
547.616561
 31
0.0
  0
LINE
  5
FD
100
AcDbEntity
  8
LAY-1
  6
CONTINUOUS
 62
     1
100
AcDbLine
 10
1720.475532
 20
546.672207
 30
0.0
 11
1720.905816
 21
547.965686
 31
0.0
  0
LINE
  5
FE
100
AcDbEntity
  8
LAY-1
  6
CONTINUOUS
 62
     1
100
AcDbLine
 10
1645.792146
 20
563.681315
 30
0.0
 11
1646.042146
 21
555.681315
 31
0.0
  0
LINE
  5
FF
100
AcDbEntity
  8
LAY-1
  6
EXLTYPE3
 62
     1
100
AcDbLine
 10
1002.505097
 20
1180.781315
 30
0.0
 11
1002.505097
 21
1373.181315
 31
0.0
  0
LINE
  5
100
100
AcDbEntity
  8
LAY-1
  6
EXLTYPE2
 62
     1
100
AcDbLine
 10
865.505097
 20
1242.681315
 30
0.0
 11
865.505097
 21
1241.781315
 31
0.0
  0
LINE
  5
101
100
AcDbEntity
  8
LAY-1
  6
EXLTYPE3
 62
     1
100
AcDbLine
 10
830.604077
 20
1309.681315
 30
0.0
 11
849.804077
 21
1309.681315
 31
0.0
  0
LINE
  5
102
100
AcDbEntity
  8
LAY-1
  6
EXLTYPE3
 62
     1
100
AcDbLine
 10
830.604077
 20
1379.681315
 30
0.0
 11
849.804077
 21
1379.681315
 31
0.0
  0
LINE
  5
103
100
AcDbEntity
  8
LAY-1
  6
EXLTYPE3
 62
     1
100
AcDbLine
 10
852.505097
 20
1435.081315
 30
0.0
 11
852.505097
 21
1419.281315
 31
0.0
  0
LINE
  5
104
100
AcDbEntity
  8
LAY-1
  6
EXLTYPE3
 62
     1
100
AcDbLine
 10
849.605097
 20
1387.681315
 30
0.0
 11
871.795428
 21
1387.681315
 31
0.0
  0
LINE
  5
105
100
AcDbEntity
  8
LAY-1
  6
EXLTYPE3
 62
     1
100
AcDbLine
 10
1174.406118
 20
1309.681315
 30
0.0
 11
1155.206118
 21
1309.681315
 31
0.0
  0
LINE
  5
106
100
AcDbEntity
  8
LAY-1
  6
EXLTYPE3
 62
     1
100
AcDbLine
 10
1174.406118
 20
1379.681315
 30
0.0
 11
1155.206118
 21
1379.681315
 31
0.0
  0
LINE
  5
107
100
AcDbEntity
  8
LAY-1
  6
EXLTYPE3
 62
     1
100
AcDbLine
 10
1152.505097
 20
1435.081315
 30
0.0
 11
1152.505097
 21
1419.281315
 31
0.0
  0
LINE
  5
108
100
AcDbEntity
  8
LAY-1
  6
CONTINUOUS
 62
     7
100
AcDbLine
 10
1140.505097
 20
1070.681315
 30
0.0
 11
1140.505097
 21
585.681315
 31
0.0
  0
LINE
  5
109
100
AcDbEntity
  8
LAY-1
  6
CONTINUOUS
 62
     7
100
AcDbLine
 10
864.505097
 20
1070.681315
 30
0.0
 11
864.505097
 21
585.681315
 31
0.0
  0
LINE
  5
10A
100
AcDbEntity
  8
LAY-1
  6
CONTINUOUS
 62
     7
100
AcDbLine
 10
864.505097
 20
1070.681315
 30
0.0
 11
1140.505097
 21
1070.681315
 31
0.0
  0
LINE
  5
10B
100
AcDbEntity
  8
LAY-1
  6
CONTINUOUS
 62
     7
100
AcDbLine
 10
1140.505097
 20
585.681315
 30
0.0
 11
864.505097
 21
585.681315
 31
0.0
  0
ARC
  5
10C
100
AcDbEntity
  8
LAY-1
  6
CONTINUOUS
 62
     7
100
AcDbCircle
 10
1087.505097
 20
921.881271
 30
0.0
 40
25.0
100
AcDbArc
 50
270.0
 51
0.0
  0
ARC
  5
10D
100
AcDbEntity
  8
LAY-1
  6
CONTINUOUS
 62
     7
100
AcDbCircle
 10
917.505097
 20
921.881271
 30
0.0
 40
25.0
100
AcDbArc
 50
180.0
 51
270.0
  0
LINE
  5
10E
100
AcDbEntity
  8
LAY-1
  6
CONTINUOUS
 62
     7
100
AcDbLine
 10
895.683982
 20
909.681315
 30
0.0
 11
1109.326212
 21
909.681315
 31
0.0
  0
LINE
  5
10F
100
AcDbEntity
  8
LAY-1
  6
CONTINUOUS
 62
     7
100
AcDbLine
 10
917.505097
 20
896.881271
 30
0.0
 11
1087.505097
 21
896.881271
 31
0.0
  0
CIRCLE
  5
110
100
AcDbEntity
  8
LAY-1
  6
CONTINUOUS
 62
     7
100
AcDbCircle
 10
929.005097
 20
952.181315
 30
0.0
 40
31.5
  0
ARC
  5
111
100
AcDbEntity
  8
LAY-1
  6
CONTINUOUS
 62
     7
100
AcDbCircle
 10
966.224937
 20
1008.681315
 30
0.0
 40
12.0
100
AcDbArc
 50
270.0
 51
326.514623
  0
ARC
  5
112
100
AcDbEntity
  8
LAY-1
  6
CONTINUOUS
 62
     7
100
AcDbCircle
 10
1002.505097
 20
984.681315
 30
0.0
 40
31.5
100
AcDbArc
 50
33.485377
 51
146.514623
  0
ARC
  5
113
100
AcDbEntity
  8
LAY-1
  6
CONTINUOUS
 62
     7
100
AcDbCircle
 10
1038.785257
 20
1008.681315
 30
0.0
 40
12.0
100
AcDbArc
 50
213.485377
 51
270.0
  0
ARC
  5
114
100
AcDbEntity
  8
LAY-1
  6
CONTINUOUS
 62
     7
100
AcDbCircle
 10
1038.785257
 20
960.681315
 30
0.0
 40
12.0
100
AcDbArc
 50
90.0
 51
146.514623
  0
ARC
  5
115
100
AcDbEntity
  8
LAY-1
  6
CONTINUOUS
 62
     7
100
AcDbCircle
 10
1002.505097
 20
984.681315
 30
0.0
 40
31.5
100
AcDbArc
 50
303.485377
 51
326.514623
  0
ARC
  5
116
100
AcDbEntity
  8
LAY-1
  6
CONTINUOUS
 62
     7
100
AcDbCircle
 10
1002.505097
 20
984.681315
 30
0.0
 40
31.5
100
AcDbArc
 50
213.485377
 51
236.514623
  0
ARC
  5
117
100
AcDbEntity
  8
LAY-1
  6
CONTINUOUS
 62
     7
100
AcDbCircle
 10
966.224937
 20
960.681315
 30
0.0
 40
12.0
100
AcDbArc
 50
33.485377
 51
90.0
  0
ARC
  5
118
100
AcDbEntity
  8
LAY-1
  6
CONTINUOUS
 62
     7
100
AcDbCircle
 10
978.505097
 20
948.401155
 30
0.0
 40
12.0
100
AcDbArc
 50
0.0
 51
56.514623
  0
ARC
  5
119
100
AcDbEntity
  8
LAY-1
  6
CONTINUOUS
 62
     7
100
AcDbCircle
 10
1026.505097
 20
948.401155
 30
0.0
 40
12.0
100
AcDbArc
 50
123.485377
 51
180.0
  0
ARC
  5
11A
100
AcDbEntity
  8
LAY-1
  6
CONTINUOUS
 62
     7
100
AcDbCircle
 10
1009.505097
 20
939.681315
 30
0.0
 40
5.0
100
AcDbArc
 50
270.0
 51
0.0
  0
LINE
  5
11B
100
AcDbEntity
  8
LAY-1
  6
CONTINUOUS
 62
     7
100
AcDbLine
 10
1014.505097
 20
948.401155
 30
0.0
 11
1014.505097
 21
939.681315
 31
0.0
  0
LINE
  5
11C
100
AcDbEntity
  8
LAY-1
  6
CONTINUOUS
 62
     7
100
AcDbLine
 10
1009.505097
 20
934.681315
 30
0.0
 11
995.505097
 21
934.681315
 31
0.0
  0
ARC
  5
11D
100
AcDbEntity
  8
LAY-1
  6
CONTINUOUS
 62
     7
100
AcDbCircle
 10
995.505097
 20
939.681315
 30
0.0
 40
5.0
100
AcDbArc
 50
180.0
 51
270.0
  0
LINE
  5
11E
100
AcDbEntity
  8
LAY-1
  6
CONTINUOUS
 62
     7
100
AcDbLine
 10
990.505097
 20
948.401155
 30
0.0
 11
990.505097
 21
939.681315
 31
0.0
  0
CIRCLE
  5
11F
100
AcDbEntity
  8
LAY-1
  6
CONTINUOUS
 62
     7
100
AcDbCircle
 10
1076.005097
 20
952.181315
 30
0.0
 40
31.5
  0
ARC
  5
120
100
AcDbEntity
  8
LAY-1
  6
CONTINUOUS
 62
     7
100
AcDbCircle
 10
1046.505097
 20
977.681315
 30
0.0
 40
5.0
100
AcDbArc
 50
270.0
 51
0.0
  0
LINE
  5
121
100
AcDbEntity
  8
LAY-1
  6
CONTINUOUS
 62
     7
100
AcDbLine
 10
1051.505097
 20
991.681315
 30
0.0
 11
1051.505097
 21
977.681315
 31
0.0
  0
ARC
  5
122
100
AcDbEntity
  8
LAY-1
  6
CONTINUOUS
 62
     7
100
AcDbCircle
 10
1046.505097
 20
991.681315
 30
0.0
 40
5.0
100
AcDbArc
 50
0.0
 51
90.0
  0
LINE
  5
123
100
AcDbEntity
  8
LAY-1
  6
CONTINUOUS
 62
     7
100
AcDbLine
 10
1038.785257
 20
996.681315
 30
0.0
 11
1046.505097
 21
996.681315
 31
0.0
  0
ARC
  5
124
100
AcDbEntity
  8
LAY-1
  6
CONTINUOUS
 62
     7
100
AcDbCircle
 10
958.505097
 20
977.681315
 30
0.0
 40
5.0
100
AcDbArc
 50
180.0
 51
270.0
  0
LINE
  5
125
100
AcDbEntity
  8
LAY-1
  6
CONTINUOUS
 62
     7
100
AcDbLine
 10
953.505097
 20
991.681315
 30
0.0
 11
953.505097
 21
977.681315
 31
0.0
  0
ARC
  5
126
100
AcDbEntity
  8
LAY-1
  6
CONTINUOUS
 62
     7
100
AcDbCircle
 10
958.505097
 20
991.681315
 30
0.0
 40
5.0
100
AcDbArc
 50
90.0
 51
180.0
  0
LINE
  5
127
100
AcDbEntity
  8
LAY-1
  6
CONTINUOUS
 62
     7
100
AcDbLine
 10
966.224937
 20
996.681315
 30
0.0
 11
958.505097
 21
996.681315
 31
0.0
  0
LINE
  5
128
100
AcDbEntity
  8
LAY-1
  6
CONTINUOUS
 62
     7
100
AcDbLine
 10
965.295428
 20
972.681315
 30
0.0
 11
958.505097
 21
972.681315
 31
0.0
  0
ELLIPSE
  5
129
100
AcDbEntity
  8
LAY-1
  6
CONTINUOUS
 62
     7
100
AcDbEllipse
 10
1002.505097
 20
984.681315
 30
0.0
 11
-110.0000000000001
 21
0.0000000000000135
 31
0.0
210
0.0
220
0.0
230
1.0
 40
0.58
 41
3.1415926535897931
 42
0.0
  0
LINE
  5
12A
100
AcDbEntity
  8
LAY-1
  6
CONTINUOUS
 62
     7
100
AcDbLine
 10
1112.505097
 20
921.881271
 30
0.0
 11
1112.505097
 21
984.681315
 31
0.0
  0
LINE
  5
12B
100
AcDbEntity
  8
LAY-1
  6
CONTINUOUS
 62
     7
100
AcDbLine
 10
892.505097
 20
921.881271
 30
0.0
 11
892.505097
 21
984.681315
 31
0.0
  0
LINE
  5
12C
100
AcDbEntity
  8
LAY-1
  6
CONTINUOUS
 62
     7
100
AcDbLine
 10
936.413164
 20
1035.681315
 30
0.0
 11
1068.597031
 21
1035.681315
 31
0.0
  0
LINE
  5
12D
100
AcDbEntity
  8
LAY-1
  6
CONTINUOUS
 62
     7
100
AcDbLine
 10
1152.505097
 20
1001.681315
 30
0.0
 11
1152.505097
 21
984.681315
 31
0.0
  0
LINE
  5
12E
100
AcDbEntity
  8
LAY-1
  6
CONTINUOUS
 62
     7
100
AcDbLine
 10
1147.956118
 20
973.831315
 30
0.0
 11
1152.505097
 21
969.282335
 31
0.0
  0
LINE
  5
12F
100
AcDbEntity
  8
LAY-1
  6
CONTINUOUS
 62
     7
100
AcDbLine
 10
1147.956118
 20
995.531315
 30
0.0
 11
1147.956118
 21
973.831315
 31
0.0
  0
LINE
  5
130
100
AcDbEntity
  8
LAY-1
  6
CONTINUOUS
 62
     7
100
AcDbLine
 10
1147.956118
 20
995.531315
 30
0.0
 11
1152.505097
 21
1000.080294
 31
0.0
  0
LINE
  5
131
100
AcDbEntity
  8
LAY-1
  6
CONTINUOUS
 62
     7
100
AcDbLine
 10
1152.505097
 20
984.681315
 30
0.0
 11
1152.505097
 21
967.681315
 31
0.0
  0
LINE
  5
132
100
AcDbEntity
  8
LAY-1
  6
CONTINUOUS
 62
     7
100
AcDbLine
 10
1152.505097
 20
1001.681315
 30
0.0
 11
1155.162693
 21
1002.124247
 31
0.0
  0
LINE
  5
133
100
AcDbEntity
  8
LAY-1
  6
CONTINUOUS
 62
     7
100
AcDbLine
 10
1152.505097
 20
967.681315
 30
0.0
 11
1155.162693
 21
967.238382
 31
0.0
  0
LINE
  5
134
100
AcDbEntity
  8
LAY-1
  6
CONTINUOUS
 62
     7
100
AcDbLine
 10
1158.505097
 20
984.681315
 30
0.0
 11
1158.505097
 21
1032.181315
 31
0.0
  0
LINE
  5
135
100
AcDbEntity
  8
LAY-1
  6
CONTINUOUS
 62
     7
100
AcDbLine
 10
1158.505097
 20
937.181315
 30
0.0
 11
1158.505097
 21
984.681315
 31
0.0
  0
LINE
  5
136
100
AcDbEntity
  8
LAY-1
  6
CONTINUOUS
 62
     7
100
AcDbLine
 10
1171.505097
 20
984.681315
 30
0.0
 11
1171.505097
 21
1032.181315
 31
0.0
  0
LINE
  5
137
100
AcDbEntity
  8
LAY-1
  6
CONTINUOUS
 62
     7
100
AcDbLine
 10
1171.505097
 20
937.181315
 30
0.0
 11
1171.505097
 21
984.681315
 31
0.0
  0
ARC
  5
138
100
AcDbEntity
  8
LAY-1
  6
CONTINUOUS
 62
     7
100
AcDbCircle
 10
1172.505097
 20
958.181315
 30
0.0
 40
1.0
100
AcDbArc
 50
90.0
 51
180.0
  0
ARC
  5
139
100
AcDbEntity
  8
LAY-1
  6
CONTINUOUS
 62
     7
100
AcDbCircle
 10
1172.505097
 20
1011.181315
 30
0.0
 40
1.0
100
AcDbArc
 50
180.0
 51
270.0
  0
ARC
  5
13A
100
AcDbEntity
  8
LAY-1
  6
CONTINUOUS
 62
     7
100
AcDbCircle
 10
1154.505097
 20
1006.069823
 30
0.0
 40
4.0
100
AcDbArc
 50
279.462322
 51
0.0
  0
ARC
  5
13B
100
AcDbEntity
  8
LAY-1
  6
CONTINUOUS
 62
     7
100
AcDbCircle
 10
1154.505097
 20
963.292806
 30
0.0
 40
4.0
100
AcDbArc
 50
0.0
 51
80.537678
  0
LINE
  5
13C
100
AcDbEntity
  8
LAY-1
  6
CONTINUOUS
 62
     7
100
AcDbLine
 10
1158.505097
 20
937.181315
 30
0.0
 11
1171.505097
 21
937.181315
 31
0.0
  0
LINE
  5
13D
100
AcDbEntity
  8
LAY-1
  6
CONTINUOUS
 62
     7
100
AcDbLine
 10
1158.505097
 20
1032.181315
 30
0.0
 11
1171.505097
 21
1032.181315
 31
0.0
  0
LINE
  5
13E
100
AcDbEntity
  8
LAY-1
  6
CONTINUOUS
 62
     7
100
AcDbLine
 10
1172.505097
 20
959.181315
 30
0.0
 11
1172.505097
 21
1010.181315
 31
0.0
  0
CIRCLE
  5
13F
100
AcDbEntity
  8
LAY-1
  6
CONTINUOUS
 62
     7
100
AcDbCircle
 10
1076.005097
 20
952.181315
 30
0.0
 40
28.0
  0
CIRCLE
  5
140
100
AcDbEntity
  8
LAY-1
  6
CONTINUOUS
 62
     7
100
AcDbCircle
 10
1076.005097
 20
952.181315
 30
0.0
 40
28.5
  0
LINE
  5
141
100
AcDbEntity
  8
LAY-1
  6
CONTINUOUS
 62
     7
100
AcDbLine
 10
1081.953174
 20
954.181396
 30
0.0
 11
1078.995488
 21
954.714705
 31
0.0
  0
LINE
  5
142
100
AcDbEntity
  8
LAY-1
  6
CONTINUOUS
 62
     7
100
AcDbLine
 10
1078.995488
 20
954.714705
 30
0.0
 11
1079.111237
 21
957.717857
 31
0.0
  0
LINE
  5
143
100
AcDbEntity
  8
LAY-1
  6
CONTINUOUS
 62
     7
100
AcDbLine
 10
1081.953174
 20
954.181396
 30
0.0
 11
1056.81379
 21
936.889258
 31
0.0
  0
LINE
  5
144
100
AcDbEntity
  8
LAY-1
  6
CONTINUOUS
 62
     7
100
AcDbLine
 10
1079.111237
 20
957.717857
 30
0.0
 11
1056.81379
 21
936.889258
 31
0.0
  0
CIRCLE
  5
145
100
AcDbEntity
  8
LAY-1
  6
CONTINUOUS
 62
     7
100
AcDbCircle
 10
1058.95762
 20
937.18589
 30
0.0
 40
0.981818
  0
ARC
  5
146
100
AcDbEntity
  8
LAY-1
  6
CONTINUOUS
 62
     7
100
AcDbCircle
 10
1045.505097
 20
979.681315
 30
0.0
 40
5.0
100
AcDbArc
 50
270.0
 51
0.0
  0
LINE
  5
147
100
AcDbEntity
  8
LAY-1
  6
CONTINUOUS
 62
     7
100
AcDbLine
 10
1050.505097
 20
989.681315
 30
0.0
 11
1050.505097
 21
979.681315
 31
0.0
  0
ARC
  5
148
100
AcDbEntity
  8
LAY-1
  6
CONTINUOUS
 62
     7
100
AcDbCircle
 10
1045.505097
 20
989.681315
 30
0.0
 40
5.0
100
AcDbArc
 50
0.0
 51
90.0
  0
LINE
  5
149
100
AcDbEntity
  8
LAY-1
  6
CONTINUOUS
 62
     7
100
AcDbLine
 10
1043.005097
 20
981.681315
 30
0.0
 11
1046.005097
 21
984.681315
 31
0.0
  0
LINE
  5
14A
100
AcDbEntity
  8
LAY-1
  6
CONTINUOUS
 62
     7
100
AcDbLine
 10
1043.005097
 20
982.681315
 30
0.0
 11
1043.005097
 21
981.681315
 31
0.0
  0
LINE
  5
14B
100
AcDbEntity
  8
LAY-1
  6
CONTINUOUS
 62
     7
100
AcDbLine
 10
1039.005097
 20
982.681315
 30
0.0
 11
1043.005097
 21
982.681315
 31
0.0
  0
LINE
  5
14C
100
AcDbEntity
  8
LAY-1
  6
CONTINUOUS
 62
     7
100
AcDbLine
 10
1039.005097
 20
986.681315
 30
0.0
 11
1039.005097
 21
982.681315
 31
0.0
  0
LINE
  5
14D
100
AcDbEntity
  8
LAY-1
  6
CONTINUOUS
 62
     7
100
AcDbLine
 10
1043.005097
 20
987.681315
 30
0.0
 11
1043.005097
 21
986.681315
 31
0.0
  0
LINE
  5
14E
100
AcDbEntity
  8
LAY-1
  6
CONTINUOUS
 62
     7
100
AcDbLine
 10
1046.005097
 20
984.681315
 30
0.0
 11
1043.005097
 21
987.681315
 31
0.0
  0
LINE
  5
14F
100
AcDbEntity
  8
LAY-1
  6
CONTINUOUS
 62
     7
100
AcDbLine
 10
1043.005097
 20
986.681315
 30
0.0
 11
1039.005097
 21
986.681315
 31
0.0
  0
LINE
  5
150
100
AcDbEntity
  8
LAY-1
  6
CONTINUOUS
 62
     7
100
AcDbLine
 10
1045.505097
 20
994.681315
 30
0.0
 11
1036.995457
 21
994.681315
 31
0.0
  0
ARC
  5
151
100
AcDbEntity
  8
LAY-1
  6
CONTINUOUS
 62
     7
100
AcDbCircle
 10
1036.995457
 20
1004.681315
 30
0.0
 40
10.0
100
AcDbArc
 50
210.108252
 51
270.0
  0
LINE
  5
152
100
AcDbEntity
  8
LAY-1
  6
CONTINUOUS
 62
     7
100
AcDbLine
 10
1034.505097
 20
979.681315
 30
0.0
 11
1034.505097
 21
989.681315
 31
0.0
  0
ARC
  5
153
100
AcDbEntity
  8
LAY-1
  6
CONTINUOUS
 62
     7
100
AcDbCircle
 10
1039.505097
 20
979.681315
 30
0.0
 40
5.0
100
AcDbArc
 50
180.0
 51
270.0
  0
ARC
  5
154
100
AcDbEntity
  8
LAY-1
  6
CONTINUOUS
 62
     7
100
AcDbCircle
 10
1039.505097
 20
989.681315
 30
0.0
 40
5.0
100
AcDbArc
 50
90.0
 51
180.0
  0
ARC
  5
155
100
AcDbEntity
  8
LAY-1
  6
CONTINUOUS
 62
     7
100
AcDbCircle
 10
1036.995457
 20
964.681315
 30
0.0
 40
10.0
100
AcDbArc
 50
90.0
 51
149.891748
  0
ARC
  5
156
100
AcDbEntity
  8
LAY-1
  6
CONTINUOUS
 62
     7
100
AcDbCircle
 10
1002.505097
 20
984.681315
 30
0.0
 40
29.869599
100
AcDbArc
 50
293.297301
 51
246.702699
  0
ARC
  5
157
100
AcDbEntity
  8
LAY-1
  6
CONTINUOUS
 62
     7
100
AcDbCircle
 10
1002.505097
 20
984.681315
 30
0.0
 40
28.229077
100
AcDbArc
 50
292.365522
 51
247.634478
  0
CIRCLE
  5
158
100
AcDbEntity
  8
LAY-1
  6
CONTINUOUS
 62
     7
100
AcDbCircle
 10
1002.505097
 20
984.681315
 30
0.0
 40
24.0
  0
LINE
  5
159
100
AcDbEntity
  8
LAY-1
  6
CONTINUOUS
 62
     7
100
AcDbLine
 10
993.312709
 20
993.873703
 30
0.0
 11
994.019816
 21
993.166596
 31
0.0
  0
ARC
  5
15A
100
AcDbEntity
  8
LAY-1
  6
CONTINUOUS
 62
     7
100
AcDbCircle
 10
1002.505097
 20
984.681315
 30
0.0
 40
15.0
100
AcDbArc
 50
45.0
 51
135.0
  0
ARC
  5
15B
100
AcDbEntity
  8
LAY-1
  6
CONTINUOUS
 62
     7
100
AcDbCircle
 10
1002.505097
 20
984.681315
 30
0.0
 40
13.0
100
AcDbArc
 50
45.0
 51
135.0
  0
LINE
  5
15C
100
AcDbEntity
  8
LAY-1
  6
CONTINUOUS
 62
     7
100
AcDbLine
 10
991.898496
 20
995.287916
 30
0.0
 11
991.191389
 21
995.995023
 31
0.0
  0
LINE
  5
15D
100
AcDbEntity
  8
LAY-1
  6
CONTINUOUS
 62
     7
100
AcDbLine
 10
1013.111699
 20
995.287916
 30
0.0
 11
1013.818806
 21
995.995023
 31
0.0
  0
LINE
  5
15E
100
AcDbEntity
  8
LAY-1
  6
CONTINUOUS
 62
     7
100
AcDbLine
 10
1010.990379
 20
993.166596
 30
0.0
 11
1011.697485
 21
993.873703
 31
0.0
  0
LINE
  5
15F
100
AcDbEntity
  8
LAY-1
  6
CONTINUOUS
 62
     7
100
AcDbLine
 10
1010.990379
 20
993.166596
 30
0.0
 11
1014.25647
 21
992.190046
 31
0.0
  0
LINE
  5
160
100
AcDbEntity
  8
LAY-1
  6
CONTINUOUS
 62
     7
100
AcDbLine
 10
1013.818806
 20
995.995023
 30
0.0
 11
1014.25647
 21
992.190046
 31
0.0
  0
LINE
  5
161
100
AcDbEntity
  8
LAY-1
  6
CONTINUOUS
 62
     7
100
AcDbLine
 10
991.191389
 20
995.995023
 30
0.0
 11
990.753725
 21
992.190046
 31
0.0
  0
LINE
  5
162
100
AcDbEntity
  8
LAY-1
  6
CONTINUOUS
 62
     7
100
AcDbLine
 10
994.019816
 20
993.166596
 30
0.0
 11
990.753725
 21
992.190046
 31
0.0
  0
LINE
  5
163
100
AcDbEntity
  8
LAY-1
  6
CONTINUOUS
 62
     7
100
AcDbLine
 10
1013.505097
 20
980.681315
 30
0.0
 11
1013.505097
 21
987.681315
 31
0.0
  0
LINE
  5
164
100
AcDbEntity
  8
LAY-1
  6
CONTINUOUS
 62
     7
100
AcDbLine
 10
1013.005097
 20
988.181315
 30
0.0
 11
992.005097
 21
988.181315
 31
0.0
  0
LINE
  5
165
100
AcDbEntity
  8
LAY-1
  6
CONTINUOUS
 62
     7
100
AcDbLine
 10
991.505097
 20
987.681315
 30
0.0
 11
991.505097
 21
980.681315
 31
0.0
  0
LINE
  5
166
100
AcDbEntity
  8
LAY-1
  6
CONTINUOUS
 62
     7
100
AcDbLine
 10
992.005097
 20
980.181315
 30
0.0
 11
1013.005097
 21
980.181315
 31
0.0
  0
ARC
  5
167
100
AcDbEntity
  8
LAY-1
  6
CONTINUOUS
 62
     7
100
AcDbCircle
 10
1013.005097
 20
987.681315
 30
0.0
 40
0.5
100
AcDbArc
 50
0.0
 51
90.0
  0
ARC
  5
168
100
AcDbEntity
  8
LAY-1
  6
CONTINUOUS
 62
     7
100
AcDbCircle
 10
1013.005097
 20
980.681315
 30
0.0
 40
0.5
100
AcDbArc
 50
270.0
 51
0.0
  0
ARC
  5
169
100
AcDbEntity
  8
LAY-1
  6
CONTINUOUS
 62
     7
100
AcDbCircle
 10
992.005097
 20
980.681315
 30
0.0
 40
0.5
100
AcDbArc
 50
180.0
 51
270.0
  0
ARC
  5
16A
100
AcDbEntity
  8
LAY-1
  6
CONTINUOUS
 62
     7
100
AcDbCircle
 10
992.005097
 20
987.681315
 30
0.0
 40
0.5
100
AcDbArc
 50
90.0
 51
180.0
  0
ARC
  5
16B
100
AcDbEntity
  8
LAY-1
  6
CONTINUOUS
 62
     7
100
AcDbCircle
 10
1002.505097
 20
984.681315
 30
0.0
 40
33.5
100
AcDbArc
 50
172.658462
 51
180.0
  0
ARC
  5
16C
100
AcDbEntity
  8
LAY-1
  6
CONTINUOUS
 62
     7
100
AcDbCircle
 10
1002.505097
 20
984.681315
 30
0.0
 40
33.5
100
AcDbArc
 50
180.0
 51
187.341538
  0
LINE
  5
16D
100
AcDbEntity
  8
LAY-1
  6
CONTINUOUS
 62
     7
100
AcDbLine
 10
1002.505097
 20
951.681315
 30
0.0
 11
992.505097
 21
951.681315
 31
0.0
  0
LINE
  5
16E
100
AcDbEntity
  8
LAY-1
  6
CONTINUOUS
 62
     7
100
AcDbLine
 10
1002.505097
 20
951.681315
 30
0.0
 11
1012.505097
 21
951.681315
 31
0.0
  0
LINE
  5
16F
100
AcDbEntity
  8
LAY-1
  6
CONTINUOUS
 62
     7
100
AcDbLine
 10
992.505097
 20
951.681315
 30
0.0
 11
992.505097
 21
954.491738
 31
0.0
  0
ARC
  5
170
100
AcDbEntity
  8
LAY-1
  6
CONTINUOUS
 62
     7
100
AcDbCircle
 10
989.505097
 20
954.491738
 30
0.0
 40
3.0
100
AcDbArc
 50
0.0
 51
66.702699
  0
ARC
  5
171
100
AcDbEntity
  8
LAY-1
  6
CONTINUOUS
 62
     7
100
AcDbCircle
 10
1015.505097
 20
954.491738
 30
0.0
 40
3.0
100
AcDbArc
 50
113.297301
 51
180.0
  0
LINE
  5
172
100
AcDbEntity
  8
LAY-1
  6
CONTINUOUS
 62
     7
100
AcDbLine
 10
1012.505097
 20
951.681315
 30
0.0
 11
1012.505097
 21
954.491738
 31
0.0
  0
ARC
  5
173
100
AcDbEntity
  8
LAY-1
  6
CONTINUOUS
 62
     7
100
AcDbCircle
 10
1002.505097
 20
906.985489
 30
0.0
 40
51.590276
100
AcDbArc
 50
78.823326
 51
101.176674
  0
CIRCLE
  5
174
100
AcDbEntity
  8
LAY-1
  6
CONTINUOUS
 62
     7
100
AcDbCircle
 10
929.005097
 20
952.181315
 30
0.0
 40
27.0
  0
CIRCLE
  5
175
100
AcDbEntity
  8
LAY-1
  6
CONTINUOUS
 62
     7
100
AcDbCircle
 10
929.005097
 20
952.181315
 30
0.0
 40
25.772727
  0
LINE
  5
176
100
AcDbEntity
  8
LAY-1
  6
CONTINUOUS
 62
     7
100
AcDbLine
 10
852.505097
 20
1001.681315
 30
0.0
 11
852.505097
 21
984.681315
 31
0.0
  0
LINE
  5
177
100
AcDbEntity
  8
LAY-1
  6
CONTINUOUS
 62
     7
100
AcDbLine
 10
857.054077
 20
973.831315
 30
0.0
 11
852.505097
 21
969.282335
 31
0.0
  0
LINE
  5
178
100
AcDbEntity
  8
LAY-1
  6
CONTINUOUS
 62
     7
100
AcDbLine
 10
857.054077
 20
995.531315
 30
0.0
 11
857.054077
 21
973.831315
 31
0.0
  0
LINE
  5
179
100
AcDbEntity
  8
LAY-1
  6
CONTINUOUS
 62
     7
100
AcDbLine
 10
857.054077
 20
995.531315
 30
0.0
 11
852.505097
 21
1000.080294
 31
0.0
  0
LINE
  5
17A
100
AcDbEntity
  8
LAY-1
  6
CONTINUOUS
 62
     7
100
AcDbLine
 10
852.505097
 20
984.681315
 30
0.0
 11
852.505097
 21
967.681315
 31
0.0
  0
LINE
  5
17B
100
AcDbEntity
  8
LAY-1
  6
CONTINUOUS
 62
     7
100
AcDbLine
 10
852.505097
 20
1001.681315
 30
0.0
 11
849.847501
 21
1002.124247
 31
0.0
  0
LINE
  5
17C
100
AcDbEntity
  8
LAY-1
  6
CONTINUOUS
 62
     7
100
AcDbLine
 10
852.505097
 20
967.681315
 30
0.0
 11
849.847501
 21
967.238382
 31
0.0
  0
LINE
  5
17D
100
AcDbEntity
  8
LAY-1
  6
CONTINUOUS
 62
     7
100
AcDbLine
 10
846.505097
 20
984.681315
 30
0.0
 11
846.505097
 21
1032.181315
 31
0.0
  0
LINE
  5
17E
100
AcDbEntity
  8
LAY-1
  6
CONTINUOUS
 62
     7
100
AcDbLine
 10
846.505097
 20
937.181315
 30
0.0
 11
846.505097
 21
984.681315
 31
0.0
  0
LINE
  5
17F
100
AcDbEntity
  8
LAY-1
  6
CONTINUOUS
 62
     7
100
AcDbLine
 10
833.505097
 20
984.681315
 30
0.0
 11
833.505097
 21
1032.181315
 31
0.0
  0
LINE
  5
180
100
AcDbEntity
  8
LAY-1
  6
CONTINUOUS
 62
     7
100
AcDbLine
 10
833.505097
 20
937.181315
 30
0.0
 11
833.505097
 21
984.681315
 31
0.0
  0
ARC
  5
181
100
AcDbEntity
  8
LAY-1
  6
CONTINUOUS
 62
     7
100
AcDbCircle
 10
832.505097
 20
958.181315
 30
0.0
 40
1.0
100
AcDbArc
 50
0.0
 51
90.0
  0
ARC
  5
182
100
AcDbEntity
  8
LAY-1
  6
CONTINUOUS
 62
     7
100
AcDbCircle
 10
832.505097
 20
1011.181315
 30
0.0
 40
1.0
100
AcDbArc
 50
270.0
 51
0.0
  0
ARC
  5
183
100
AcDbEntity
  8
LAY-1
  6
CONTINUOUS
 62
     7
100
AcDbCircle
 10
850.505097
 20
1006.069823
 30
0.0
 40
4.0
100
AcDbArc
 50
180.0
 51
260.537678
  0
ARC
  5
184
100
AcDbEntity
  8
LAY-1
  6
CONTINUOUS
 62
     7
100
AcDbCircle
 10
850.505097
 20
963.292806
 30
0.0
 40
4.0
100
AcDbArc
 50
99.462322
 51
180.0
  0
LINE
  5
185
100
AcDbEntity
  8
LAY-1
  6
CONTINUOUS
 62
     7
100
AcDbLine
 10
846.505097
 20
937.181315
 30
0.0
 11
833.505097
 21
937.181315
 31
0.0
  0
LINE
  5
186
100
AcDbEntity
  8
LAY-1
  6
CONTINUOUS
 62
     7
100
AcDbLine
 10
846.505097
 20
1032.181315
 30
0.0
 11
833.505097
 21
1032.181315
 31
0.0
  0
LINE
  5
187
100
AcDbEntity
  8
LAY-1
  6
CONTINUOUS
 62
     7
100
AcDbLine
 10
832.505097
 20
959.181315
 30
0.0
 11
832.505097
 21
1010.181315
 31
0.0
  0
LINE
  5
188
100
AcDbEntity
  8
LAY-1
  6
CONTINUOUS
 62
     7
100
AcDbLine
 10
1140.505097
 20
995.531315
 30
0.0
 11
1147.956118
 21
995.531315
 31
0.0
  0
LINE
  5
189
100
AcDbEntity
  8
LAY-1
  6
CONTINUOUS
 62
     7
100
AcDbLine
 10
1140.505097
 20
973.831315
 30
0.0
 11
1147.956118
 21
973.831315
 31
0.0
  0
LINE
  5
18A
100
AcDbEntity
  8
LAY-1
  6
CONTINUOUS
 62
     7
100
AcDbLine
 10
1088.005097
 20
926.131315
 30
0.0
 11
1088.005097
 21
923.056583
 31
0.0
  0
LINE
  5
18B
100
AcDbEntity
  8
LAY-1
  6
CONTINUOUS
 62
     7
100
AcDbLine
 10
1064.005097
 20
926.330783
 30
0.0
 11
1064.005097
 21
923.056583
 31
0.0
  0
LINE
  5
18C
100
AcDbEntity
  8
LAY-1
  6
CONTINUOUS
 62
     7
100
AcDbLine
 10
934.953174
 20
952.781396
 30
0.0
 11
931.995488
 21
953.314705
 31
0.0
  0
LINE
  5
18D
100
AcDbEntity
  8
LAY-1
  6
CONTINUOUS
 62
     7
100
AcDbLine
 10
931.995488
 20
953.314705
 30
0.0
 11
932.111237
 21
956.317857
 31
0.0
  0
LINE
  5
18E
100
AcDbEntity
  8
LAY-1
  6
CONTINUOUS
 62
     7
100
AcDbLine
 10
934.953174
 20
952.781396
 30
0.0
 11
909.81379
 21
935.489258
 31
0.0
  0
LINE
  5
18F
100
AcDbEntity
  8
LAY-1
  6
CONTINUOUS
 62
     7
100
AcDbLine
 10
932.111237
 20
956.317857
 30
0.0
 11
909.81379
 21
935.489258
 31
0.0
  0
CIRCLE
  5
190
100
AcDbEntity
  8
LAY-1
  6
CONTINUOUS
 62
     7
100
AcDbCircle
 10
911.95762
 20
935.78589
 30
0.0
 40
0.981818
  0
LINE
  5
191
100
AcDbEntity
  8
LAY-1
  6
CONTINUOUS
 62
     7
100
AcDbLine
 10
864.505097
 20
995.531315
 30
0.0
 11
857.054077
 21
995.531315
 31
0.0
  0
LINE
  5
192
100
AcDbEntity
  8
LAY-1
  6
CONTINUOUS
 62
     7
100
AcDbLine
 10
864.505097
 20
973.831315
 30
0.0
 11
857.054077
 21
973.831315
 31
0.0
  0
LINE
  5
193
100
AcDbEntity
  8
LAY-1
  6
CONTINUOUS
 62
     7
100
AcDbLine
 10
970.369412
 20
997.419728
 30
0.0
 11
969.279728
 21
988.962068
 31
0.0
  0
LINE
  5
194
100
AcDbEntity
  8
LAY-1
  6
CONTINUOUS
 62
     7
100
AcDbLine
 10
1034.640782
 20
997.419728
 30
0.0
 11
1034.966809
 21
994.889247
 31
0.0
  0
LINE
  5
195
100
AcDbEntity
  8
LAY-1
  6
CONTINUOUS
 62
     7
100
AcDbLine
 10
1034.640782
 20
971.942901
 30
0.0
 11
1034.966809
 21
974.473382
 31
0.0
  0
LINE
  5
196
100
AcDbEntity
  8
LAY-1
  6
CONTINUOUS
 62
     7
100
AcDbLine
 10
1015.243511
 20
952.54563
 30
0.0
 11
1012.505097
 21
952.192813
 31
0.0
  0
LINE
  5
197
100
AcDbEntity
  8
LAY-1
  6
CONTINUOUS
 62
     7
100
AcDbLine
 10
989.766684
 20
952.54563
 30
0.0
 11
992.505097
 21
952.192813
 31
0.0
  0
LINE
  5
198
100
AcDbEntity
  8
LAY-1
  6
CONTINUOUS
 62
     7
100
AcDbLine
 10
970.369412
 20
971.942901
 30
0.0
 11
969.279728
 21
980.400562
 31
0.0
  0
LINE
  5
199
100
AcDbEntity
  8
LAY-1
  6
CONTINUOUS
 62
     7
100
AcDbLine
 10
1010.505097
 20
951.935133
 30
0.0
 11
1010.505097
 21
934.681315
 31
0.0
  0
LINE
  5
19A
100
AcDbEntity
  8
LAY-1
  6
CONTINUOUS
 62
     7
100
AcDbLine
 10
994.505097
 20
951.935133
 30
0.0
 11
994.505097
 21
934.681315
 31
0.0
  0
LINE
  5
19B
100
AcDbEntity
  8
LAY-1
  6
CONTINUOUS
 62
     7
100
AcDbLine
 10
1117.505097
 20
583.681315
 30
0.0
 11
1007.505097
 21
583.681315
 31
0.0
  0
LINE
  5
19C
100
AcDbEntity
  8
LAY-1
  6
CONTINUOUS
 62
     7
100
AcDbLine
 10
1007.505097
 20
585.681315
 30
0.0
 11
1007.505097
 21
581.681315
 31
0.0
  0
LINE
  5
19D
100
AcDbEntity
  8
LAY-1
  6
CONTINUOUS
 62
     7
100
AcDbLine
 10
1117.505097
 20
585.681315
 30
0.0
 11
1117.505097
 21
581.681315
 31
0.0
  0
LINE
  5
19E
100
AcDbEntity
  8
LAY-1
  6
CONTINUOUS
 62
     7
100
AcDbLine
 10
1117.505097
 20
581.681315
 30
0.0
 11
1007.505097
 21
581.681315
 31
0.0
  0
LINE
  5
19F
100
AcDbEntity
  8
LAY-1
  6
CONTINUOUS
 62
     7
100
AcDbLine
 10
1108.305097
 20
575.181315
 30
0.0
 11
1107.555097
 21
575.614327
 31
0.0
  0
LINE
  5
1A0
100
AcDbEntity
  8
LAY-1
  6
CONTINUOUS
 62
     7
100
AcDbLine
 10
1113.305097
 20
575.181315
 30
0.0
 11
1108.305097
 21
575.181315
 31
0.0
  0
ARC
  5
1A1
100
AcDbEntity
  8
LAY-1
  6
CONTINUOUS
 62
     7
100
AcDbCircle
 10
1108.986722
 20
577.764435
 30
0.0
 40
2.583121
100
AcDbArc
 50
236.342803
 51
303.657197
  0
LINE
  5
1A2
100
AcDbEntity
  8
LAY-1
  6
CONTINUOUS
 62
     7
100
AcDbLine
 10
1118.305097
 20
575.181315
 30
0.0
 11
1119.055097
 21
575.614327
 31
0.0
  0
LINE
  5
1A3
100
AcDbEntity
  8
LAY-1
  6
CONTINUOUS
 62
     7
100
AcDbLine
 10
1113.305097
 20
575.181315
 30
0.0
 11
1118.305097
 21
575.181315
 31
0.0
  0
ARC
  5
1A4
100
AcDbEntity
  8
LAY-1
  6
CONTINUOUS
 62
     7
100
AcDbCircle
 10
1117.623473
 20
577.764435
 30
0.0
 40
2.583121
100
AcDbArc
 50
236.342803
 51
303.657197
  0
ARC
  5
1A5
100
AcDbEntity
  8
LAY-1
  6
CONTINUOUS
 62
     7
100
AcDbCircle
 10
1113.305097
 20
585.020325
 30
0.0
 40
9.839011
100
AcDbArc
 50
252.938469
 51
287.061531
  0
LINE
  5
1A6
100
AcDbEntity
  8
LAY-1
  6
CONTINUOUS
 62
     7
100
AcDbLine
 10
1107.555097
 20
575.614327
 30
0.0
 11
1107.555097
 21
580.181315
 31
0.0
  0
LINE
  5
1A7
100
AcDbEntity
  8
LAY-1
  6
CONTINUOUS
 62
     7
100
AcDbLine
 10
1110.418346
 20
575.614327
 30
0.0
 11
1110.418346
 21
580.181315
 31
0.0
  0
LINE
  5
1A8
100
AcDbEntity
  8
LAY-1
  6
CONTINUOUS
 62
     7
100
AcDbLine
 10
1119.055097
 20
575.614327
 30
0.0
 11
1119.055097
 21
580.181315
 31
0.0
  0
LINE
  5
1A9
100
AcDbEntity
  8
LAY-1
  6
CONTINUOUS
 62
     7
100
AcDbLine
 10
1116.191849
 20
575.614327
 30
0.0
 11
1116.191849
 21
580.181315
 31
0.0
  0
LINE
  5
1AA
100
AcDbEntity
  8
LAY-1
  6
CONTINUOUS
 62
     7
100
AcDbLine
 10
1119.405097
 20
580.181315
 30
0.0
 11
1119.405097
 21
581.681315
 31
0.0
  0
LINE
  5
1AB
100
AcDbEntity
  8
LAY-1
  6
CONTINUOUS
 62
     7
100
AcDbLine
 10
1113.305097
 20
580.181315
 30
0.0
 11
1119.405097
 21
580.181315
 31
0.0
  0
LINE
  5
1AC
100
AcDbEntity
  8
LAY-1
  6
CONTINUOUS
 62
     7
100
AcDbLine
 10
1113.305097
 20
581.681315
 30
0.0
 11
1119.405097
 21
581.681315
 31
0.0
  0
LINE
  5
1AD
100
AcDbEntity
  8
LAY-1
  6
CONTINUOUS
 62
     7
100
AcDbLine
 10
1107.205097
 20
580.181315
 30
0.0
 11
1107.205097
 21
581.681315
 31
0.0
  0
LINE
  5
1AE
100
AcDbEntity
  8
LAY-1
  6
CONTINUOUS
 62
     7
100
AcDbLine
 10
1113.305097
 20
580.181315
 30
0.0
 11
1107.205097
 21
580.181315
 31
0.0
  0
LINE
  5
1AF
100
AcDbEntity
  8
LAY-1
  6
CONTINUOUS
 62
     7
100
AcDbLine
 10
1111.805097
 20
580.181315
 30
0.0
 11
1113.305097
 21
581.681315
 31
0.0
  0
LINE
  5
1B0
100
AcDbEntity
  8
LAY-1
  6
CONTINUOUS
 62
     7
100
AcDbLine
 10
1114.805097
 20
581.681315
 30
0.0
 11
1113.305097
 21
580.181315
 31
0.0
  0
LINE
  5
1B1
100
AcDbEntity
  8
LAY-1
  6
CONTINUOUS
 62
     7
100
AcDbLine
 10
1078.505097
 20
575.181315
 30
0.0
 11
1077.755097
 21
575.614327
 31
0.0
  0
LINE
  5
1B2
100
AcDbEntity
  8
LAY-1
  6
CONTINUOUS
 62
     7
100
AcDbLine
 10
1083.505097
 20
575.181315
 30
0.0
 11
1078.505097
 21
575.181315
 31
0.0
  0
ARC
  5
1B3
100
AcDbEntity
  8
LAY-1
  6
CONTINUOUS
 62
     7
100
AcDbCircle
 10
1079.186722
 20
577.764435
 30
0.0
 40
2.583121
100
AcDbArc
 50
236.342803
 51
303.657197
  0
LINE
  5
1B4
100
AcDbEntity
  8
LAY-1
  6
CONTINUOUS
 62
     7
100
AcDbLine
 10
1088.505097
 20
575.181315
 30
0.0
 11
1089.255097
 21
575.614327
 31
0.0
  0
LINE
  5
1B5
100
AcDbEntity
  8
LAY-1
  6
CONTINUOUS
 62
     7
100
AcDbLine
 10
1083.505097
 20
575.181315
 30
0.0
 11
1088.505097
 21
575.181315
 31
0.0
  0
ARC
  5
1B6
100
AcDbEntity
  8
LAY-1
  6
CONTINUOUS
 62
     7
100
AcDbCircle
 10
1087.823473
 20
577.764435
 30
0.0
 40
2.583121
100
AcDbArc
 50
236.342803
 51
303.657197
  0
ARC
  5
1B7
100
AcDbEntity
  8
LAY-1
  6
CONTINUOUS
 62
     7
100
AcDbCircle
 10
1083.505097
 20
585.020325
 30
0.0
 40
9.839011
100
AcDbArc
 50
252.938469
 51
287.061531
  0
LINE
  5
1B8
100
AcDbEntity
  8
LAY-1
  6
CONTINUOUS
 62
     7
100
AcDbLine
 10
1077.755097
 20
575.614327
 30
0.0
 11
1077.755097
 21
580.181315
 31
0.0
  0
LINE
  5
1B9
100
AcDbEntity
  8
LAY-1
  6
CONTINUOUS
 62
     7
100
AcDbLine
 10
1080.618346
 20
575.614327
 30
0.0
 11
1080.618346
 21
580.181315
 31
0.0
  0
LINE
  5
1BA
100
AcDbEntity
  8
LAY-1
  6
CONTINUOUS
 62
     7
100
AcDbLine
 10
1089.255097
 20
575.614327
 30
0.0
 11
1089.255097
 21
580.181315
 31
0.0
  0
LINE
  5
1BB
100
AcDbEntity
  8
LAY-1
  6
CONTINUOUS
 62
     7
100
AcDbLine
 10
1086.391849
 20
575.614327
 30
0.0
 11
1086.391849
 21
580.181315
 31
0.0
  0
LINE
  5
1BC
100
AcDbEntity
  8
LAY-1
  6
CONTINUOUS
 62
     7
100
AcDbLine
 10
1089.605097
 20
580.181315
 30
0.0
 11
1089.605097
 21
581.681315
 31
0.0
  0
LINE
  5
1BD
100
AcDbEntity
  8
LAY-1
  6
CONTINUOUS
 62
     7
100
AcDbLine
 10
1083.505097
 20
580.181315
 30
0.0
 11
1089.605097
 21
580.181315
 31
0.0
  0
LINE
  5
1BE
100
AcDbEntity
  8
LAY-1
  6
CONTINUOUS
 62
     7
100
AcDbLine
 10
1077.405097
 20
580.181315
 30
0.0
 11
1077.405097
 21
581.681315
 31
0.0
  0
LINE
  5
1BF
100
AcDbEntity
  8
LAY-1
  6
CONTINUOUS
 62
     7
100
AcDbLine
 10
1083.505097
 20
580.181315
 30
0.0
 11
1077.405097
 21
580.181315
 31
0.0
  0
LINE
  5
1C0
100
AcDbEntity
  8
LAY-1
  6
CONTINUOUS
 62
     7
100
AcDbLine
 10
1082.005097
 20
580.181315
 30
0.0
 11
1083.505097
 21
581.681315
 31
0.0
  0
LINE
  5
1C1
100
AcDbEntity
  8
LAY-1
  6
CONTINUOUS
 62
     7
100
AcDbLine
 10
1085.005097
 20
581.681315
 30
0.0
 11
1083.505097
 21
580.181315
 31
0.0
  0
LINE
  5
1C2
100
AcDbEntity
  8
LAY-1
  6
CONTINUOUS
 62
     7
100
AcDbLine
 10
1036.505097
 20
575.181315
 30
0.0
 11
1035.755097
 21
575.614327
 31
0.0
  0
LINE
  5
1C3
100
AcDbEntity
  8
LAY-1
  6
CONTINUOUS
 62
     7
100
AcDbLine
 10
1041.505097
 20
575.181315
 30
0.0
 11
1036.505097
 21
575.181315
 31
0.0
  0
ARC
  5
1C4
100
AcDbEntity
  8
LAY-1
  6
CONTINUOUS
 62
     7
100
AcDbCircle
 10
1037.186722
 20
577.764435
 30
0.0
 40
2.583121
100
AcDbArc
 50
236.342803
 51
303.657197
  0
LINE
  5
1C5
100
AcDbEntity
  8
LAY-1
  6
CONTINUOUS
 62
     7
100
AcDbLine
 10
1046.505097
 20
575.181315
 30
0.0
 11
1047.255097
 21
575.614327
 31
0.0
  0
LINE
  5
1C6
100
AcDbEntity
  8
LAY-1
  6
CONTINUOUS
 62
     7
100
AcDbLine
 10
1041.505097
 20
575.181315
 30
0.0
 11
1046.505097
 21
575.181315
 31
0.0
  0
ARC
  5
1C7
100
AcDbEntity
  8
LAY-1
  6
CONTINUOUS
 62
     7
100
AcDbCircle
 10
1045.823473
 20
577.764435
 30
0.0
 40
2.583121
100
AcDbArc
 50
236.342803
 51
303.657197
  0
ARC
  5
1C8
100
AcDbEntity
  8
LAY-1
  6
CONTINUOUS
 62
     7
100
AcDbCircle
 10
1041.505097
 20
585.020325
 30
0.0
 40
9.839011
100
AcDbArc
 50
252.938469
 51
287.061531
  0
LINE
  5
1C9
100
AcDbEntity
  8
LAY-1
  6
CONTINUOUS
 62
     7
100
AcDbLine
 10
1035.755097
 20
575.614327
 30
0.0
 11
1035.755097
 21
580.181315
 31
0.0
  0
LINE
  5
1CA
100
AcDbEntity
  8
LAY-1
  6
CONTINUOUS
 62
     7
100
AcDbLine
 10
1038.618346
 20
575.614327
 30
0.0
 11
1038.618346
 21
580.181315
 31
0.0
  0
LINE
  5
1CB
100
AcDbEntity
  8
LAY-1
  6
CONTINUOUS
 62
     7
100
AcDbLine
 10
1047.255097
 20
575.614327
 30
0.0
 11
1047.255097
 21
580.181315
 31
0.0
  0
LINE
  5
1CC
100
AcDbEntity
  8
LAY-1
  6
CONTINUOUS
 62
     7
100
AcDbLine
 10
1044.391849
 20
575.614327
 30
0.0
 11
1044.391849
 21
580.181315
 31
0.0
  0
LINE
  5
1CD
100
AcDbEntity
  8
LAY-1
  6
CONTINUOUS
 62
     7
100
AcDbLine
 10
1047.605097
 20
580.181315
 30
0.0
 11
1047.605097
 21
581.681315
 31
0.0
  0
LINE
  5
1CE
100
AcDbEntity
  8
LAY-1
  6
CONTINUOUS
 62
     7
100
AcDbLine
 10
1041.505097
 20
580.181315
 30
0.0
 11
1047.605097
 21
580.181315
 31
0.0
  0
LINE
  5
1CF
100
AcDbEntity
  8
LAY-1
  6
CONTINUOUS
 62
     7
100
AcDbLine
 10
1035.405097
 20
580.181315
 30
0.0
 11
1035.405097
 21
581.681315
 31
0.0
  0
LINE
  5
1D0
100
AcDbEntity
  8
LAY-1
  6
CONTINUOUS
 62
     7
100
AcDbLine
 10
1041.505097
 20
580.181315
 30
0.0
 11
1035.405097
 21
580.181315
 31
0.0
  0
LINE
  5
1D1
100
AcDbEntity
  8
LAY-1
  6
CONTINUOUS
 62
     7
100
AcDbLine
 10
1040.005097
 20
580.181315
 30
0.0
 11
1041.505097
 21
581.681315
 31
0.0
  0
LINE
  5
1D2
100
AcDbEntity
  8
LAY-1
  6
CONTINUOUS
 62
     7
100
AcDbLine
 10
1043.005097
 20
581.681315
 30
0.0
 11
1041.505097
 21
580.181315
 31
0.0
  0
LINE
  5
1D3
100
AcDbEntity
  8
LAY-1
  6
CONTINUOUS
 62
     7
100
AcDbLine
 10
1006.705097
 20
575.181315
 30
0.0
 11
1005.955097
 21
575.614327
 31
0.0
  0
LINE
  5
1D4
100
AcDbEntity
  8
LAY-1
  6
CONTINUOUS
 62
     7
100
AcDbLine
 10
1011.705097
 20
575.181315
 30
0.0
 11
1006.705097
 21
575.181315
 31
0.0
  0
ARC
  5
1D5
100
AcDbEntity
  8
LAY-1
  6
CONTINUOUS
 62
     7
100
AcDbCircle
 10
1007.386722
 20
577.764435
 30
0.0
 40
2.583121
100
AcDbArc
 50
236.342803
 51
303.657197
  0
LINE
  5
1D6
100
AcDbEntity
  8
LAY-1
  6
CONTINUOUS
 62
     7
100
AcDbLine
 10
1016.705097
 20
575.181315
 30
0.0
 11
1017.455097
 21
575.614327
 31
0.0
  0
LINE
  5
1D7
100
AcDbEntity
  8
LAY-1
  6
CONTINUOUS
 62
     7
100
AcDbLine
 10
1011.705097
 20
575.181315
 30
0.0
 11
1016.705097
 21
575.181315
 31
0.0
  0
ARC
  5
1D8
100
AcDbEntity
  8
LAY-1
  6
CONTINUOUS
 62
     7
100
AcDbCircle
 10
1016.023473
 20
577.764435
 30
0.0
 40
2.583121
100
AcDbArc
 50
236.342803
 51
303.657197
  0
ARC
  5
1D9
100
AcDbEntity
  8
LAY-1
  6
CONTINUOUS
 62
     7
100
AcDbCircle
 10
1011.705097
 20
585.020325
 30
0.0
 40
9.839011
100
AcDbArc
 50
252.938469
 51
287.061531
  0
LINE
  5
1DA
100
AcDbEntity
  8
LAY-1
  6
CONTINUOUS
 62
     7
100
AcDbLine
 10
1005.955097
 20
575.614327
 30
0.0
 11
1005.955097
 21
580.181315
 31
0.0
  0
LINE
  5
1DB
100
AcDbEntity
  8
LAY-1
  6
CONTINUOUS
 62
     7
100
AcDbLine
 10
1008.818346
 20
575.614327
 30
0.0
 11
1008.818346
 21
580.181315
 31
0.0
  0
LINE
  5
1DC
100
AcDbEntity
  8
LAY-1
  6
CONTINUOUS
 62
     7
100
AcDbLine
 10
1017.455097
 20
575.614327
 30
0.0
 11
1017.455097
 21
580.181315
 31
0.0
  0
LINE
  5
1DD
100
AcDbEntity
  8
LAY-1
  6
CONTINUOUS
 62
     7
100
AcDbLine
 10
1014.591849
 20
575.614327
 30
0.0
 11
1014.591849
 21
580.181315
 31
0.0
  0
LINE
  5
1DE
100
AcDbEntity
  8
LAY-1
  6
CONTINUOUS
 62
     7
100
AcDbLine
 10
1017.805097
 20
580.181315
 30
0.0
 11
1017.805097
 21
581.681315
 31
0.0
  0
LINE
  5
1DF
100
AcDbEntity
  8
LAY-1
  6
CONTINUOUS
 62
     7
100
AcDbLine
 10
1011.705097
 20
580.181315
 30
0.0
 11
1017.805097
 21
580.181315
 31
0.0
  0
LINE
  5
1E0
100
AcDbEntity
  8
LAY-1
  6
CONTINUOUS
 62
     7
100
AcDbLine
 10
1005.605097
 20
580.181315
 30
0.0
 11
1005.605097
 21
581.681315
 31
0.0
  0
LINE
  5
1E1
100
AcDbEntity
  8
LAY-1
  6
CONTINUOUS
 62
     7
100
AcDbLine
 10
1011.705097
 20
580.181315
 30
0.0
 11
1005.605097
 21
580.181315
 31
0.0
  0
LINE
  5
1E2
100
AcDbEntity
  8
LAY-1
  6
CONTINUOUS
 62
     7
100
AcDbLine
 10
1011.705097
 20
581.681315
 30
0.0
 11
1005.605097
 21
581.681315
 31
0.0
  0
LINE
  5
1E3
100
AcDbEntity
  8
LAY-1
  6
CONTINUOUS
 62
     7
100
AcDbLine
 10
1010.205097
 20
580.181315
 30
0.0
 11
1011.705097
 21
581.681315
 31
0.0
  0
LINE
  5
1E4
100
AcDbEntity
  8
LAY-1
  6
CONTINUOUS
 62
     7
100
AcDbLine
 10
1013.205097
 20
581.681315
 30
0.0
 11
1011.705097
 21
580.181315
 31
0.0
  0
LINE
  5
1E5
100
AcDbEntity
  8
LAY-1
  6
CONTINUOUS
 62
     7
100
AcDbLine
 10
913.576594
 20
577.912959
 30
0.0
 11
906.890851
 21
577.912959
 31
0.0
  0
LINE
  5
1E6
100
AcDbEntity
  8
LAY-1
  6
CONTINUOUS
 62
     7
100
AcDbLine
 10
913.576594
 20
577.912959
 30
0.0
 11
920.262336
 21
577.912959
 31
0.0
  0
LINE
  5
1E7
100
AcDbEntity
  8
LAY-1
  6
CONTINUOUS
 62
     7
100
AcDbLine
 10
924.540846
 20
537.681315
 30
0.0
 11
924.040846
 21
537.181315
 31
0.0
  0
LINE
  5
1E8
100
AcDbEntity
  8
LAY-1
  6
CONTINUOUS
 62
     7
100
AcDbLine
 10
924.540846
 20
544.681315
 30
0.0
 11
924.540846
 21
537.681315
 31
0.0
  0
LINE
  5
1E9
100
AcDbEntity
  8
LAY-1
  6
CONTINUOUS
 62
     7
100
AcDbLine
 10
923.540846
 20
545.681315
 30
0.0
 11
924.540846
 21
544.681315
 31
0.0
  0
LINE
  5
1EA
100
AcDbEntity
  8
LAY-1
  6
CONTINUOUS
 62
     7
100
AcDbLine
 10
920.040846
 20
544.681315
 30
0.0
 11
924.540846
 21
544.681315
 31
0.0
  0
LINE
  5
1EB
100
AcDbEntity
  8
LAY-1
  6
CONTINUOUS
 62
     7
100
AcDbLine
 10
881.540845
 20
551.681315
 30
0.0
 11
881.540845
 21
545.09406
 31
0.0
  0
LINE
  5
1EC
100
AcDbEntity
  8
LAY-1
  6
CONTINUOUS
 62
     7
100
AcDbLine
 10
881.540845
 20
558.181315
 30
0.0
 11
881.540845
 21
551.681315
 31
0.0
  0
LINE
  5
1ED
100
AcDbEntity
  8
LAY-1
  6
CONTINUOUS
 62
     7
100
AcDbLine
 10
881.040845
 20
558.681315
 30
0.0
 11
879.040845
 21
558.681315
 31
0.0
  0
LINE
  5
1EE
100
AcDbEntity
  8
LAY-1
  6
CONTINUOUS
 62
     7
100
AcDbLine
 10
878.540845
 20
558.181315
 30
0.0
 11
878.540845
 21
551.681315
 31
0.0
  0
ARC
  5
1EF
100
AcDbEntity
  8
LAY-1
  6
CONTINUOUS
 62
     7
100
AcDbCircle
 10
881.040845
 20
558.181315
 30
0.0
 40
0.5
100
AcDbArc
 50
0.0
 51
90.0
  0
ARC
  5
1F0
100
AcDbEntity
  8
LAY-1
  6
CONTINUOUS
 62
     7
100
AcDbCircle
 10
879.040845
 20
558.181315
 30
0.0
 40
0.5
100
AcDbArc
 50
90.0
 51
180.0
  0
ARC
  5
1F1
100
AcDbEntity
  8
LAY-1
  6
CONTINUOUS
 62
     7
100
AcDbCircle
 10
882.040845
 20
557.681315
 30
0.0
 40
0.5
100
AcDbArc
 50
180.0
 51
270.0
  0
ARC
  5
1F2
100
AcDbEntity
  8
LAY-1
  6
CONTINUOUS
 62
     7
100
AcDbCircle
 10
882.040845
 20
545.681315
 30
0.0
 40
0.5
100
AcDbArc
 50
90.0
 51
180.0
  0
ARC
  5
1F3
100
AcDbEntity
  8
LAY-1
  6
CONTINUOUS
 62
     7
100
AcDbCircle
 10
879.040845
 20
545.181315
 30
0.0
 40
0.5
100
AcDbArc
 50
180.0
 51
270.0
  0
ARC
  5
1F4
100
AcDbEntity
  8
LAY-1
  6
CONTINUOUS
 62
     7
100
AcDbCircle
 10
881.040845
 20
545.181315
 30
0.0
 40
0.5
100
AcDbArc
 50
270.0
 51
0.0
  0
LINE
  5
1F5
100
AcDbEntity
  8
LAY-1
  6
CONTINUOUS
 62
     7
100
AcDbLine
 10
878.540845
 20
545.181315
 30
0.0
 11
878.540845
 21
551.681315
 31
0.0
  0
LINE
  5
1F6
100
AcDbEntity
  8
LAY-1
  6
CONTINUOUS
 62
     7
100
AcDbLine
 10
881.040845
 20
544.681315
 30
0.0
 11
879.040845
 21
544.681315
 31
0.0
  0
LINE
  5
1F7
100
AcDbEntity
  8
LAY-1
  6
CONTINUOUS
 62
     7
100
AcDbLine
 10
882.040845
 20
557.181315
 30
0.0
 11
893.040845
 21
557.181315
 31
0.0
  0
LINE
  5
1F8
100
AcDbEntity
  8
LAY-1
  6
CONTINUOUS
 62
     7
100
AcDbLine
 10
882.040845
 20
546.181315
 30
0.0
 11
893.040845
 21
546.181315
 31
0.0
  0
LINE
  5
1F9
100
AcDbEntity
  8
LAY-1
  6
CONTINUOUS
 62
     7
100
AcDbLine
 10
902.540846
 20
521.567196
 30
0.0
 11
903.728826
 21
520.881315
 31
0.0
  0
LINE
  5
1FA
100
AcDbEntity
  8
LAY-1
  6
CONTINUOUS
 62
     7
100
AcDbLine
 10
903.728826
 20
520.881315
 30
0.0
 11
922.352865
 21
520.881315
 31
0.0
  0
LINE
  5
1FB
100
AcDbEntity
  8
LAY-1
  6
CONTINUOUS
 62
     7
100
AcDbLine
 10
922.352865
 20
520.881315
 30
0.0
 11
923.540846
 21
521.567196
 31
0.0
  0
LINE
  5
1FC
100
AcDbEntity
  8
LAY-1
  6
CONTINUOUS
 62
     7
100
AcDbLine
 10
922.352865
 20
521.567196
 30
0.0
 11
923.540846
 21
521.567196
 31
0.0
  0
LINE
  5
1FD
100
AcDbEntity
  8
LAY-1
  6
CONTINUOUS
 62
     7
100
AcDbLine
 10
903.728826
 20
521.567196
 30
0.0
 11
902.540846
 21
521.567196
 31
0.0
  0
LINE
  5
1FE
100
AcDbEntity
  8
LAY-1
  6
CONTINUOUS
 62
     7
100
AcDbLine
 10
914.228826
 20
521.567196
 30
0.0
 11
911.852865
 21
521.567196
 31
0.0
  0
ARC
  5
1FF
100
AcDbEntity
  8
LAY-1
  6
CONTINUOUS
 62
     7
100
AcDbCircle
 10
918.290846
 20
533.25258
 30
0.0
 40
12.371266
100
AcDbArc
 50
250.831763
 51
289.168237
  0
ARC
  5
200
100
AcDbEntity
  8
LAY-1
  6
CONTINUOUS
 62
     7
100
AcDbCircle
 10
907.790846
 20
533.25258
 30
0.0
 40
12.371266
100
AcDbArc
 50
250.831763
 51
289.168237
  0
LINE
  5
201
100
AcDbEntity
  8
LAY-1
  6
CONTINUOUS
 62
     7
100
AcDbLine
 10
921.123749
 20
511.506642
 30
0.0
 11
921.123749
 21
516.881427
 31
0.0
  0
LINE
  5
202
100
AcDbEntity
  8
LAY-1
  6
CONTINUOUS
 62
     7
100
AcDbLine
 10
920.040845
 20
510.881427
 30
0.0
 11
921.123749
 21
511.506642
 31
0.0
  0
LINE
  5
203
100
AcDbEntity
  8
LAY-1
  6
CONTINUOUS
 62
     7
100
AcDbLine
 10
906.043296
 20
516.881427
 30
0.0
 11
906.182979
 21
520.881427
 31
0.0
  0
LINE
  5
204
100
AcDbEntity
  8
LAY-1
  6
CONTINUOUS
 62
     7
100
AcDbLine
 10
920.038397
 20
516.881342
 30
0.0
 11
919.898711
 21
520.881427
 31
0.0
  0
ARC
  5
205
100
AcDbEntity
  8
LAY-1
  6
CONTINUOUS
 62
     7
100
AcDbCircle
 10
913.040845
 20
524.256212
 30
0.0
 40
13.374785
100
AcDbArc
 50
252.412046
 51
287.587954
  0
ARC
  5
206
100
AcDbEntity
  8
LAY-1
  6
CONTINUOUS
 62
     7
100
AcDbCircle
 10
919.103023
 20
514.459579
 30
0.0
 40
3.578152
100
AcDbArc
 50
235.615753
 51
304.384247
  0
LINE
  5
207
100
AcDbEntity
  8
LAY-1
  6
CONTINUOUS
 62
     7
100
AcDbLine
 10
917.082297
 20
516.881427
 30
0.0
 11
917.082297
 21
511.506642
 31
0.0
  0
LINE
  5
208
100
AcDbEntity
  8
LAY-1
  6
CONTINUOUS
 62
     7
100
AcDbLine
 10
904.957941
 20
516.881427
 30
0.0
 11
906.043296
 21
516.881427
 31
0.0
  0
LINE
  5
209
100
AcDbEntity
  8
LAY-1
  6
CONTINUOUS
 62
     7
100
AcDbLine
 10
904.957941
 20
511.506642
 30
0.0
 11
904.957941
 21
516.881427
 31
0.0
  0
LINE
  5
20A
100
AcDbEntity
  8
LAY-1
  6
CONTINUOUS
 62
     7
100
AcDbLine
 10
906.040845
 20
510.881427
 30
0.0
 11
904.957941
 21
511.506642
 31
0.0
  0
LINE
  5
20B
100
AcDbEntity
  8
LAY-1
  6
CONTINUOUS
 62
     7
100
AcDbLine
 10
908.999393
 20
516.881427
 30
0.0
 11
908.999393
 21
511.506642
 31
0.0
  0
ARC
  5
20C
100
AcDbEntity
  8
LAY-1
  6
CONTINUOUS
 62
     7
100
AcDbCircle
 10
906.978667
 20
514.459579
 30
0.0
 40
3.578152
100
AcDbArc
 50
235.615753
 51
304.384247
  0
LINE
  5
20D
100
AcDbEntity
  8
LAY-1
  6
CONTINUOUS
 62
     7
100
AcDbLine
 10
920.040845
 20
510.881427
 30
0.0
 11
906.040845
 21
510.881427
 31
0.0
  0
LINE
  5
20E
100
AcDbEntity
  8
LAY-1
  6
CONTINUOUS
 62
     7
100
AcDbLine
 10
920.003473
 20
517.881427
 30
0.0
 11
913.040845
 21
517.881427
 31
0.0
  0
LINE
  5
20F
100
AcDbEntity
  8
LAY-1
  6
CONTINUOUS
 62
     7
100
AcDbLine
 10
906.078217
 20
517.881427
 30
0.0
 11
913.040845
 21
517.881427
 31
0.0
  0
LINE
  5
210
100
AcDbEntity
  8
LAY-1
  6
CONTINUOUS
 62
     7
100
AcDbLine
 10
906.043296
 20
516.881427
 30
0.0
 11
913.040845
 21
516.881427
 31
0.0
  0
LINE
  5
211
100
AcDbEntity
  8
LAY-1
  6
CONTINUOUS
 62
     7
100
AcDbLine
 10
912.810845
 20
516.881427
 30
0.0
 11
921.123749
 21
516.881427
 31
0.0
  0
LINE
  5
212
100
AcDbEntity
  8
LAY-1
  6
CONTINUOUS
 62
     7
100
AcDbLine
 10
895.040845
 20
545.181315
 30
0.0
 11
895.040845
 21
544.881315
 31
0.0
  0
LINE
  5
213
100
AcDbEntity
  8
LAY-1
  6
CONTINUOUS
 62
     7
100
AcDbLine
 10
896.040845
 20
549.181315
 30
0.0
 11
896.040845
 21
545.181315
 31
0.0
  0
LINE
  5
214
100
AcDbEntity
  8
LAY-1
  6
CONTINUOUS
 62
     7
100
AcDbLine
 10
922.040846
 20
557.681315
 30
0.0
 11
922.040846
 21
545.681315
 31
0.0
  0
LINE
  5
215
100
AcDbEntity
  8
LAY-1
  6
CONTINUOUS
 62
     7
100
AcDbLine
 10
902.540846
 20
545.681315
 30
0.0
 11
913.040846
 21
545.681315
 31
0.0
  0
LINE
  5
216
100
AcDbEntity
  8
LAY-1
  6
CONTINUOUS
 62
     7
100
AcDbLine
 10
924.040846
 20
537.181315
 30
0.0
 11
902.040846
 21
537.181315
 31
0.0
  0
LINE
  5
217
100
AcDbEntity
  8
LAY-1
  6
CONTINUOUS
 62
     7
100
AcDbLine
 10
923.540846
 20
551.681315
 30
0.0
 11
923.540846
 21
545.681315
 31
0.0
  0
LINE
  5
218
100
AcDbEntity
  8
LAY-1
  6
CONTINUOUS
 62
     7
100
AcDbLine
 10
923.540846
 20
573.181315
 30
0.0
 11
923.540846
 21
551.681315
 31
0.0
  0
LINE
  5
219
100
AcDbEntity
  8
LAY-1
  6
CONTINUOUS
 62
     7
100
AcDbLine
 10
903.040846
 20
573.681315
 30
0.0
 11
923.040846
 21
573.681315
 31
0.0
  0
LINE
  5
21A
100
AcDbEntity
  8
LAY-1
  6
CONTINUOUS
 62
     7
100
AcDbLine
 10
902.540846
 20
545.681315
 30
0.0
 11
902.540846
 21
573.181315
 31
0.0
  0
LINE
  5
21B
100
AcDbEntity
  8
LAY-1
  6
CONTINUOUS
 62
     7
100
AcDbLine
 10
901.540846
 20
537.681315
 30
0.0
 11
901.540846
 21
544.681315
 31
0.0
  0
LINE
  5
21C
100
AcDbEntity
  8
LAY-1
  6
CONTINUOUS
 62
     7
100
AcDbLine
 10
920.040846
 20
544.681315
 30
0.0
 11
903.740846
 21
544.681315
 31
0.0
  0
LINE
  5
21D
100
AcDbEntity
  8
LAY-1
  6
CONTINUOUS
 62
     7
100
AcDbLine
 10
922.040846
 20
557.681315
 30
0.0
 11
913.040846
 21
557.681315
 31
0.0
  0
LINE
  5
21E
100
AcDbEntity
  8
LAY-1
  6
CONTINUOUS
 62
     7
100
AcDbLine
 10
923.040846
 20
573.681315
 30
0.0
 11
923.540846
 21
573.181315
 31
0.0
  0
LINE
  5
21F
100
AcDbEntity
  8
LAY-1
  6
CONTINUOUS
 62
     7
100
AcDbLine
 10
903.728826
 20
573.181315
 30
0.0
 11
903.728826
 21
561.181315
 31
0.0
  0
LINE
  5
220
100
AcDbEntity
  8
LAY-1
  6
CONTINUOUS
 62
     7
100
AcDbLine
 10
902.040846
 20
537.181315
 30
0.0
 11
901.540846
 21
537.681315
 31
0.0
  0
LINE
  5
221
100
AcDbEntity
  8
LAY-1
  6
CONTINUOUS
 62
     7
100
AcDbLine
 10
903.728826
 20
561.181315
 30
0.0
 11
911.852865
 21
561.181315
 31
0.0
  0
LINE
  5
222
100
AcDbEntity
  8
LAY-1
  6
CONTINUOUS
 62
     7
100
AcDbLine
 10
911.852865
 20
561.181315
 30
0.0
 11
911.852865
 21
573.181315
 31
0.0
  0
LINE
  5
223
100
AcDbEntity
  8
LAY-1
  6
CONTINUOUS
 62
     7
100
AcDbLine
 10
914.228826
 20
573.181315
 30
0.0
 11
914.228826
 21
561.181315
 31
0.0
  0
LINE
  5
224
100
AcDbEntity
  8
LAY-1
  6
CONTINUOUS
 62
     7
100
AcDbLine
 10
914.228826
 20
561.181315
 30
0.0
 11
922.352865
 21
561.181315
 31
0.0
  0
LINE
  5
225
100
AcDbEntity
  8
LAY-1
  6
CONTINUOUS
 62
     7
100
AcDbLine
 10
922.352865
 20
561.181315
 30
0.0
 11
922.352865
 21
573.181315
 31
0.0
  0
LINE
  5
226
100
AcDbEntity
  8
LAY-1
  6
CONTINUOUS
 62
     7
100
AcDbLine
 10
902.540846
 20
559.181315
 30
0.0
 11
913.040846
 21
559.181315
 31
0.0
  0
LINE
  5
227
100
AcDbEntity
  8
LAY-1
  6
CONTINUOUS
 62
     7
100
AcDbLine
 10
913.040846
 20
559.181315
 30
0.0
 11
923.540846
 21
559.181315
 31
0.0
  0
LINE
  5
228
100
AcDbEntity
  8
LAY-1
  6
CONTINUOUS
 62
     7
100
AcDbLine
 10
923.540846
 20
559.181315
 30
0.0
 11
922.040846
 21
557.681315
 31
0.0
  0
LINE
  5
229
100
AcDbEntity
  8
LAY-1
  6
CONTINUOUS
 62
     7
100
AcDbLine
 10
913.040846
 20
557.681315
 30
0.0
 11
904.040846
 21
557.681315
 31
0.0
  0
LINE
  5
22A
100
AcDbEntity
  8
LAY-1
  6
CONTINUOUS
 62
     7
100
AcDbLine
 10
902.540846
 20
534.995434
 30
0.0
 11
902.540846
 21
521.567196
 31
0.0
  0
LINE
  5
22B
100
AcDbEntity
  8
LAY-1
  6
CONTINUOUS
 62
     7
100
AcDbLine
 10
923.540846
 20
521.567196
 30
0.0
 11
923.540846
 21
534.995434
 31
0.0
  0
LINE
  5
22C
100
AcDbEntity
  8
LAY-1
  6
CONTINUOUS
 62
     7
100
AcDbLine
 10
902.540846
 20
534.995434
 30
0.0
 11
903.728826
 21
535.681315
 31
0.0
  0
LINE
  5
22D
100
AcDbEntity
  8
LAY-1
  6
CONTINUOUS
 62
     7
100
AcDbLine
 10
922.352865
 20
535.681315
 30
0.0
 11
923.540846
 21
534.995434
 31
0.0
  0
LINE
  5
22E
100
AcDbEntity
  8
LAY-1
  6
CONTINUOUS
 62
     7
100
AcDbLine
 10
923.540846
 20
534.995434
 30
0.0
 11
922.352865
 21
534.995434
 31
0.0
  0
ARC
  5
22F
100
AcDbEntity
  8
LAY-1
  6
CONTINUOUS
 62
     7
100
AcDbCircle
 10
907.790846
 20
523.310049
 30
0.0
 40
12.371266
100
AcDbArc
 50
70.831763
 51
109.168237
  0
LINE
  5
230
100
AcDbEntity
  8
LAY-1
  6
CONTINUOUS
 62
     7
100
AcDbLine
 10
902.540846
 20
534.995434
 30
0.0
 11
903.728826
 21
534.995434
 31
0.0
  0
ARC
  5
231
100
AcDbEntity
  8
LAY-1
  6
CONTINUOUS
 62
     7
100
AcDbCircle
 10
918.290846
 20
523.310049
 30
0.0
 40
12.371266
100
AcDbArc
 50
70.831763
 51
109.168237
  0
LINE
  5
232
100
AcDbEntity
  8
LAY-1
  6
CONTINUOUS
 62
     7
100
AcDbLine
 10
911.852865
 20
534.995434
 30
0.0
 11
914.228826
 21
534.995434
 31
0.0
  0
LINE
  5
233
100
AcDbEntity
  8
LAY-1
  6
CONTINUOUS
 62
     7
100
AcDbLine
 10
914.228826
 20
534.995434
 30
0.0
 11
914.228826
 21
521.567196
 31
0.0
  0
LINE
  5
234
100
AcDbEntity
  8
LAY-1
  6
CONTINUOUS
 62
     7
100
AcDbLine
 10
911.852865
 20
521.567196
 30
0.0
 11
911.852865
 21
534.995434
 31
0.0
  0
LINE
  5
235
100
AcDbEntity
  8
LAY-1
  6
CONTINUOUS
 62
     7
100
AcDbLine
 10
903.728826
 20
534.995434
 30
0.0
 11
903.728826
 21
521.567196
 31
0.0
  0
LINE
  5
236
100
AcDbEntity
  8
LAY-1
  6
CONTINUOUS
 62
     7
100
AcDbLine
 10
922.352865
 20
521.567196
 30
0.0
 11
922.352865
 21
534.995434
 31
0.0
  0
LINE
  5
237
100
AcDbEntity
  8
LAY-1
  6
CONTINUOUS
 62
     7
100
AcDbLine
 10
922.540846
 20
535.681315
 30
0.0
 11
922.540846
 21
537.181315
 31
0.0
  0
LINE
  5
238
100
AcDbEntity
  8
LAY-1
  6
CONTINUOUS
 62
     7
100
AcDbLine
 10
903.540846
 20
535.681315
 30
0.0
 11
922.540846
 21
535.681315
 31
0.0
  0
ARC
  5
239
100
AcDbEntity
  8
LAY-1
  6
CONTINUOUS
 62
     7
100
AcDbCircle
 10
907.790846
 20
556.931315
 30
0.0
 40
16.75
100
AcDbArc
 50
75.965352
 51
104.034648
  0
LINE
  5
23A
100
AcDbEntity
  8
LAY-1
  6
CONTINUOUS
 62
     7
100
AcDbLine
 10
903.540846
 20
537.181315
 30
0.0
 11
903.540846
 21
535.681315
 31
0.0
  0
ARC
  5
23B
100
AcDbEntity
  8
LAY-1
  6
CONTINUOUS
 62
     7
100
AcDbCircle
 10
918.290846
 20
556.931315
 30
0.0
 40
16.75
100
AcDbArc
 50
75.965352
 51
104.034648
  0
LINE
  5
23C
100
AcDbEntity
  8
LAY-1
  6
CONTINUOUS
 62
     7
100
AcDbLine
 10
902.540846
 20
573.181315
 30
0.0
 11
903.728826
 21
573.181315
 31
0.0
  0
LINE
  5
23D
100
AcDbEntity
  8
LAY-1
  6
CONTINUOUS
 62
     7
100
AcDbLine
 10
911.852865
 20
573.181315
 30
0.0
 11
914.228826
 21
573.181315
 31
0.0
  0
LINE
  5
23E
100
AcDbEntity
  8
LAY-1
  6
CONTINUOUS
 62
     7
100
AcDbLine
 10
922.352865
 20
573.181315
 30
0.0
 11
923.540846
 21
573.181315
 31
0.0
  0
LINE
  5
23F
100
AcDbEntity
  8
LAY-1
  6
CONTINUOUS
 62
     7
100
AcDbLine
 10
902.540846
 20
573.181315
 30
0.0
 11
903.040846
 21
573.681315
 31
0.0
  0
LINE
  5
240
100
AcDbEntity
  8
LAY-1
  6
CONTINUOUS
 62
     7
100
AcDbLine
 10
923.540846
 20
545.681315
 30
0.0
 11
913.040846
 21
545.681315
 31
0.0
  0
LINE
  5
241
100
AcDbEntity
  8
LAY-1
  6
CONTINUOUS
 62
     7
100
AcDbLine
 10
898.540845
 20
558.681315
 30
0.0
 11
893.040845
 21
558.681315
 31
0.0
  0
LINE
  5
242
100
AcDbEntity
  8
LAY-1
  6
CONTINUOUS
 62
     7
100
AcDbLine
 10
895.540845
 20
544.381315
 30
0.0
 11
898.540845
 21
544.381315
 31
0.0
  0
LINE
  5
243
100
AcDbEntity
  8
LAY-1
  6
CONTINUOUS
 62
     7
100
AcDbLine
 10
898.540845
 20
554.181315
 30
0.0
 11
898.540845
 21
549.181315
 31
0.0
  0
LINE
  5
244
100
AcDbEntity
  8
LAY-1
  6
CONTINUOUS
 62
     7
100
AcDbLine
 10
898.540845
 20
549.181315
 30
0.0
 11
896.040845
 21
549.181315
 31
0.0
  0
LINE
  5
245
100
AcDbEntity
  8
LAY-1
  6
CONTINUOUS
 62
     7
100
AcDbLine
 10
898.540845
 20
558.681315
 30
0.0
 11
898.540845
 21
554.181315
 31
0.0
  0
LINE
  5
246
100
AcDbEntity
  8
LAY-1
  6
CONTINUOUS
 62
     7
100
AcDbLine
 10
893.040845
 20
558.681315
 30
0.0
 11
893.040845
 21
544.881315
 31
0.0
  0
LINE
  5
247
100
AcDbEntity
  8
LAY-1
  6
CONTINUOUS
 62
     7
100
AcDbLine
 10
896.040845
 20
545.181315
 30
0.0
 11
902.040846
 21
545.181315
 31
0.0
  0
LINE
  5
248
100
AcDbEntity
  8
LAY-1
  6
CONTINUOUS
 62
     7
100
AcDbLine
 10
898.540845
 20
558.181315
 30
0.0
 11
902.540846
 21
558.181315
 31
0.0
  0
ARC
  5
249
100
AcDbEntity
  8
LAY-1
  6
CONTINUOUS
 62
     7
100
AcDbCircle
 10
895.540845
 20
544.881315
 30
0.0
 40
0.5
100
AcDbArc
 50
180.0
 51
270.0
  0
LINE
  5
24A
100
AcDbEntity
  8
LAY-1
  6
CONTINUOUS
 62
     7
100
AcDbLine
 10
895.040845
 20
545.181315
 30
0.0
 11
896.040845
 21
545.181315
 31
0.0
  0
LINE
  5
24B
100
AcDbEntity
  8
LAY-1
  6
CONTINUOUS
 62
     7
100
AcDbLine
 10
901.540846
 20
544.681315
 30
0.0
 11
902.540846
 21
545.681315
 31
0.0
  0
LINE
  5
24C
100
AcDbEntity
  8
LAY-1
  6
CONTINUOUS
 62
     7
100
AcDbLine
 10
904.040846
 20
557.681315
 30
0.0
 11
902.540846
 21
559.181315
 31
0.0
  0
LINE
  5
24D
100
AcDbEntity
  8
LAY-1
  6
CONTINUOUS
 62
     7
100
AcDbLine
 10
904.040846
 20
557.681315
 30
0.0
 11
904.040846
 21
545.681315
 31
0.0
  0
LINE
  5
24E
100
AcDbEntity
  8
LAY-1
  6
CONTINUOUS
 62
     7
100
AcDbLine
 10
901.540846
 20
544.681315
 30
0.0
 11
903.740846
 21
544.681315
 31
0.0
  0
ARC
  5
24F
100
AcDbEntity
  8
LAY-1
  6
CONTINUOUS
 62
     7
100
AcDbCircle
 10
895.540845
 20
544.881315
 30
0.0
 40
2.5
100
AcDbArc
 50
180.0
 51
270.0
  0
LINE
  5
250
100
AcDbEntity
  8
LAY-1
  6
CONTINUOUS
 62
     7
100
AcDbLine
 10
895.540845
 20
542.381315
 30
0.0
 11
898.540845
 21
542.381315
 31
0.0
  0
LINE
  5
251
100
AcDbEntity
  8
LAY-1
  6
CONTINUOUS
 62
     7
100
AcDbLine
 10
898.540845
 20
544.381315
 30
0.0
 11
898.540845
 21
542.381315
 31
0.0
  0
LINE
  5
252
100
AcDbEntity
  8
LAY-1
  6
CONTINUOUS
 62
     7
100
AcDbLine
 10
906.648118
 20
585.680425
 30
0.0
 11
907.02309
 21
573.681315
 31
0.0
  0
LINE
  5
253
100
AcDbEntity
  8
LAY-1
  6
CONTINUOUS
 62
     7
100
AcDbLine
 10
920.505097
 20
585.681315
 30
0.0
 11
920.130097
 21
573.681315
 31
0.0
  0
LINE
  5
254
100
AcDbEntity
  8
LAY-1
  6
CONTINUOUS
 62
     7
100
AcDbLine
 10
986.105097
 20
585.681315
 30
0.0
 11
986.105097
 21
567.355315
 31
0.0
  0
LINE
  5
255
100
AcDbEntity
  8
LAY-1
  6
CONTINUOUS
 62
     7
100
AcDbLine
 10
958.905097
 20
585.681315
 30
0.0
 11
958.905097
 21
566.870168
 31
0.0
  0
LINE
  5
256
100
AcDbEntity
  8
LAY-1
  6
CONTINUOUS
 62
     7
100
AcDbLine
 10
1082.505097
 20
811.681315
 30
0.0
 11
1002.505097
 21
811.681315
 31
0.0
  0
LINE
  5
257
100
AcDbEntity
  8
LAY-1
  6
CONTINUOUS
 62
     7
100
AcDbLine
 10
1002.505097
 20
741.681315
 30
0.0
 11
1082.505097
 21
741.681315
 31
0.0
  0
LINE
  5
258
100
AcDbEntity
  8
LAY-1
  6
CONTINUOUS
 62
     7
100
AcDbLine
 10
1082.505097
 20
741.681315
 30
0.0
 11
1082.505097
 21
811.681315
 31
0.0
  0
LINE
  5
259
100
AcDbEntity
  8
LAY-1
  6
CONTINUOUS
 62
     7
100
AcDbLine
 10
922.505097
 20
811.681315
 30
0.0
 11
1002.505097
 21
811.681315
 31
0.0
  0
LINE
  5
25A
100
AcDbEntity
  8
LAY-1
  6
CONTINUOUS
 62
     7
100
AcDbLine
 10
1002.505097
 20
741.681315
 30
0.0
 11
922.505097
 21
741.681315
 31
0.0
  0
LINE
  5
25B
100
AcDbEntity
  8
LAY-1
  6
CONTINUOUS
 62
     7
100
AcDbLine
 10
922.505097
 20
741.681315
 30
0.0
 11
922.505097
 21
811.681315
 31
0.0
  0
ARC
  5
25C
100
AcDbEntity
  8
LAY-1
  6
CONTINUOUS
 62
     7
100
AcDbCircle
 10
908.169387
 20
906.56644
 30
0.0
 40
2.5
100
AcDbArc
 50
90.0
 51
180.0
  0
LINE
  5
25D
100
AcDbEntity
  8
LAY-1
  6
CONTINUOUS
 62
     7
100
AcDbLine
 10
908.169387
 20
909.06644
 30
0.0
 11
953.169387
 21
909.06644
 31
0.0
  0
ARC
  5
25E
100
AcDbEntity
  8
LAY-1
  6
CONTINUOUS
 62
     7
100
AcDbCircle
 10
953.169387
 20
906.56644
 30
0.0
 40
2.5
100
AcDbArc
 50
0.0
 51
90.0
  0
ARC
  5
25F
100
AcDbEntity
  8
LAY-1
  6
CONTINUOUS
 62
     7
100
AcDbCircle
 10
953.169387
 20
906.56644
 30
0.0
 40
1.5
100
AcDbArc
 50
0.0
 51
90.0
  0
LINE
  5
260
100
AcDbEntity
  8
LAY-1
  6
CONTINUOUS
 62
     7
100
AcDbLine
 10
908.169387
 20
908.06644
 30
0.0
 11
953.169387
 21
908.06644
 31
0.0
  0
ARC
  5
261
100
AcDbEntity
  8
LAY-1
  6
CONTINUOUS
 62
     7
100
AcDbCircle
 10
908.169387
 20
906.56644
 30
0.0
 40
1.5
100
AcDbArc
 50
90.0
 51
180.0
  0
LINE
  5
262
100
AcDbEntity
  8
LAY-1
  6
CONTINUOUS
 62
     7
100
AcDbLine
 10
955.669387
 20
906.56644
 30
0.0
 11
955.669387
 21
899.56644
 31
0.0
  0
ARC
  5
263
100
AcDbEntity
  8
LAY-1
  6
CONTINUOUS
 62
     7
100
AcDbCircle
 10
953.169387
 20
899.56644
 30
0.0
 40
2.5
100
AcDbArc
 50
270.0
 51
0.0
  0
ARC
  5
264
100
AcDbEntity
  8
LAY-1
  6
CONTINUOUS
 62
     7
100
AcDbCircle
 10
953.169387
 20
899.56644
 30
0.0
 40
1.5
100
AcDbArc
 50
270.0
 51
0.0
  0
LINE
  5
265
100
AcDbEntity
  8
LAY-1
  6
CONTINUOUS
 62
     7
100
AcDbLine
 10
954.669387
 20
906.56644
 30
0.0
 11
954.669387
 21
899.56644
 31
0.0
  0
LINE
  5
266
100
AcDbEntity
  8
LAY-1
  6
CONTINUOUS
 62
     7
100
AcDbLine
 10
906.669387
 20
906.56644
 30
0.0
 11
906.669387
 21
899.56644
 31
0.0
  0
LINE
  5
267
100
AcDbEntity
  8
LAY-1
  6
CONTINUOUS
 62
     7
100
AcDbLine
 10
914.46797
 20
897.06644
 30
0.0
 11
953.169387
 21
897.06644
 31
0.0
  0
LINE
  5
268
100
AcDbEntity
  8
LAY-1
  6
CONTINUOUS
 62
     7
100
AcDbLine
 10
909.898928
 20
898.06644
 30
0.0
 11
953.169387
 21
898.06644
 31
0.0
  0
ARC
  5
269
100
AcDbEntity
  8
LAY-1
  6
CONTINUOUS
 62
     7
100
AcDbCircle
 10
908.169387
 20
899.56644
 30
0.0
 40
1.5
100
AcDbArc
 50
180.0
 51
188.544591
  0
LINE
  5
26A
100
AcDbEntity
  8
LAY-1
  6
CONTINUOUS
 62
     7
100
AcDbLine
 10
905.669387
 20
906.56644
 30
0.0
 11
905.669387
 21
899.860464
 31
0.0
  0
ARC
  5
26B
100
AcDbEntity
  8
LAY-1
  6
CONTINUOUS
 62
     7
100
AcDbCircle
 10
1055.269387
 20
906.56644
 30
0.0
 40
2.5
100
AcDbArc
 50
90.0
 51
180.0
  0
LINE
  5
26C
100
AcDbEntity
  8
LAY-1
  6
CONTINUOUS
 62
     7
100
AcDbLine
 10
1055.269387
 20
909.06644
 30
0.0
 11
1100.269387
 21
909.06644
 31
0.0
  0
ARC
  5
26D
100
AcDbEntity
  8
LAY-1
  6
CONTINUOUS
 62
     7
100
AcDbCircle
 10
1100.269387
 20
906.56644
 30
0.0
 40
2.5
100
AcDbArc
 50
0.0
 51
90.0
  0
ARC
  5
26E
100
AcDbEntity
  8
LAY-1
  6
CONTINUOUS
 62
     7
100
AcDbCircle
 10
1100.269387
 20
906.56644
 30
0.0
 40
1.5
100
AcDbArc
 50
0.0
 51
90.0
  0
LINE
  5
26F
100
AcDbEntity
  8
LAY-1
  6
CONTINUOUS
 62
     7
100
AcDbLine
 10
1055.269387
 20
908.06644
 30
0.0
 11
1100.269387
 21
908.06644
 31
0.0
  0
ARC
  5
270
100
AcDbEntity
  8
LAY-1
  6
CONTINUOUS
 62
     7
100
AcDbCircle
 10
1055.269387
 20
906.56644
 30
0.0
 40
1.5
100
AcDbArc
 50
90.0
 51
180.0
  0
LINE
  5
271
100
AcDbEntity
  8
LAY-1
  6
CONTINUOUS
 62
     7
100
AcDbLine
 10
1052.769387
 20
906.56644
 30
0.0
 11
1052.769387
 21
899.56644
 31
0.0
  0
ARC
  5
272
100
AcDbEntity
  8
LAY-1
  6
CONTINUOUS
 62
     7
100
AcDbCircle
 10
1055.269387
 20
899.56644
 30
0.0
 40
2.5
100
AcDbArc
 50
180.0
 51
270.0
  0
LINE
  5
273
100
AcDbEntity
  8
LAY-1
  6
CONTINUOUS
 62
     7
100
AcDbLine
 10
1053.769387
 20
906.56644
 30
0.0
 11
1053.769387
 21
899.56644
 31
0.0
  0
ARC
  5
274
100
AcDbEntity
  8
LAY-1
  6
CONTINUOUS
 62
     7
100
AcDbCircle
 10
1055.269387
 20
899.56644
 30
0.0
 40
1.5
100
AcDbArc
 50
180.0
 51
270.0
  0
LINE
  5
275
100
AcDbEntity
  8
LAY-1
  6
CONTINUOUS
 62
     7
100
AcDbLine
 10
1102.769387
 20
906.56644
 30
0.0
 11
1102.769387
 21
902.082245
 31
0.0
  0
LINE
  5
276
100
AcDbEntity
  8
LAY-1
  6
CONTINUOUS
 62
     7
100
AcDbLine
 10
1101.769387
 20
906.56644
 30
0.0
 11
1101.769387
 21
901.350075
 31
0.0
  0
LINE
  5
277
100
AcDbEntity
  8
LAY-1
  6
CONTINUOUS
 62
     7
100
AcDbLine
 10
1055.269387
 20
898.06644
 30
0.0
 11
1095.111266
 21
898.06644
 31
0.0
  0
LINE
  5
278
100
AcDbEntity
  8
LAY-1
  6
CONTINUOUS
 62
     7
100
AcDbLine
 10
1055.269387
 20
897.06644
 30
0.0
 11
1090.542225
 21
897.06644
 31
0.0
  0
LINE
  5
279
100
AcDbEntity
  8
LAY-1
  6
CONTINUOUS
 62
     7
100
AcDbLine
 10
1038.785257
 20
972.681315
 30
0.0
 11
1046.505097
 21
972.681315
 31
0.0
  0
LINE
  5
27A
100
AcDbEntity
  8
LAY-1
  6
CONTINUOUS
 62
     7
100
AcDbLine
 10
1046.011336
 20
974.681315
 30
0.0
 11
1036.995457
 21
974.681315
 31
0.0
  0
LINE
  5
27B
100
AcDbEntity
  8
LAY-1
  6
CONTINUOUS
 62
     7
100
AcDbLine
 10
1160.505097
 20
868.681315
 30
0.0
 11
1160.505097
 21
838.681315
 31
0.0
  0
LINE
  5
27C
100
AcDbEntity
  8
LAY-1
  6
CONTINUOUS
 62
     7
100
AcDbLine
 10
1160.505097
 20
868.681315
 30
0.0
 11
1140.505097
 21
868.681315
 31
0.0
  0
LINE
  5
27D
100
AcDbEntity
  8
LAY-1
  6
CONTINUOUS
 62
     7
100
AcDbLine
 10
1160.505097
 20
838.681315
 30
0.0
 11
1140.505097
 21
838.681315
 31
0.0
  0
LINE
  5
27E
100
AcDbEntity
  8
LAY-1
  6
CONTINUOUS
 62
     7
100
AcDbLine
 10
1143.005097
 20
843.681315
 30
0.0
 11
1140.505097
 21
843.681315
 31
0.0
  0
LINE
  5
27F
100
AcDbEntity
  8
LAY-1
  6
CONTINUOUS
 62
     7
100
AcDbLine
 10
1143.005097
 20
863.681315
 30
0.0
 11
1140.505097
 21
863.681315
 31
0.0
  0
LINE
  5
280
100
AcDbEntity
  8
LAY-1
  6
CONTINUOUS
 62
     7
100
AcDbLine
 10
1143.005097
 20
841.181315
 30
0.0
 11
1143.005097
 21
853.681315
 31
0.0
  0
LINE
  5
281
100
AcDbEntity
  8
LAY-1
  6
CONTINUOUS
 62
     7
100
AcDbLine
 10
1143.005097
 20
866.181315
 30
0.0
 11
1143.005097
 21
853.681315
 31
0.0
  0
LINE
  5
282
100
AcDbEntity
  8
LAY-1
  6
CONTINUOUS
 62
     7
100
AcDbLine
 10
1151.505097
 20
865.681315
 30
0.0
 11
1143.005097
 21
866.181315
 31
0.0
  0
ARC
  5
283
100
AcDbEntity
  8
LAY-1
  6
CONTINUOUS
 62
     7
100
AcDbCircle
 10
1116.505097
 20
853.681315
 30
0.0
 40
37.0
100
AcDbArc
 50
341.075356
 51
18.924644
  0
LINE
  5
284
100
AcDbEntity
  8
LAY-1
  6
CONTINUOUS
 62
     7
100
AcDbLine
 10
1151.505097
 20
865.681315
 30
0.0
 11
1151.505097
 21
841.681315
 31
0.0
  0
LINE
  5
285
100
AcDbEntity
  8
LAY-1
  6
CONTINUOUS
 62
     7
100
AcDbLine
 10
1151.505097
 20
841.681315
 30
0.0
 11
1143.005097
 21
841.181315
 31
0.0
  0
ARC
  5
286
100
AcDbEntity
  8
LAY-1
  6
CONTINUOUS
 62
     7
100
AcDbCircle
 10
1152.505097
 20
853.681315
 30
0.0
 40
5.0
100
AcDbArc
 50
277.662256
 51
82.337744
  0
LINE
  5
287
100
AcDbEntity
  8
LAY-1
  6
CONTINUOUS
 62
     7
100
AcDbLine
 10
844.505097
 20
868.681315
 30
0.0
 11
844.505097
 21
838.681315
 31
0.0
  0
LINE
  5
288
100
AcDbEntity
  8
LAY-1
  6
CONTINUOUS
 62
     7
100
AcDbLine
 10
844.505097
 20
868.681315
 30
0.0
 11
864.505097
 21
868.681315
 31
0.0
  0
LINE
  5
289
100
AcDbEntity
  8
LAY-1
  6
CONTINUOUS
 62
     7
100
AcDbLine
 10
844.505097
 20
838.681315
 30
0.0
 11
864.505097
 21
838.681315
 31
0.0
  0
LINE
  5
28A
100
AcDbEntity
  8
LAY-1
  6
CONTINUOUS
 62
     7
100
AcDbLine
 10
862.005097
 20
843.681315
 30
0.0
 11
864.505097
 21
843.681315
 31
0.0
  0
LINE
  5
28B
100
AcDbEntity
  8
LAY-1
  6
CONTINUOUS
 62
     7
100
AcDbLine
 10
862.005097
 20
863.681315
 30
0.0
 11
864.505097
 21
863.681315
 31
0.0
  0
LINE
  5
28C
100
AcDbEntity
  8
LAY-1
  6
CONTINUOUS
 62
     7
100
AcDbLine
 10
862.005097
 20
841.181315
 30
0.0
 11
862.005097
 21
853.681315
 31
0.0
  0
LINE
  5
28D
100
AcDbEntity
  8
LAY-1
  6
CONTINUOUS
 62
     7
100
AcDbLine
 10
862.005097
 20
866.181315
 30
0.0
 11
862.005097
 21
853.681315
 31
0.0
  0
LINE
  5
28E
100
AcDbEntity
  8
LAY-1
  6
CONTINUOUS
 62
     7
100
AcDbLine
 10
853.505097
 20
865.681315
 30
0.0
 11
862.005097
 21
866.181315
 31
0.0
  0
ARC
  5
28F
100
AcDbEntity
  8
LAY-1
  6
CONTINUOUS
 62
     7
100
AcDbCircle
 10
888.505097
 20
853.681315
 30
0.0
 40
37.0
100
AcDbArc
 50
161.075356
 51
198.924644
  0
LINE
  5
290
100
AcDbEntity
  8
LAY-1
  6
CONTINUOUS
 62
     7
100
AcDbLine
 10
853.505097
 20
865.681315
 30
0.0
 11
853.505097
 21
841.681315
 31
0.0
  0
LINE
  5
291
100
AcDbEntity
  8
LAY-1
  6
CONTINUOUS
 62
     7
100
AcDbLine
 10
853.505097
 20
841.681315
 30
0.0
 11
862.005097
 21
841.181315
 31
0.0
  0
ARC
  5
292
100
AcDbEntity
  8
LAY-1
  6
CONTINUOUS
 62
     7
100
AcDbCircle
 10
852.505097
 20
853.681315
 30
0.0
 40
5.0
100
AcDbArc
 50
97.662256
 51
262.337744
  0
LINE
  5
293
100
AcDbEntity
  8
LAY-1
  6
CONTINUOUS
 62
     7
100
AcDbLine
 10
1160.505097
 20
618.681315
 30
0.0
 11
1160.505097
 21
588.681315
 31
0.0
  0
LINE
  5
294
100
AcDbEntity
  8
LAY-1
  6
CONTINUOUS
 62
     7
100
AcDbLine
 10
1160.505097
 20
618.681315
 30
0.0
 11
1140.505097
 21
618.681315
 31
0.0
  0
ARC
  5
295
100
AcDbEntity
  8
LAY-1
  6
CONTINUOUS
 62
     7
100
AcDbCircle
 10
1116.505097
 20
603.681315
 30
0.0
 40
37.0
100
AcDbArc
 50
341.075356
 51
18.924644
  0
LINE
  5
296
100
AcDbEntity
  8
LAY-1
  6
CONTINUOUS
 62
     7
100
AcDbLine
 10
1151.505097
 20
615.681315
 30
0.0
 11
1151.505097
 21
591.681315
 31
0.0
  0
LINE
  5
297
100
AcDbEntity
  8
LAY-1
  6
CONTINUOUS
 62
     7
100
AcDbLine
 10
1151.505097
 20
615.681315
 30
0.0
 11
1143.005097
 21
616.181315
 31
0.0
  0
LINE
  5
298
100
AcDbEntity
  8
LAY-1
  6
CONTINUOUS
 62
     7
100
AcDbLine
 10
1143.005097
 20
616.181315
 30
0.0
 11
1143.005097
 21
603.681315
 31
0.0
  0
LINE
  5
299
100
AcDbEntity
  8
LAY-1
  6
CONTINUOUS
 62
     7
100
AcDbLine
 10
1143.005097
 20
593.681315
 30
0.0
 11
1140.505097
 21
593.681315
 31
0.0
  0
LINE
  5
29A
100
AcDbEntity
  8
LAY-1
  6
CONTINUOUS
 62
     7
100
AcDbLine
 10
1143.005097
 20
613.681315
 30
0.0
 11
1140.505097
 21
613.681315
 31
0.0
  0
LINE
  5
29B
100
AcDbEntity
  8
LAY-1
  6
CONTINUOUS
 62
     7
100
AcDbLine
 10
1151.505097
 20
591.681315
 30
0.0
 11
1143.005097
 21
591.181315
 31
0.0
  0
LINE
  5
29C
100
AcDbEntity
  8
LAY-1
  6
CONTINUOUS
 62
     7
100
AcDbLine
 10
1143.005097
 20
591.181315
 30
0.0
 11
1143.005097
 21
603.681315
 31
0.0
  0
ARC
  5
29D
100
AcDbEntity
  8
LAY-1
  6
CONTINUOUS
 62
     7
100
AcDbCircle
 10
1152.505097
 20
603.681315
 30
0.0
 40
5.0
100
AcDbArc
 50
277.662256
 51
82.337744
  0
LINE
  5
29E
100
AcDbEntity
  8
LAY-1
  6
CONTINUOUS
 62
     7
100
AcDbLine
 10
844.505097
 20
618.681315
 30
0.0
 11
844.505097
 21
588.681315
 31
0.0
  0
LINE
  5
29F
100
AcDbEntity
  8
LAY-1
  6
CONTINUOUS
 62
     7
100
AcDbLine
 10
844.505097
 20
618.681315
 30
0.0
 11
864.505097
 21
618.681315
 31
0.0
  0
ARC
  5
2A0
100
AcDbEntity
  8
LAY-1
  6
CONTINUOUS
 62
     7
100
AcDbCircle
 10
888.505097
 20
603.681315
 30
0.0
 40
37.0
100
AcDbArc
 50
161.075356
 51
198.924644
  0
LINE
  5
2A1
100
AcDbEntity
  8
LAY-1
  6
CONTINUOUS
 62
     7
100
AcDbLine
 10
853.505097
 20
615.681315
 30
0.0
 11
853.505097
 21
591.681315
 31
0.0
  0
LINE
  5
2A2
100
AcDbEntity
  8
LAY-1
  6
CONTINUOUS
 62
     7
100
AcDbLine
 10
853.505097
 20
615.681315
 30
0.0
 11
862.005097
 21
616.181315
 31
0.0
  0
LINE
  5
2A3
100
AcDbEntity
  8
LAY-1
  6
CONTINUOUS
 62
     7
100
AcDbLine
 10
862.005097
 20
616.181315
 30
0.0
 11
862.005097
 21
603.681315
 31
0.0
  0
LINE
  5
2A4
100
AcDbEntity
  8
LAY-1
  6
CONTINUOUS
 62
     7
100
AcDbLine
 10
862.005097
 20
593.681315
 30
0.0
 11
864.505097
 21
593.681315
 31
0.0
  0
LINE
  5
2A5
100
AcDbEntity
  8
LAY-1
  6
CONTINUOUS
 62
     7
100
AcDbLine
 10
862.005097
 20
613.681315
 30
0.0
 11
864.505097
 21
613.681315
 31
0.0
  0
LINE
  5
2A6
100
AcDbEntity
  8
LAY-1
  6
CONTINUOUS
 62
     7
100
AcDbLine
 10
853.505097
 20
591.681315
 30
0.0
 11
862.005097
 21
591.181315
 31
0.0
  0
LINE
  5
2A7
100
AcDbEntity
  8
LAY-1
  6
CONTINUOUS
 62
     7
100
AcDbLine
 10
862.005097
 20
591.181315
 30
0.0
 11
862.005097
 21
603.681315
 31
0.0
  0
ARC
  5
2A8
100
AcDbEntity
  8
LAY-1
  6
CONTINUOUS
 62
     7
100
AcDbCircle
 10
852.505097
 20
603.681315
 30
0.0
 40
5.0
100
AcDbArc
 50
97.662256
 51
262.337744
  0
LINE
  5
2A9
100
AcDbEntity
  8
LAY-1
  6
CONTINUOUS
 62
     7
100
AcDbLine
 10
1140.505097
 20
588.681315
 30
0.0
 11
1160.505097
 21
588.681315
 31
0.0
  0
LINE
  5
2AA
100
AcDbEntity
  8
LAY-1
  6
CONTINUOUS
 62
     7
100
AcDbLine
 10
864.505097
 20
588.681315
 30
0.0
 11
844.505097
 21
588.681315
 31
0.0
  0
LINE
  5
2AB
100
AcDbEntity
  8
LAY-1
  6
CONTINUOUS
 62
     7
100
AcDbLine
 10
1050.005097
 20
581.681315
 30
0.0
 11
1050.005097
 21
563.681315
 31
0.0
  0
LINE
  5
2AC
100
AcDbEntity
  8
LAY-1
  6
CONTINUOUS
 62
     7
100
AcDbLine
 10
1050.005097
 20
563.681315
 30
0.0
 11
1075.005097
 21
563.681315
 31
0.0
  0
LINE
  5
2AD
100
AcDbEntity
  8
LAY-1
  6
CONTINUOUS
 62
     7
100
AcDbLine
 10
1075.005097
 20
581.681315
 30
0.0
 11
1075.005097
 21
563.681315
 31
0.0
  0
ARC
  5
2AE
100
AcDbEntity
  8
LAY-1
  6
CONTINUOUS
 62
     7
100
AcDbCircle
 10
1112.640213
 20
592.825836
 30
0.0
 40
2.0
100
AcDbArc
 50
270.0
 51
0.0
  0
LINE
  5
2AF
100
AcDbEntity
  8
LAY-1
  6
CONTINUOUS
 62
     7
100
AcDbLine
 10
1114.640213
 20
662.825836
 30
0.0
 11
1114.640213
 21
592.825836
 31
0.0
  0
ARC
  5
2B0
100
AcDbEntity
  8
LAY-1
  6
CONTINUOUS
 62
     7
100
AcDbCircle
 10
1112.640213
 20
662.825836
 30
0.0
 40
2.0
100
AcDbArc
 50
0.0
 51
90.0
  0
LINE
  5
2B1
100
AcDbEntity
  8
LAY-1
  6
CONTINUOUS
 62
     7
100
AcDbLine
 10
1009.640213
 20
664.825836
 30
0.0
 11
1112.640213
 21
664.825836
 31
0.0
  0
ARC
  5
2B2
100
AcDbEntity
  8
LAY-1
  6
CONTINUOUS
 62
     7
100
AcDbCircle
 10
1009.640213
 20
662.825836
 30
0.0
 40
2.0
100
AcDbArc
 50
90.0
 51
180.0
  0
LINE
  5
2B3
100
AcDbEntity
  8
LAY-1
  6
CONTINUOUS
 62
     7
100
AcDbLine
 10
1009.640213
 20
590.825836
 30
0.0
 11
1112.640213
 21
590.825836
 31
0.0
  0
LINE
  5
2B4
100
AcDbEntity
  8
LAY-1
  6
CONTINUOUS
 62
     7
100
AcDbLine
 10
1007.640213
 20
662.825836
 30
0.0
 11
1007.640213
 21
592.825836
 31
0.0
  0
ARC
  5
2B5
100
AcDbEntity
  8
LAY-1
  6
CONTINUOUS
 62
     7
100
AcDbCircle
 10
1009.640213
 20
592.825836
 30
0.0
 40
2.0
100
AcDbArc
 50
180.0
 51
270.0
  0
LINE
  5
2B6
100
AcDbEntity
  8
LAY-1
  6
CONTINUOUS
 62
     7
100
AcDbLine
 10
1009.640213
 20
601.825836
 30
0.0
 11
1112.640213
 21
601.825836
 31
0.0
  0
ARC
  5
2B7
100
AcDbEntity
  8
LAY-1
  6
CONTINUOUS
 62
     7
100
AcDbCircle
 10
1110.640213
 20
594.825836
 30
0.0
 40
2.0
100
AcDbArc
 50
270.0
 51
0.0
  0
LINE
  5
2B8
100
AcDbEntity
  8
LAY-1
  6
CONTINUOUS
 62
     7
100
AcDbLine
 10
1112.640213
 20
594.825836
 30
0.0
 11
1112.640213
 21
627.825836
 31
0.0
  0
LINE
  5
2B9
100
AcDbEntity
  8
LAY-1
  6
CONTINUOUS
 62
     7
100
AcDbLine
 10
1110.640213
 20
662.825836
 30
0.0
 11
1061.140213
 21
662.825836
 31
0.0
  0
ARC
  5
2BA
100
AcDbEntity
  8
LAY-1
  6
CONTINUOUS
 62
     7
100
AcDbCircle
 10
1110.640213
 20
660.825836
 30
0.0
 40
2.0
100
AcDbArc
 50
0.0
 51
90.0
  0
LINE
  5
2BB
100
AcDbEntity
  8
LAY-1
  6
CONTINUOUS
 62
     7
100
AcDbLine
 10
1112.640213
 20
660.825836
 30
0.0
 11
1112.640213
 21
627.825836
 31
0.0
  0
ARC
  5
2BC
100
AcDbEntity
  8
LAY-1
  6
CONTINUOUS
 62
     7
100
AcDbCircle
 10
1011.640213
 20
660.825836
 30
0.0
 40
2.0
100
AcDbArc
 50
90.0
 51
180.0
  0
LINE
  5
2BD
100
AcDbEntity
  8
LAY-1
  6
CONTINUOUS
 62
     7
100
AcDbLine
 10
1011.640213
 20
662.825836
 30
0.0
 11
1061.140213
 21
662.825836
 31
0.0
  0
LINE
  5
2BE
100
AcDbEntity
  8
LAY-1
  6
CONTINUOUS
 62
     7
100
AcDbLine
 10
1009.640213
 20
594.825836
 30
0.0
 11
1009.640213
 21
660.825836
 31
0.0
  0
ARC
  5
2BF
100
AcDbEntity
  8
LAY-1
  6
CONTINUOUS
 62
     7
100
AcDbCircle
 10
1011.640213
 20
594.825836
 30
0.0
 40
2.0
100
AcDbArc
 50
180.0
 51
270.0
  0
LINE
  5
2C0
100
AcDbEntity
  8
LAY-1
  6
CONTINUOUS
 62
     7
100
AcDbLine
 10
1110.640213
 20
592.825836
 30
0.0
 11
1011.640213
 21
592.825836
 31
0.0
  0
CIRCLE
  5
2C1
100
AcDbEntity
  8
LAY-1
  6
CONTINUOUS
 62
     7
100
AcDbCircle
 10
1110.640213
 20
594.825836
 30
0.0
 40
1.75
  0
CIRCLE
  5
2C2
100
AcDbEntity
  8
LAY-1
  6
CONTINUOUS
 62
     7
100
AcDbCircle
 10
1110.640213
 20
660.825836
 30
0.0
 40
1.75
  0
CIRCLE
  5
2C3
100
AcDbEntity
  8
LAY-1
  6
CONTINUOUS
 62
     7
100
AcDbCircle
 10
1011.640213
 20
594.825836
 30
0.0
 40
1.75
  0
CIRCLE
  5
2C4
100
AcDbEntity
  8
LAY-1
  6
CONTINUOUS
 62
     7
100
AcDbCircle
 10
1011.640213
 20
660.825836
 30
0.0
 40
1.75
  0
LINE
  5
2C5
100
AcDbEntity
  8
LAY-1
  6
CONTINUOUS
 62
     7
100
AcDbLine
 10
1106.640213
 20
641.825836
 30
0.0
 11
1106.640213
 21
636.825836
 31
0.0
  0
LINE
  5
2C6
100
AcDbEntity
  8
LAY-1
  6
CONTINUOUS
 62
     7
100
AcDbLine
 10
1072.640213
 20
641.825836
 30
0.0
 11
1106.640213
 21
641.825836
 31
0.0
  0
LINE
  5
2C7
100
AcDbEntity
  8
LAY-1
  6
CONTINUOUS
 62
     7
100
AcDbLine
 10
1106.640213
 20
636.825836
 30
0.0
 11
1072.640213
 21
636.825836
 31
0.0
  0
LINE
  5
2C8
100
AcDbEntity
  8
LAY-1
  6
CONTINUOUS
 62
     7
100
AcDbLine
 10
1072.640213
 20
641.825836
 30
0.0
 11
1072.640213
 21
636.825836
 31
0.0
  0
LINE
  5
2C9
100
AcDbEntity
  8
LAY-1
  6
CONTINUOUS
 62
     7
100
AcDbLine
 10
1009.640213
 20
648.825836
 30
0.0
 11
1112.640213
 21
648.825836
 31
0.0
  0
CIRCLE
  5
2CA
100
AcDbEntity
  8
LAY-1
  6
CONTINUOUS
 62
     7
100
AcDbCircle
 10
1062.505097
 20
164.681315
 30
0.0
 40
63.0
  0
CIRCLE
  5
2CB
100
AcDbEntity
  8
LAY-1
  6
CONTINUOUS
 62
     7
100
AcDbCircle
 10
912.505097
 20
149.181315
 30
0.0
 40
7.5
  0
LINE
  5
2CC
100
AcDbEntity
  8
LAY-1
  6
CONTINUOUS
 62
     7
100
AcDbLine
 10
1125.505097
 20
232.681315
 30
0.0
 11
879.505097
 21
232.681315
 31
0.0
  0
LINE
  5
2CD
100
AcDbEntity
  8
LAY-1
  6
CONTINUOUS
 62
     7
100
AcDbLine
 10
1125.505097
 20
232.681315
 30
0.0
 11
1125.505097
 21
96.681315
 31
0.0
  0
CIRCLE
  5
2CE
100
AcDbEntity
  8
LAY-1
  6
CONTINUOUS
 62
     7
100
AcDbCircle
 10
1083.568301
 20
215.488218
 30
0.0
 40
6.1
  0
CIRCLE
  5
2CF
100
AcDbEntity
  8
LAY-1
  6
CONTINUOUS
 62
     7
100
AcDbCircle
 10
1083.568301
 20
215.488218
 30
0.0
 40
5.0
  0
POLYLINE
  5
2D0
100
AcDbEntity
  8
LAY-1
  6
CONTINUOUS
 62
     7
100
AcDb2dPolyline
 66
     1
 10
0.0
 20
0.0
 30
0.0
 70
   128
  0
VERTEX
  5
2D1
100
AcDbEntity
  8
LAY-1
  6
CONTINUOUS
 62
     7
100
AcDbVertex
100
AcDb2dVertex
 10
1083.568301
 20
221.261721
 30
0.0
  0
VERTEX
  5
2D2
100
AcDbEntity
  8
LAY-1
  6
CONTINUOUS
 62
     7
100
AcDbVertex
100
AcDb2dVertex
 10
1078.568301
 20
218.37497
 30
0.0
  0
VERTEX
  5
2D3
100
AcDbEntity
  8
LAY-1
  6
CONTINUOUS
 62
     7
100
AcDbVertex
100
AcDb2dVertex
 10
1078.568301
 20
212.601467
 30
0.0
  0
VERTEX
  5
2D4
100
AcDbEntity
  8
LAY-1
  6
CONTINUOUS
 62
     7
100
AcDbVertex
100
AcDb2dVertex
 10
1083.568301
 20
209.714715
 30
0.0
  0
VERTEX
  5
2D5
100
AcDbEntity
  8
LAY-1
  6
CONTINUOUS
 62
     7
100
AcDbVertex
100
AcDb2dVertex
 10
1088.568301
 20
212.601467
 30
0.0
  0
VERTEX
  5
2D6
100
AcDbEntity
  8
LAY-1
  6
CONTINUOUS
 62
     7
100
AcDbVertex
100
AcDb2dVertex
 10
1088.568301
 20
218.37497
 30
0.0
  0
VERTEX
  5
2D7
100
AcDbEntity
  8
LAY-1
  6
CONTINUOUS
 62
     7
100
AcDbVertex
100
AcDb2dVertex
 10
1083.568301
 20
221.261721
 30
0.0
  0
SEQEND
  5
2D8
100
AcDbEntity
  8
LAY-1
  6
CONTINUOUS
 62
     7
  0
CIRCLE
  5
2D9
100
AcDbEntity
  8
LAY-1
  6
CONTINUOUS
 62
     7
100
AcDbCircle
 10
1041.457509
 20
215.494689
 30
0.0
 40
6.1
  0
CIRCLE
  5
2DA
100
AcDbEntity
  8
LAY-1
  6
CONTINUOUS
 62
     7
100
AcDbCircle
 10
1041.457509
 20
215.494689
 30
0.0
 40
5.0
  0
POLYLINE
  5
2DB
100
AcDbEntity
  8
LAY-1
  6
CONTINUOUS
 62
     7
100
AcDb2dPolyline
 66
     1
 10
0.0
 20
0.0
 30
0.0
 70
   128
  0
VERTEX
  5
2DC
100
AcDbEntity
  8
LAY-1
  6
CONTINUOUS
 62
     7
100
AcDbVertex
100
AcDb2dVertex
 10
1041.457509
 20
221.268192
 30
0.0
  0
VERTEX
  5
2DD
100
AcDbEntity
  8
LAY-1
  6
CONTINUOUS
 62
     7
100
AcDbVertex
100
AcDb2dVertex
 10
1036.457509
 20
218.38144
 30
0.0
  0
VERTEX
  5
2DE
100
AcDbEntity
  8
LAY-1
  6
CONTINUOUS
 62
     7
100
AcDbVertex
100
AcDb2dVertex
 10
1036.457509
 20
212.607938
 30
0.0
  0
VERTEX
  5
2DF
100
AcDbEntity
  8
LAY-1
  6
CONTINUOUS
 62
     7
100
AcDbVertex
100
AcDb2dVertex
 10
1041.457509
 20
209.721186
 30
0.0
  0
VERTEX
  5
2E0
100
AcDbEntity
  8
LAY-1
  6
CONTINUOUS
 62
     7
100
AcDbVertex
100
AcDb2dVertex
 10
1046.457509
 20
212.607938
 30
0.0
  0
VERTEX
  5
2E1
100
AcDbEntity
  8
LAY-1
  6
CONTINUOUS
 62
     7
100
AcDbVertex
100
AcDb2dVertex
 10
1046.457509
 20
218.38144
 30
0.0
  0
VERTEX
  5
2E2
100
AcDbEntity
  8
LAY-1
  6
CONTINUOUS
 62
     7
100
AcDbVertex
100
AcDb2dVertex
 10
1041.457509
 20
221.268192
 30
0.0
  0
SEQEND
  5
2E3
100
AcDbEntity
  8
LAY-1
  6
CONTINUOUS
 62
     7
  0
CIRCLE
  5
2E4
100
AcDbEntity
  8
LAY-1
  6
CONTINUOUS
 62
     7
100
AcDbCircle
 10
1011.691723
 20
185.728903
 30
0.0
 40
6.1
  0
CIRCLE
  5
2E5
100
AcDbEntity
  8
LAY-1
  6
CONTINUOUS
 62
     7
100
AcDbCircle
 10
1011.691723
 20
185.728903
 30
0.0
 40
5.0
  0
POLYLINE
  5
2E6
100
AcDbEntity
  8
LAY-1
  6
CONTINUOUS
 62
     7
100
AcDb2dPolyline
 66
     1
 10
0.0
 20
0.0
 30
0.0
 70
   128
  0
VERTEX
  5
2E7
100
AcDbEntity
  8
LAY-1
  6
CONTINUOUS
 62
     7
100
AcDbVertex
100
AcDb2dVertex
 10
1011.691723
 20
191.502406
 30
0.0
  0
VERTEX
  5
2E8
100
AcDbEntity
  8
LAY-1
  6
CONTINUOUS
 62
     7
100
AcDbVertex
100
AcDb2dVertex
 10
1006.691723
 20
188.615655
 30
0.0
  0
VERTEX
  5
2E9
100
AcDbEntity
  8
LAY-1
  6
CONTINUOUS
 62
     7
100
AcDbVertex
100
AcDb2dVertex
 10
1006.691723
 20
182.842152
 30
0.0
  0
VERTEX
  5
2EA
100
AcDbEntity
  8
LAY-1
  6
CONTINUOUS
 62
     7
100
AcDbVertex
100
AcDb2dVertex
 10
1011.691723
 20
179.955401
 30
0.0
  0
VERTEX
  5
2EB
100
AcDbEntity
  8
LAY-1
  6
CONTINUOUS
 62
     7
100
AcDbVertex
100
AcDb2dVertex
 10
1016.691723
 20
182.842152
 30
0.0
  0
VERTEX
  5
2EC
100
AcDbEntity
  8
LAY-1
  6
CONTINUOUS
 62
     7
100
AcDbVertex
100
AcDb2dVertex
 10
1016.691723
 20
188.615655
 30
0.0
  0
VERTEX
  5
2ED
100
AcDbEntity
  8
LAY-1
  6
CONTINUOUS
 62
     7
100
AcDbVertex
100
AcDb2dVertex
 10
1011.691723
 20
191.502406
 30
0.0
  0
SEQEND
  5
2EE
100
AcDbEntity
  8
LAY-1
  6
CONTINUOUS
 62
     7
  0
CIRCLE
  5
2EF
100
AcDbEntity
  8
LAY-1
  6
CONTINUOUS
 62
     7
100
AcDbCircle
 10
1011.691723
 20
143.633726
 30
0.0
 40
6.1
  0
CIRCLE
  5
2F0
100
AcDbEntity
  8
LAY-1
  6
CONTINUOUS
 62
     7
100
AcDbCircle
 10
1011.691723
 20
143.633726
 30
0.0
 40
5.0
  0
POLYLINE
  5
2F1
100
AcDbEntity
  8
LAY-1
  6
CONTINUOUS
 62
     7
100
AcDb2dPolyline
 66
     1
 10
0.0
 20
0.0
 30
0.0
 70
   128
  0
VERTEX
  5
2F2
100
AcDbEntity
  8
LAY-1
  6
CONTINUOUS
 62
     7
100
AcDbVertex
100
AcDb2dVertex
 10
1011.691723
 20
149.407229
 30
0.0
  0
VERTEX
  5
2F3
100
AcDbEntity
  8
LAY-1
  6
CONTINUOUS
 62
     7
100
AcDbVertex
100
AcDb2dVertex
 10
1006.691723
 20
146.520477
 30
0.0
  0
VERTEX
  5
2F4
100
AcDbEntity
  8
LAY-1
  6
CONTINUOUS
 62
     7
100
AcDbVertex
100
AcDb2dVertex
 10
1006.691723
 20
140.746975
 30
0.0
  0
VERTEX
  5
2F5
100
AcDbEntity
  8
LAY-1
  6
CONTINUOUS
 62
     7
100
AcDbVertex
100
AcDb2dVertex
 10
1011.691723
 20
137.860223
 30
0.0
  0
VERTEX
  5
2F6
100
AcDbEntity
  8
LAY-1
  6
CONTINUOUS
 62
     7
100
AcDbVertex
100
AcDb2dVertex
 10
1016.691723
 20
140.746975
 30
0.0
  0
VERTEX
  5
2F7
100
AcDbEntity
  8
LAY-1
  6
CONTINUOUS
 62
     7
100
AcDbVertex
100
AcDb2dVertex
 10
1016.691723
 20
146.520477
 30
0.0
  0
VERTEX
  5
2F8
100
AcDbEntity
  8
LAY-1
  6
CONTINUOUS
 62
     7
100
AcDbVertex
100
AcDb2dVertex
 10
1011.691723
 20
149.407229
 30
0.0
  0
SEQEND
  5
2F9
100
AcDbEntity
  8
LAY-1
  6
CONTINUOUS
 62
     7
  0
CIRCLE
  5
2FA
100
AcDbEntity
  8
LAY-1
  6
CONTINUOUS
 62
     7
100
AcDbCircle
 10
1041.441894
 20
113.874411
 30
0.0
 40
6.1
  0
POLYLINE
  5
2FB
100
AcDbEntity
  8
LAY-1
  6
CONTINUOUS
 62
     7
100
AcDb2dPolyline
 66
     1
 10
0.0
 20
0.0
 30
0.0
 70
   128
  0
VERTEX
  5
2FC
100
AcDbEntity
  8
LAY-1
  6
CONTINUOUS
 62
     7
100
AcDbVertex
100
AcDb2dVertex
 10
1041.441894
 20
119.647914
 30
0.0
  0
VERTEX
  5
2FD
100
AcDbEntity
  8
LAY-1
  6
CONTINUOUS
 62
     7
100
AcDbVertex
100
AcDb2dVertex
 10
1036.441894
 20
116.761162
 30
0.0
  0
VERTEX
  5
2FE
100
AcDbEntity
  8
LAY-1
  6
CONTINUOUS
 62
     7
100
AcDbVertex
100
AcDb2dVertex
 10
1036.441894
 20
110.98766
 30
0.0
  0
VERTEX
  5
2FF
100
AcDbEntity
  8
LAY-1
  6
CONTINUOUS
 62
     7
100
AcDbVertex
100
AcDb2dVertex
 10
1041.441894
 20
108.100908
 30
0.0
  0
VERTEX
  5
300
100
AcDbEntity
  8
LAY-1
  6
CONTINUOUS
 62
     7
100
AcDbVertex
100
AcDb2dVertex
 10
1046.441894
 20
110.98766
 30
0.0
  0
VERTEX
  5
301
100
AcDbEntity
  8
LAY-1
  6
CONTINUOUS
 62
     7
100
AcDbVertex
100
AcDb2dVertex
 10
1046.441894
 20
116.761162
 30
0.0
  0
VERTEX
  5
302
100
AcDbEntity
  8
LAY-1
  6
CONTINUOUS
 62
     7
100
AcDbVertex
100
AcDb2dVertex
 10
1041.441894
 20
119.647914
 30
0.0
  0
SEQEND
  5
303
100
AcDbEntity
  8
LAY-1
  6
CONTINUOUS
 62
     7
  0
CIRCLE
  5
304
100
AcDbEntity
  8
LAY-1
  6
CONTINUOUS
 62
     7
100
AcDbCircle
 10
1041.441894
 20
113.874411
 30
0.0
 40
5.0
  0
CIRCLE
  5
305
100
AcDbEntity
  8
LAY-1
  6
CONTINUOUS
 62
     7
100
AcDbCircle
 10
1083.568301
 20
113.874411
 30
0.0
 40
5.0
  0
POLYLINE
  5
306
100
AcDbEntity
  8
LAY-1
  6
CONTINUOUS
 62
     7
100
AcDb2dPolyline
 66
     1
 10
0.0
 20
0.0
 30
0.0
 70
   128
  0
VERTEX
  5
307
100
AcDbEntity
  8
LAY-1
  6
CONTINUOUS
 62
     7
100
AcDbVertex
100
AcDb2dVertex
 10
1083.568301
 20
119.647914
 30
0.0
  0
VERTEX
  5
308
100
AcDbEntity
  8
LAY-1
  6
CONTINUOUS
 62
     7
100
AcDbVertex
100
AcDb2dVertex
 10
1078.568301
 20
116.761162
 30
0.0
  0
VERTEX
  5
309
100
AcDbEntity
  8
LAY-1
  6
CONTINUOUS
 62
     7
100
AcDbVertex
100
AcDb2dVertex
 10
1078.568301
 20
110.98766
 30
0.0
  0
VERTEX
  5
30A
100
AcDbEntity
  8
LAY-1
  6
CONTINUOUS
 62
     7
100
AcDbVertex
100
AcDb2dVertex
 10
1083.568301
 20
108.100908
 30
0.0
  0
VERTEX
  5
30B
100
AcDbEntity
  8
LAY-1
  6
CONTINUOUS
 62
     7
100
AcDbVertex
100
AcDb2dVertex
 10
1088.568301
 20
110.98766
 30
0.0
  0
VERTEX
  5
30C
100
AcDbEntity
  8
LAY-1
  6
CONTINUOUS
 62
     7
100
AcDbVertex
100
AcDb2dVertex
 10
1088.568301
 20
116.761162
 30
0.0
  0
VERTEX
  5
30D
100
AcDbEntity
  8
LAY-1
  6
CONTINUOUS
 62
     7
100
AcDbVertex
100
AcDb2dVertex
 10
1083.568301
 20
119.647914
 30
0.0
  0
SEQEND
  5
30E
100
AcDbEntity
  8
LAY-1
  6
CONTINUOUS
 62
     7
  0
CIRCLE
  5
30F
100
AcDbEntity
  8
LAY-1
  6
CONTINUOUS
 62
     7
100
AcDbCircle
 10
1083.568301
 20
113.874411
 30
0.0
 40
6.1
  0
CIRCLE
  5
310
100
AcDbEntity
  8
LAY-1
  6
CONTINUOUS
 62
     7
100
AcDbCircle
 10
1113.318472
 20
143.633726
 30
0.0
 40
6.1
  0
POLYLINE
  5
311
100
AcDbEntity
  8
LAY-1
  6
CONTINUOUS
 62
     7
100
AcDb2dPolyline
 66
     1
 10
0.0
 20
0.0
 30
0.0
 70
   128
  0
VERTEX
  5
312
100
AcDbEntity
  8
LAY-1
  6
CONTINUOUS
 62
     7
100
AcDbVertex
100
AcDb2dVertex
 10
1113.318472
 20
149.407229
 30
0.0
  0
VERTEX
  5
313
100
AcDbEntity
  8
LAY-1
  6
CONTINUOUS
 62
     7
100
AcDbVertex
100
AcDb2dVertex
 10
1108.318472
 20
146.520477
 30
0.0
  0
VERTEX
  5
314
100
AcDbEntity
  8
LAY-1
  6
CONTINUOUS
 62
     7
100
AcDbVertex
100
AcDb2dVertex
 10
1108.318472
 20
140.746975
 30
0.0
  0
VERTEX
  5
315
100
AcDbEntity
  8
LAY-1
  6
CONTINUOUS
 62
     7
100
AcDbVertex
100
AcDb2dVertex
 10
1113.318472
 20
137.860223
 30
0.0
  0
VERTEX
  5
316
100
AcDbEntity
  8
LAY-1
  6
CONTINUOUS
 62
     7
100
AcDbVertex
100
AcDb2dVertex
 10
1118.318472
 20
140.746975
 30
0.0
  0
VERTEX
  5
317
100
AcDbEntity
  8
LAY-1
  6
CONTINUOUS
 62
     7
100
AcDbVertex
100
AcDb2dVertex
 10
1118.318472
 20
146.520477
 30
0.0
  0
VERTEX
  5
318
100
AcDbEntity
  8
LAY-1
  6
CONTINUOUS
 62
     7
100
AcDbVertex
100
AcDb2dVertex
 10
1113.318472
 20
149.407229
 30
0.0
  0
SEQEND
  5
319
100
AcDbEntity
  8
LAY-1
  6
CONTINUOUS
 62
     7
  0
CIRCLE
  5
31A
100
AcDbEntity
  8
LAY-1
  6
CONTINUOUS
 62
     7
100
AcDbCircle
 10
1113.318472
 20
143.633726
 30
0.0
 40
5.0
  0
CIRCLE
  5
31B
100
AcDbEntity
  8
LAY-1
  6
CONTINUOUS
 62
     7
100
AcDbCircle
 10
1113.318472
 20
185.728903
 30
0.0
 40
6.1
  0
POLYLINE
  5
31C
100
AcDbEntity
  8
LAY-1
  6
CONTINUOUS
 62
     7
100
AcDb2dPolyline
 66
     1
 10
0.0
 20
0.0
 30
0.0
 70
   128
  0
VERTEX
  5
31D
100
AcDbEntity
  8
LAY-1
  6
CONTINUOUS
 62
     7
100
AcDbVertex
100
AcDb2dVertex
 10
1113.318472
 20
191.502406
 30
0.0
  0
VERTEX
  5
31E
100
AcDbEntity
  8
LAY-1
  6
CONTINUOUS
 62
     7
100
AcDbVertex
100
AcDb2dVertex
 10
1108.318472
 20
188.615655
 30
0.0
  0
VERTEX
  5
31F
100
AcDbEntity
  8
LAY-1
  6
CONTINUOUS
 62
     7
100
AcDbVertex
100
AcDb2dVertex
 10
1108.318472
 20
182.842152
 30
0.0
  0
VERTEX
  5
320
100
AcDbEntity
  8
LAY-1
  6
CONTINUOUS
 62
     7
100
AcDbVertex
100
AcDb2dVertex
 10
1113.318472
 20
179.955401
 30
0.0
  0
VERTEX
  5
321
100
AcDbEntity
  8
LAY-1
  6
CONTINUOUS
 62
     7
100
AcDbVertex
100
AcDb2dVertex
 10
1118.318472
 20
182.842152
 30
0.0
  0
VERTEX
  5
322
100
AcDbEntity
  8
LAY-1
  6
CONTINUOUS
 62
     7
100
AcDbVertex
100
AcDb2dVertex
 10
1118.318472
 20
188.615655
 30
0.0
  0
VERTEX
  5
323
100
AcDbEntity
  8
LAY-1
  6
CONTINUOUS
 62
     7
100
AcDbVertex
100
AcDb2dVertex
 10
1113.318472
 20
191.502406
 30
0.0
  0
SEQEND
  5
324
100
AcDbEntity
  8
LAY-1
  6
CONTINUOUS
 62
     7
  0
CIRCLE
  5
325
100
AcDbEntity
  8
LAY-1
  6
CONTINUOUS
 62
     7
100
AcDbCircle
 10
1113.318472
 20
185.728903
 30
0.0
 40
5.0
  0
LINE
  5
326
100
AcDbEntity
  8
LAY-1
  6
CONTINUOUS
 62
     7
100
AcDbLine
 10
900.983962
 20
142.856578
 30
0.0
 11
897.972424
 21
142.856578
 31
0.0
  0
CIRCLE
  5
327
100
AcDbEntity
  8
LAY-1
  6
CONTINUOUS
 62
     7
100
AcDbCircle
 10
912.534924
 20
149.346578
 30
0.0
 40
11.5
  0
POLYLINE
  5
328
100
AcDbEntity
  8
LAY-1
  6
CONTINUOUS
 62
     7
100
AcDb2dPolyline
 66
     1
 10
0.0
 20
0.0
 30
0.0
 70
   128
  0
VERTEX
  5
329
100
AcDbEntity
  8
LAY-1
  6
CONTINUOUS
 62
     7
100
AcDbVertex
100
AcDb2dVertex
 10
912.534924
 20
136.067522
 30
0.0
  0
VERTEX
  5
32A
100
AcDbEntity
  8
LAY-1
  6
CONTINUOUS
 62
     7
100
AcDbVertex
100
AcDb2dVertex
 10
901.034924
 20
142.70705
 30
0.0
  0
VERTEX
  5
32B
100
AcDbEntity
  8
LAY-1
  6
CONTINUOUS
 62
     7
100
AcDbVertex
100
AcDb2dVertex
 10
901.034924
 20
155.986106
 30
0.0
  0
VERTEX
  5
32C
100
AcDbEntity
  8
LAY-1
  6
CONTINUOUS
 62
     7
100
AcDbVertex
100
AcDb2dVertex
 10
912.534924
 20
162.625634
 30
0.0
  0
VERTEX
  5
32D
100
AcDbEntity
  8
LAY-1
  6
CONTINUOUS
 62
     7
100
AcDbVertex
100
AcDb2dVertex
 10
924.034924
 20
155.986106
 30
0.0
  0
VERTEX
  5
32E
100
AcDbEntity
  8
LAY-1
  6
CONTINUOUS
 62
     7
100
AcDbVertex
100
AcDb2dVertex
 10
924.034924
 20
142.70705
 30
0.0
  0
VERTEX
  5
32F
100
AcDbEntity
  8
LAY-1
  6
CONTINUOUS
 62
     7
100
AcDbVertex
100
AcDb2dVertex
 10
912.534924
 20
136.067522
 30
0.0
  0
SEQEND
  5
330
100
AcDbEntity
  8
LAY-1
  6
CONTINUOUS
 62
     7
  0
ARC
  5
331
100
AcDbEntity
  8
LAY-1
  6
CONTINUOUS
 62
     7
100
AcDbCircle
 10
900.983962
 20
141.852732
 30
0.0
 40
1.003846
100
AcDbArc
 50
87.090055
 51
90.0
  0
ARC
  5
332
100
AcDbEntity
  8
LAY-1
  6
CONTINUOUS
 62
     7
100
AcDbCircle
 10
900.983962
 20
156.910424
 30
0.0
 40
1.003846
100
AcDbArc
 50
270.0
 51
272.909945
  0
POLYLINE
  5
333
100
AcDbEntity
  8
LAY-1
  6
CONTINUOUS
 62
     7
100
AcDb2dPolyline
 66
     1
 10
0.0
 20
0.0
 30
0.0
 70
   128
  0
VERTEX
  5
334
100
AcDbEntity
  8
LAY-1
  6
CONTINUOUS
 62
     7
100
AcDbVertex
100
AcDb2dVertex
 10
917.064527
 20
157.056694
 30
0.0
  0
VERTEX
  5
335
100
AcDbEntity
  8
LAY-1
  6
CONTINUOUS
 62
     7
100
AcDbVertex
100
AcDb2dVertex
 10
921.605091
 20
149.170422
 30
0.0
  0
VERTEX
  5
336
100
AcDbEntity
  8
LAY-1
  6
CONTINUOUS
 62
     7
100
AcDbVertex
100
AcDb2dVertex
 10
917.045661
 20
141.295043
 30
0.0
  0
VERTEX
  5
337
100
AcDbEntity
  8
LAY-1
  6
CONTINUOUS
 62
     7
100
AcDbVertex
100
AcDb2dVertex
 10
907.945667
 20
141.305935
 30
0.0
  0
VERTEX
  5
338
100
AcDbEntity
  8
LAY-1
  6
CONTINUOUS
 62
     7
100
AcDbVertex
100
AcDb2dVertex
 10
903.405104
 20
149.192207
 30
0.0
  0
VERTEX
  5
339
100
AcDbEntity
  8
LAY-1
  6
CONTINUOUS
 62
     7
100
AcDbVertex
100
AcDb2dVertex
 10
907.964534
 20
157.067587
 30
0.0
  0
VERTEX
  5
33A
100
AcDbEntity
  8
LAY-1
  6
CONTINUOUS
 62
     7
100
AcDbVertex
100
AcDb2dVertex
 10
917.064527
 20
157.056694
 30
0.0
  0
SEQEND
  5
33B
100
AcDbEntity
  8
LAY-1
  6
CONTINUOUS
 62
     7
  0
CIRCLE
  5
33C
100
AcDbEntity
  8
LAY-1
  6
CONTINUOUS
 62
     7
100
AcDbCircle
 10
912.505097
 20
149.181315
 30
0.0
 40
8.002631
  0
LINE
  5
33D
100
AcDbEntity
  8
LAY-1
  6
CONTINUOUS
 62
     7
100
AcDbLine
 10
897.385097
 20
155.906578
 30
0.0
 11
900.983962
 21
155.906578
 31
0.0
  0
CIRCLE
  5
33E
100
AcDbEntity
  8
LAY-1
  6
CONTINUOUS
 62
     7
100
AcDbCircle
 10
972.505097
 20
185.681315
 30
0.0
 40
13.6
  0
LINE
  5
33F
100
AcDbEntity
  8
LAY-1
  6
CONTINUOUS
 62
     7
100
AcDbLine
 10
893.505097
 20
146.181315
 30
0.0
 11
893.505097
 21
155.693516
 31
0.0
  0
LINE
  5
340
100
AcDbEntity
  8
LAY-1
  6
CONTINUOUS
 62
     7
100
AcDbLine
 10
888.431424
 20
146.922051
 30
0.0
 11
888.837424
 21
146.922051
 31
0.0
  0
LINE
  5
341
100
AcDbEntity
  8
LAY-1
  6
CONTINUOUS
 62
     7
100
AcDbLine
 10
888.837424
 20
151.185051
 30
0.0
 11
888.431424
 21
151.185051
 31
0.0
  0
LINE
  5
342
100
AcDbEntity
  8
LAY-1
  6
CONTINUOUS
 62
     7
100
AcDbLine
 10
888.329924
 20
147.023551
 30
0.0
 11
888.837424
 21
146.516051
 31
0.0
  0
LINE
  5
343
100
AcDbEntity
  8
LAY-1
  6
CONTINUOUS
 62
     7
100
AcDbLine
 10
888.329924
 20
151.083551
 30
0.0
 11
888.329924
 21
147.023551
 31
0.0
  0
LINE
  5
344
100
AcDbEntity
  8
LAY-1
  6
CONTINUOUS
 62
     7
100
AcDbLine
 10
888.837424
 20
151.591051
 30
0.0
 11
888.329924
 21
151.083551
 31
0.0
  0
ARC
  5
345
100
AcDbEntity
  8
LAY-1
  6
CONTINUOUS
 62
     7
100
AcDbCircle
 10
890.017959
 20
152.555301
 30
0.0
 40
2.075245
100
AcDbArc
 50
325.773646
 51
34.226354
  0
ARC
  5
346
100
AcDbEntity
  8
LAY-1
  6
CONTINUOUS
 62
     7
100
AcDbCircle
 10
884.159631
 20
149.053551
 30
0.0
 40
7.925792
100
AcDbArc
 50
342.869763
 51
17.130237
  0
ARC
  5
347
100
AcDbEntity
  8
LAY-1
  6
CONTINUOUS
 62
     7
100
AcDbCircle
 10
889.991599
 20
145.551801
 30
0.0
 40
2.097093
100
AcDbArc
 50
326.178743
 51
33.821257
  0
ARC
  5
348
100
AcDbEntity
  8
LAY-1
  6
CONTINUOUS
 62
     7
100
AcDbCircle
 10
890.911679
 20
145.551801
 30
0.0
 40
2.080863
100
AcDbArc
 50
145.878821
 51
214.121179
  0
ARC
  5
349
100
AcDbEntity
  8
LAY-1
  6
CONTINUOUS
 62
     7
100
AcDbCircle
 10
896.763216
 20
149.053551
 30
0.0
 40
7.925792
100
AcDbArc
 50
162.869763
 51
197.130237
  0
ARC
  5
34A
100
AcDbEntity
  8
LAY-1
  6
CONTINUOUS
 62
     7
100
AcDbCircle
 10
890.937967
 20
152.555301
 30
0.0
 40
2.102678
100
AcDbArc
 50
146.280638
 51
213.719362
  0
LINE
  5
34B
100
AcDbEntity
  8
LAY-1
  6
CONTINUOUS
 62
     7
100
AcDbLine
 10
893.404924
 20
153.722551
 30
0.0
 11
892.085424
 21
153.722551
 31
0.0
  0
LINE
  5
34C
100
AcDbEntity
  8
LAY-1
  6
CONTINUOUS
 62
     7
100
AcDbLine
 10
892.085424
 20
153.722551
 30
0.0
 11
892.085424
 21
144.384551
 31
0.0
  0
LINE
  5
34D
100
AcDbEntity
  8
LAY-1
  6
CONTINUOUS
 62
     7
100
AcDbLine
 10
892.085424
 20
144.384551
 30
0.0
 11
893.404924
 21
144.384551
 31
0.0
  0
LINE
  5
34E
100
AcDbEntity
  8
LAY-1
  6
CONTINUOUS
 62
     7
100
AcDbLine
 10
891.733817
 20
144.384551
 30
0.0
 11
889.18903
 21
144.384551
 31
0.0
  0
LINE
  5
34F
100
AcDbEntity
  8
LAY-1
  6
CONTINUOUS
 62
     7
100
AcDbLine
 10
889.18903
 20
146.719051
 30
0.0
 11
891.733817
 21
146.719051
 31
0.0
  0
LINE
  5
350
100
AcDbEntity
  8
LAY-1
  6
CONTINUOUS
 62
     7
100
AcDbLine
 10
891.733817
 20
151.388051
 30
0.0
 11
889.18903
 21
151.388051
 31
0.0
  0
LINE
  5
351
100
AcDbEntity
  8
LAY-1
  6
CONTINUOUS
 62
     7
100
AcDbLine
 10
889.18903
 20
153.722551
 30
0.0
 11
891.733817
 21
153.722551
 31
0.0
  0
LINE
  5
352
100
AcDbEntity
  8
LAY-1
  6
CONTINUOUS
 62
     7
100
AcDbLine
 10
888.837424
 20
153.113551
 30
0.0
 11
888.837424
 21
144.993551
 31
0.0
  0
LINE
  5
353
100
AcDbEntity
  8
LAY-1
  6
CONTINUOUS
 62
     7
100
AcDbLine
 10
888.837424
 20
144.993551
 30
0.0
 11
889.18903
 21
144.384551
 31
0.0
  0
LINE
  5
354
100
AcDbEntity
  8
LAY-1
  6
CONTINUOUS
 62
     7
100
AcDbLine
 10
891.733817
 20
144.384551
 30
0.0
 11
892.085424
 21
144.993551
 31
0.0
  0
LINE
  5
355
100
AcDbEntity
  8
LAY-1
  6
CONTINUOUS
 62
     7
100
AcDbLine
 10
892.085424
 20
153.113551
 30
0.0
 11
891.733817
 21
153.722551
 31
0.0
  0
LINE
  5
356
100
AcDbEntity
  8
LAY-1
  6
CONTINUOUS
 62
     7
100
AcDbLine
 10
889.18903
 20
153.722551
 30
0.0
 11
888.837424
 21
153.113551
 31
0.0
  0
LINE
  5
357
100
AcDbEntity
  8
LAY-1
  6
CONTINUOUS
 62
     7
100
AcDbLine
 10
892.085424
 20
149.053551
 30
0.0
 11
893.404924
 21
150.373051
 31
0.0
  0
LINE
  5
358
100
AcDbEntity
  8
LAY-1
  6
CONTINUOUS
 62
     7
100
AcDbLine
 10
893.404924
 20
149.053551
 30
0.0
 11
892.085424
 21
147.734051
 31
0.0
  0
ARC
  5
359
100
AcDbEntity
  8
LAY-1
  6
CONTINUOUS
 62
     7
100
AcDbCircle
 10
895.942424
 20
155.880551
 30
0.0
 40
2.5375
100
AcDbArc
 50
90.0
 51
180.0
  0
ARC
  5
35A
100
AcDbEntity
  8
LAY-1
  6
CONTINUOUS
 62
     7
100
AcDbCircle
 10
895.942424
 20
155.880551
 30
0.0
 40
0.5075
100
AcDbArc
 50
90.0
 51
180.0
  0
LINE
  5
35B
100
AcDbEntity
  8
LAY-1
  6
CONTINUOUS
 62
     7
100
AcDbLine
 10
893.404924
 20
155.880551
 30
0.0
 11
893.404924
 21
139.123065
 31
0.0
  0
LINE
  5
35C
100
AcDbEntity
  8
LAY-1
  6
CONTINUOUS
 62
     7
100
AcDbLine
 10
896.449924
 20
154.561051
 30
0.0
 11
897.972424
 21
155.576051
 31
0.0
  0
LINE
  5
35D
100
AcDbEntity
  8
LAY-1
  6
CONTINUOUS
 62
     7
100
AcDbLine
 10
896.449924
 20
154.307301
 30
0.0
 11
895.434924
 21
154.307301
 31
0.0
  0
LINE
  5
35E
100
AcDbEntity
  8
LAY-1
  6
CONTINUOUS
 62
     7
100
AcDbLine
 10
896.449924
 20
143.724801
 30
0.0
 11
895.434924
 21
143.724801
 31
0.0
  0
LINE
  5
35F
100
AcDbEntity
  8
LAY-1
  6
CONTINUOUS
 62
     7
100
AcDbLine
 10
896.449924
 20
151.591051
 30
0.0
 11
896.449924
 21
143.471051
 31
0.0
  0
ARC
  5
360
100
AcDbEntity
  8
LAY-1
  6
CONTINUOUS
 62
     7
100
AcDbCircle
 10
890.017959
 20
152.531093
 30
0.0
 40
2.075245
100
AcDbArc
 50
325.773646
 51
34.226354
  0
ARC
  5
361
100
AcDbEntity
  8
LAY-1
  6
CONTINUOUS
 62
     7
100
AcDbCircle
 10
884.159631
 20
149.029343
 30
0.0
 40
7.925792
100
AcDbArc
 50
342.869763
 51
17.130237
  0
ARC
  5
362
100
AcDbEntity
  8
LAY-1
  6
CONTINUOUS
 62
     7
100
AcDbCircle
 10
889.991599
 20
145.527593
 30
0.0
 40
2.097093
100
AcDbArc
 50
326.178743
 51
33.821257
  0
LINE
  5
363
100
AcDbEntity
  8
LAY-1
  6
CONTINUOUS
 62
     7
100
AcDbLine
 10
893.404924
 20
153.698343
 30
0.0
 11
892.085424
 21
153.698343
 31
0.0
  0
LINE
  5
364
100
AcDbEntity
  8
LAY-1
  6
CONTINUOUS
 62
     7
100
AcDbLine
 10
892.085424
 20
153.698343
 30
0.0
 11
892.085424
 21
144.360343
 31
0.0
  0
LINE
  5
365
100
AcDbEntity
  8
LAY-1
  6
CONTINUOUS
 62
     7
100
AcDbLine
 10
892.085424
 20
144.360343
 30
0.0
 11
893.404924
 21
144.360343
 31
0.0
  0
LINE
  5
366
100
AcDbEntity
  8
LAY-1
  6
CONTINUOUS
 62
     7
100
AcDbLine
 10
891.733817
 20
144.360343
 30
0.0
 11
892.085424
 21
144.969343
 31
0.0
  0
LINE
  5
367
100
AcDbEntity
  8
LAY-1
  6
CONTINUOUS
 62
     7
100
AcDbLine
 10
892.085424
 20
153.089343
 30
0.0
 11
891.733817
 21
153.698343
 31
0.0
  0
LINE
  5
368
100
AcDbEntity
  8
LAY-1
  6
CONTINUOUS
 62
     7
100
AcDbLine
 10
892.085424
 20
149.029343
 30
0.0
 11
893.404924
 21
150.348843
 31
0.0
  0
LINE
  5
369
100
AcDbEntity
  8
LAY-1
  6
CONTINUOUS
 62
     7
100
AcDbLine
 10
893.404924
 20
149.029343
 30
0.0
 11
892.085424
 21
147.709843
 31
0.0
  0
ARC
  5
36A
100
AcDbEntity
  8
LAY-1
  6
CONTINUOUS
 62
     7
100
AcDbCircle
 10
895.942424
 20
155.856343
 30
0.0
 40
2.5375
100
AcDbArc
 50
90.0
 51
180.0
  0
ARC
  5
36B
100
AcDbEntity
  8
LAY-1
  6
CONTINUOUS
 62
     7
100
AcDbCircle
 10
895.942424
 20
155.856343
 30
0.0
 40
0.5075
100
AcDbArc
 50
90.0
 51
180.0
  0
LINE
  5
36C
100
AcDbEntity
  8
LAY-1
  6
CONTINUOUS
 62
     7
100
AcDbLine
 10
893.404924
 20
155.856343
 30
0.0
 11
893.404924
 21
139.098857
 31
0.0
  0
LINE
  5
36D
100
AcDbEntity
  8
LAY-1
  6
CONTINUOUS
 62
     7
100
AcDbLine
 10
896.449924
 20
154.283093
 30
0.0
 11
895.434924
 21
154.283093
 31
0.0
  0
LINE
  5
36E
100
AcDbEntity
  8
LAY-1
  6
CONTINUOUS
 62
     7
100
AcDbLine
 10
896.449924
 20
143.700593
 30
0.0
 11
895.434924
 21
143.700593
 31
0.0
  0
LINE
  5
36F
100
AcDbEntity
  8
LAY-1
  6
CONTINUOUS
 62
     7
100
AcDbLine
 10
897.484924
 20
140.181843
 30
0.0
 11
896.434924
 21
139.381843
 31
0.0
  0
LINE
  5
370
100
AcDbEntity
  8
LAY-1
  6
CONTINUOUS
 62
     7
100
AcDbLine
 10
897.972424
 20
155.481843
 30
0.0
 11
897.972424
 21
155.551843
 31
0.0
  0
LINE
  5
371
100
AcDbEntity
  8
LAY-1
  6
CONTINUOUS
 62
     7
100
AcDbLine
 10
896.449924
 20
146.416843
 30
0.0
 11
896.449924
 21
155.481843
 31
0.0
  0
LINE
  5
372
100
AcDbEntity
  8
LAY-1
  6
CONTINUOUS
 62
     7
100
AcDbLine
 10
897.484924
 20
157.868843
 30
0.0
 11
896.434924
 21
158.668843
 31
0.0
  0
LINE
  5
373
100
AcDbEntity
  8
LAY-1
  6
CONTINUOUS
 62
     7
100
AcDbLine
 10
896.434924
 20
155.481843
 30
0.0
 11
896.434924
 21
158.668843
 31
0.0
  0
LINE
  5
374
100
AcDbEntity
  8
LAY-1
  6
CONTINUOUS
 62
     7
100
AcDbLine
 10
895.942424
 20
156.363843
 30
0.0
 11
896.434924
 21
156.363843
 31
0.0
  0
LINE
  5
375
100
AcDbEntity
  8
LAY-1
  6
CONTINUOUS
 62
     7
100
AcDbLine
 10
896.434924
 20
158.393843
 30
0.0
 11
895.942424
 21
158.393843
 31
0.0
  0
LINE
  5
376
100
AcDbEntity
  8
LAY-1
  6
CONTINUOUS
 62
     7
100
AcDbLine
 10
895.434924
 20
155.856343
 30
0.0
 11
895.434924
 21
142.591315
 31
0.0
  0
LINE
  5
377
100
AcDbEntity
  8
LAY-1
  6
CONTINUOUS
 62
     7
100
AcDbLine
 10
895.434924
 20
141.441315
 30
0.0
 11
895.434924
 21
139.098857
 31
0.0
  0
LINE
  5
378
100
AcDbEntity
  8
LAY-1
  6
CONTINUOUS
 62
     7
100
AcDbLine
 10
896.434924
 20
141.441315
 30
0.0
 11
896.434924
 21
139.381843
 31
0.0
  0
LINE
  5
379
100
AcDbEntity
  8
LAY-1
  6
CONTINUOUS
 62
     7
100
AcDbLine
 10
897.015097
 20
141.441315
 30
0.0
 11
897.015097
 21
142.601315
 31
0.0
  0
LINE
  5
37A
100
AcDbEntity
  8
LAY-1
  6
CONTINUOUS
 62
     7
100
AcDbLine
 10
893.405097
 20
141.441315
 30
0.0
 11
897.015097
 21
141.441315
 31
0.0
  0
LINE
  5
37B
100
AcDbEntity
  8
LAY-1
  6
CONTINUOUS
 62
     7
100
AcDbLine
 10
896.449924
 20
151.566843
 30
0.0
 11
896.449924
 21
142.591315
 31
0.0
  0
LINE
  5
37C
100
AcDbEntity
  8
LAY-1
  6
CONTINUOUS
 62
     7
100
AcDbLine
 10
893.405097
 20
142.601315
 30
0.0
 11
897.015097
 21
142.601315
 31
0.0
  0
LINE
  5
37D
100
AcDbEntity
  8
LAY-1
  6
CONTINUOUS
 62
     7
100
AcDbLine
 10
895.434924
 20
155.880551
 30
0.0
 11
895.434924
 21
142.601315
 31
0.0
  0
LINE
  5
37E
100
AcDbEntity
  8
LAY-1
  6
CONTINUOUS
 62
     7
100
AcDbLine
 10
895.942424
 20
156.388051
 30
0.0
 11
896.434924
 21
156.388051
 31
0.0
  0
LINE
  5
37F
100
AcDbEntity
  8
LAY-1
  6
CONTINUOUS
 62
     7
100
AcDbLine
 10
897.972424
 20
155.506051
 30
0.0
 11
897.972424
 21
155.576051
 31
0.0
  0
LINE
  5
380
100
AcDbEntity
  8
LAY-1
  6
CONTINUOUS
 62
     7
100
AcDbLine
 10
896.449924
 20
143.471051
 30
0.0
 11
897.972424
 21
142.456051
 31
0.0
  0
LINE
  5
381
100
AcDbEntity
  8
LAY-1
  6
CONTINUOUS
 62
     7
100
AcDbLine
 10
897.484924
 20
142.456051
 30
0.0
 11
897.484924
 21
140.181843
 31
0.0
  0
LINE
  5
382
100
AcDbEntity
  8
LAY-1
  6
CONTINUOUS
 62
     7
100
AcDbLine
 10
896.764088
 20
158.418051
 30
0.0
 11
895.942424
 21
158.418051
 31
0.0
  0
LINE
  5
383
100
AcDbEntity
  8
LAY-1
  6
CONTINUOUS
 62
     7
100
AcDbLine
 10
897.484924
 20
155.618843
 30
0.0
 11
897.484924
 21
157.868843
 31
0.0
  0
LINE
  5
384
100
AcDbEntity
  8
LAY-1
  6
CONTINUOUS
 62
     7
100
AcDbLine
 10
895.434924
 20
139.123065
 30
0.0
 11
893.404924
 21
139.123065
 31
0.0
  0
ARC
  5
385
100
AcDbEntity
  8
LAY-1
  6
CONTINUOUS
 62
     7
100
AcDbCircle
 10
892.897424
 20
139.123065
 30
0.0
 40
2.5375
100
AcDbArc
 50
299.744881
 51
0.0
  0
ARC
  5
386
100
AcDbEntity
  8
LAY-1
  6
CONTINUOUS
 62
     7
100
AcDbCircle
 10
892.897424
 20
139.123065
 30
0.0
 40
0.5075
100
AcDbArc
 50
299.744881
 51
0.0
  0
ARC
  5
387
100
AcDbEntity
  8
LAY-1
  6
CONTINUOUS
 62
     7
100
AcDbCircle
 10
892.897424
 20
139.098857
 30
0.0
 40
0.5075
100
AcDbArc
 50
299.744881
 51
0.0
  0
ARC
  5
388
100
AcDbEntity
  8
LAY-1
  6
CONTINUOUS
 62
     7
100
AcDbCircle
 10
892.897424
 20
139.098857
 30
0.0
 40
2.5375
100
AcDbArc
 50
299.744881
 51
0.0
  0
LINE
  5
389
100
AcDbEntity
  8
LAY-1
  6
CONTINUOUS
 62
     7
100
AcDbLine
 10
893.149214
 20
138.682431
 30
0.0
 11
886.461252
 21
134.860739
 31
0.0
  0
LINE
  5
38A
100
AcDbEntity
  8
LAY-1
  6
CONTINUOUS
 62
     7
100
AcDbLine
 10
894.156376
 20
136.919898
 30
0.0
 11
887.476262
 21
133.10269
 31
0.0
  0
LINE
  5
38B
100
AcDbEntity
  8
LAY-1
  6
CONTINUOUS
 62
     7
100
AcDbLine
 10
886.2075
 20
135.300251
 30
0.0
 11
887.730015
 21
132.663178
 31
0.0
  0
LINE
  5
38C
100
AcDbEntity
  8
LAY-1
  6
CONTINUOUS
 62
     7
100
AcDbLine
 10
887.730015
 20
132.663178
 30
0.0
 11
881.988133
 21
129.382102
 31
0.0
  0
LINE
  5
38D
100
AcDbEntity
  8
LAY-1
  6
CONTINUOUS
 62
     7
100
AcDbLine
 10
886.2075
 20
135.300251
 30
0.0
 11
880.47739
 21
132.025903
 31
0.0
  0
LINE
  5
38E
100
AcDbEntity
  8
LAY-1
  6
CONTINUOUS
 62
     7
100
AcDbLine
 10
881.732424
 20
89.092576
 30
0.0
 11
881.732424
 21
128.941469
 31
0.0
  0
LINE
  5
38F
100
AcDbEntity
  8
LAY-1
  6
CONTINUOUS
 62
     7
100
AcDbLine
 10
878.687424
 20
128.941469
 30
0.0
 11
878.687424
 21
89.134286
 31
0.0
  0
ARC
  5
390
100
AcDbEntity
  8
LAY-1
  6
CONTINUOUS
 62
     7
100
AcDbCircle
 10
880.209352
 20
89.092576
 30
0.0
 40
1.5225
100
AcDbArc
 50
178.430171
 51
0.0
  0
ARC
  5
391
100
AcDbEntity
  8
LAY-1
  6
CONTINUOUS
 62
     7
100
AcDbCircle
 10
882.239924
 20
128.941469
 30
0.0
 40
0.5075
100
AcDbArc
 50
119.744881
 51
180.0
  0
ARC
  5
392
100
AcDbEntity
  8
LAY-1
  6
CONTINUOUS
 62
     7
100
AcDbCircle
 10
882.239924
 20
128.941469
 30
0.0
 40
3.5525
100
AcDbArc
 50
119.744881
 51
180.0
  0
LINE
  5
393
100
AcDbEntity
  8
LAY-1
  6
CONTINUOUS
 62
     7
100
AcDbLine
 10
1125.505097
 20
96.681315
 30
0.0
 11
881.732424
 21
96.681315
 31
0.0
  0
LINE
  5
394
100
AcDbEntity
  8
LAY-1
  6
CONTINUOUS
 62
     7
100
AcDbLine
 10
879.505097
 20
232.681315
 30
0.0
 11
879.505097
 21
131.208842
 31
0.0
  0
LINE
  5
395
100
AcDbEntity
  8
LAY-1
  6
CONTINUOUS
 62
     7
100
AcDbLine
 10
1107.805097
 20
94.681315
 30
0.0
 11
1137.505097
 21
94.681315
 31
0.0
  0
LINE
  5
396
100
AcDbEntity
  8
LAY-1
  6
CONTINUOUS
 62
     7
100
AcDbLine
 10
1107.505097
 20
92.681315
 30
0.0
 11
1135.505097
 21
92.681315
 31
0.0
  0
LINE
  5
397
100
AcDbEntity
  8
LAY-1
  6
CONTINUOUS
 62
     7
100
AcDbLine
 10
1107.505097
 20
94.681315
 30
0.0
 11
1107.505097
 21
92.681315
 31
0.0
  0
LINE
  5
398
100
AcDbEntity
  8
LAY-1
  6
CONTINUOUS
 62
     7
100
AcDbLine
 10
1137.505097
 20
46.681315
 30
0.0
 11
1137.505097
 21
94.681315
 31
0.0
  0
LINE
  5
399
100
AcDbEntity
  8
LAY-1
  6
CONTINUOUS
 62
     7
100
AcDbLine
 10
1137.505097
 20
46.681315
 30
0.0
 11
1160.505097
 21
46.681315
 31
0.0
  0
LINE
  5
39A
100
AcDbEntity
  8
LAY-1
  6
CONTINUOUS
 62
     7
100
AcDbLine
 10
1160.505097
 20
44.681315
 30
0.0
 11
1135.505097
 21
44.681315
 31
0.0
  0
LINE
  5
39B
100
AcDbEntity
  8
LAY-1
  6
CONTINUOUS
 62
     7
100
AcDbLine
 10
1160.505097
 20
46.681315
 30
0.0
 11
1160.505097
 21
44.681315
 31
0.0
  0
LINE
  5
39C
100
AcDbEntity
  8
LAY-1
  6
CONTINUOUS
 62
     7
100
AcDbLine
 10
1135.505097
 20
92.681315
 30
0.0
 11
1135.505097
 21
44.681315
 31
0.0
  0
LINE
  5
39D
100
AcDbEntity
  8
LAY-1
  6
CONTINUOUS
 62
     7
100
AcDbLine
 10
1127.505097
 20
84.681315
 30
0.0
 11
1127.505097
 21
92.681315
 31
0.0
  0
LINE
  5
39E
100
AcDbEntity
  8
LAY-1
  6
CONTINUOUS
 62
     7
100
AcDbLine
 10
1127.505097
 20
84.681315
 30
0.0
 11
877.505097
 21
84.681315
 31
0.0
  0
LINE
  5
39F
100
AcDbEntity
  8
LAY-1
  6
CONTINUOUS
 62
     7
100
AcDbLine
 10
897.505097
 20
94.681315
 30
0.0
 11
897.505097
 21
92.681315
 31
0.0
  0
LINE
  5
3A0
100
AcDbEntity
  8
LAY-1
  6
CONTINUOUS
 62
     7
100
AcDbLine
 10
867.505097
 20
46.681315
 30
0.0
 11
867.505097
 21
94.681315
 31
0.0
  0
LINE
  5
3A1
100
AcDbEntity
  8
LAY-1
  6
CONTINUOUS
 62
     7
100
AcDbLine
 10
869.505097
 20
92.681315
 30
0.0
 11
869.505097
 21
44.681315
 31
0.0
  0
LINE
  5
3A2
100
AcDbEntity
  8
LAY-1
  6
CONTINUOUS
 62
     7
100
AcDbLine
 10
867.505097
 20
46.681315
 30
0.0
 11
844.505097
 21
46.681315
 31
0.0
  0
LINE
  5
3A3
100
AcDbEntity
  8
LAY-1
  6
CONTINUOUS
 62
     7
100
AcDbLine
 10
844.505097
 20
44.681315
 30
0.0
 11
869.505097
 21
44.681315
 31
0.0
  0
LINE
  5
3A4
100
AcDbEntity
  8
LAY-1
  6
CONTINUOUS
 62
     7
100
AcDbLine
 10
844.505097
 20
46.681315
 30
0.0
 11
844.505097
 21
44.681315
 31
0.0
  0
LINE
  5
3A5
100
AcDbEntity
  8
LAY-1
  6
CONTINUOUS
 62
     7
100
AcDbLine
 10
877.505097
 20
84.681315
 30
0.0
 11
877.505097
 21
92.681315
 31
0.0
  0
LINE
  5
3A6
100
AcDbEntity
  8
LAY-1
  6
CONTINUOUS
 62
     7
100
AcDbLine
 10
1127.505097
 20
244.681315
 30
0.0
 11
877.505097
 21
244.681315
 31
0.0
  0
LINE
  5
3A7
100
AcDbEntity
  8
LAY-1
  6
CONTINUOUS
 62
     7
100
AcDbLine
 10
897.205097
 20
94.681315
 30
0.0
 11
881.732424
 21
94.681315
 31
0.0
  0
LINE
  5
3A8
100
AcDbEntity
  8
LAY-1
  6
CONTINUOUS
 62
     7
100
AcDbLine
 10
878.687424
 20
94.681315
 30
0.0
 11
867.505097
 21
94.681315
 31
0.0
  0
LINE
  5
3A9
100
AcDbEntity
  8
LAY-1
  6
CONTINUOUS
 62
     7
100
AcDbLine
 10
897.505097
 20
92.681315
 30
0.0
 11
881.732424
 21
92.681315
 31
0.0
  0
LINE
  5
3AA
100
AcDbEntity
  8
LAY-1
  6
CONTINUOUS
 62
     7
100
AcDbLine
 10
878.687424
 20
92.681315
 30
0.0
 11
869.505097
 21
92.681315
 31
0.0
  0
LINE
  5
3AB
100
AcDbEntity
  8
LAY-1
  6
CONTINUOUS
 62
     7
100
AcDbLine
 10
1107.505097
 20
94.681315
 30
0.0
 11
897.505097
 21
94.681315
 31
0.0
  0
LINE
  5
3AC
100
AcDbEntity
  8
LAY-1
  6
CONTINUOUS
 62
     7
100
AcDbLine
 10
1127.505097
 20
244.681315
 30
0.0
 11
1127.505097
 21
94.681315
 31
0.0
  0
LINE
  5
3AD
100
AcDbEntity
  8
LAY-1
  6
CONTINUOUS
 62
     7
100
AcDbLine
 10
1127.505097
 20
234.681315
 30
0.0
 11
877.505097
 21
234.681315
 31
0.0
  0
LINE
  5
3AE
100
AcDbEntity
  8
LAY-1
  6
CONTINUOUS
 62
     7
100
AcDbLine
 10
877.505097
 20
244.681315
 30
0.0
 11
877.505097
 21
94.681315
 31
0.0
  0
CIRCLE
  5
3AF
100
AcDbEntity
  8
LAY-1
  6
CONTINUOUS
 62
     7
100
AcDbCircle
 10
1062.505097
 20
135.681315
 30
0.0
 40
12.5
  0
CIRCLE
  5
3B0
100
AcDbEntity
  8
LAY-1
  6
CONTINUOUS
 62
     7
100
AcDbCircle
 10
1062.505097
 20
135.681315
 30
0.0
 40
9.277431
  0
ARC
  5
3B1
100
AcDbEntity
  8
LAY-1
  6
CONTINUOUS
 62
     7
100
AcDbCircle
 10
1081.714766
 20
138.381315
 30
0.0
 40
2.5
100
AcDbArc
 50
90.0
 51
180.0
  0
ARC
  5
3B2
100
AcDbEntity
  8
LAY-1
  6
CONTINUOUS
 62
     7
100
AcDbCircle
 10
1081.714766
 20
138.381315
 30
0.0
 40
1.5
100
AcDbArc
 50
90.0
 51
180.0
  0
LINE
  5
3B3
100
AcDbEntity
  8
LAY-1
  6
CONTINUOUS
 62
     7
100
AcDbLine
 10
1079.214766
 20
138.381315
 30
0.0
 11
1079.214766
 21
133.381315
 31
0.0
  0
ARC
  5
3B4
100
AcDbEntity
  8
LAY-1
  6
CONTINUOUS
 62
     7
100
AcDbCircle
 10
1081.714766
 20
133.381315
 30
0.0
 40
2.5
100
AcDbArc
 50
180.0
 51
270.0
  0
LINE
  5
3B5
100
AcDbEntity
  8
LAY-1
  6
CONTINUOUS
 62
     7
100
AcDbLine
 10
1080.214766
 20
138.381315
 30
0.0
 11
1080.214766
 21
133.381315
 31
0.0
  0
ARC
  5
3B6
100
AcDbEntity
  8
LAY-1
  6
CONTINUOUS
 62
     7
100
AcDbCircle
 10
1081.714766
 20
133.381315
 30
0.0
 40
1.5
100
AcDbArc
 50
180.0
 51
270.0
  0
ARC
  5
3B7
100
AcDbEntity
  8
LAY-1
  6
CONTINUOUS
 62
     7
100
AcDbCircle
 10
1101.714766
 20
138.381315
 30
0.0
 40
2.5
100
AcDbArc
 50
0.0
 51
90.0
  0
LINE
  5
3B8
100
AcDbEntity
  8
LAY-1
  6
CONTINUOUS
 62
     7
100
AcDbLine
 10
1081.714766
 20
140.881315
 30
0.0
 11
1101.714766
 21
140.881315
 31
0.0
  0
ARC
  5
3B9
100
AcDbEntity
  8
LAY-1
  6
CONTINUOUS
 62
     7
100
AcDbCircle
 10
1101.714766
 20
138.381315
 30
0.0
 40
1.5
100
AcDbArc
 50
0.0
 51
90.0
  0
LINE
  5
3BA
100
AcDbEntity
  8
LAY-1
  6
CONTINUOUS
 62
     7
100
AcDbLine
 10
1081.714766
 20
139.881315
 30
0.0
 11
1101.714766
 21
139.881315
 31
0.0
  0
LINE
  5
3BB
100
AcDbEntity
  8
LAY-1
  6
CONTINUOUS
 62
     7
100
AcDbLine
 10
1104.214766
 20
138.381315
 30
0.0
 11
1104.214766
 21
133.381315
 31
0.0
  0
LINE
  5
3BC
100
AcDbEntity
  8
LAY-1
  6
CONTINUOUS
 62
     7
100
AcDbLine
 10
1081.714766
 20
130.881315
 30
0.0
 11
1101.714766
 21
130.881315
 31
0.0
  0
ARC
  5
3BD
100
AcDbEntity
  8
LAY-1
  6
CONTINUOUS
 62
     7
100
AcDbCircle
 10
1101.714766
 20
133.381315
 30
0.0
 40
2.5
100
AcDbArc
 50
270.0
 51
0.0
  0
LINE
  5
3BE
100
AcDbEntity
  8
LAY-1
  6
CONTINUOUS
 62
     7
100
AcDbLine
 10
1103.214766
 20
138.381315
 30
0.0
 11
1103.214766
 21
133.381315
 31
0.0
  0
LINE
  5
3BF
100
AcDbEntity
  8
LAY-1
  6
CONTINUOUS
 62
     7
100
AcDbLine
 10
1081.714766
 20
131.881315
 30
0.0
 11
1101.714766
 21
131.881315
 31
0.0
  0
ARC
  5
3C0
100
AcDbEntity
  8
LAY-1
  6
CONTINUOUS
 62
     7
100
AcDbCircle
 10
1101.714766
 20
133.381315
 30
0.0
 40
1.5
100
AcDbArc
 50
270.0
 51
0.0
  0
CIRCLE
  5
3C1
100
AcDbEntity
  8
LAY-1
  6
CONTINUOUS
 62
     7
100
AcDbCircle
 10
1062.505097
 20
193.681315
 30
0.0
 40
12.5
  0
CIRCLE
  5
3C2
100
AcDbEntity
  8
LAY-1
  6
CONTINUOUS
 62
     7
100
AcDbCircle
 10
1062.505097
 20
193.681315
 30
0.0
 40
9.277431
  0
ARC
  5
3C3
100
AcDbEntity
  8
LAY-1
  6
CONTINUOUS
 62
     7
100
AcDbCircle
 10
1081.318472
 20
196.328903
 30
0.0
 40
2.5
100
AcDbArc
 50
90.0
 51
180.0
  0
ARC
  5
3C4
100
AcDbEntity
  8
LAY-1
  6
CONTINUOUS
 62
     7
100
AcDbCircle
 10
1081.318472
 20
196.328903
 30
0.0
 40
1.5
100
AcDbArc
 50
90.0
 51
180.0
  0
LINE
  5
3C5
100
AcDbEntity
  8
LAY-1
  6
CONTINUOUS
 62
     7
100
AcDbLine
 10
1078.818472
 20
196.328903
 30
0.0
 11
1078.818472
 21
191.328903
 31
0.0
  0
ARC
  5
3C6
100
AcDbEntity
  8
LAY-1
  6
CONTINUOUS
 62
     7
100
AcDbCircle
 10
1081.318472
 20
191.328903
 30
0.0
 40
2.5
100
AcDbArc
 50
180.0
 51
270.0
  0
LINE
  5
3C7
100
AcDbEntity
  8
LAY-1
  6
CONTINUOUS
 62
     7
100
AcDbLine
 10
1079.818472
 20
196.328903
 30
0.0
 11
1079.818472
 21
191.328903
 31
0.0
  0
ARC
  5
3C8
100
AcDbEntity
  8
LAY-1
  6
CONTINUOUS
 62
     7
100
AcDbCircle
 10
1081.318472
 20
191.328903
 30
0.0
 40
1.5
100
AcDbArc
 50
180.0
 51
270.0
  0
ARC
  5
3C9
100
AcDbEntity
  8
LAY-1
  6
CONTINUOUS
 62
     7
100
AcDbCircle
 10
1101.318472
 20
196.328903
 30
0.0
 40
2.5
100
AcDbArc
 50
0.0
 51
90.0
  0
LINE
  5
3CA
100
AcDbEntity
  8
LAY-1
  6
CONTINUOUS
 62
     7
100
AcDbLine
 10
1081.318472
 20
198.828903
 30
0.0
 11
1101.318472
 21
198.828903
 31
0.0
  0
ARC
  5
3CB
100
AcDbEntity
  8
LAY-1
  6
CONTINUOUS
 62
     7
100
AcDbCircle
 10
1101.318472
 20
196.328903
 30
0.0
 40
1.5
100
AcDbArc
 50
0.0
 51
90.0
  0
LINE
  5
3CC
100
AcDbEntity
  8
LAY-1
  6
CONTINUOUS
 62
     7
100
AcDbLine
 10
1081.318472
 20
197.828903
 30
0.0
 11
1101.318472
 21
197.828903
 31
0.0
  0
LINE
  5
3CD
100
AcDbEntity
  8
LAY-1
  6
CONTINUOUS
 62
     7
100
AcDbLine
 10
1103.818472
 20
196.328903
 30
0.0
 11
1103.818472
 21
191.328903
 31
0.0
  0
LINE
  5
3CE
100
AcDbEntity
  8
LAY-1
  6
CONTINUOUS
 62
     7
100
AcDbLine
 10
1081.318472
 20
188.828903
 30
0.0
 11
1101.318472
 21
188.828903
 31
0.0
  0
ARC
  5
3CF
100
AcDbEntity
  8
LAY-1
  6
CONTINUOUS
 62
     7
100
AcDbCircle
 10
1101.318472
 20
191.328903
 30
0.0
 40
2.5
100
AcDbArc
 50
270.0
 51
0.0
  0
LINE
  5
3D0
100
AcDbEntity
  8
LAY-1
  6
CONTINUOUS
 62
     7
100
AcDbLine
 10
1102.818472
 20
196.328903
 30
0.0
 11
1102.818472
 21
191.328903
 31
0.0
  0
LINE
  5
3D1
100
AcDbEntity
  8
LAY-1
  6
CONTINUOUS
 62
     7
100
AcDbLine
 10
1081.318472
 20
189.828903
 30
0.0
 11
1101.318472
 21
189.828903
 31
0.0
  0
ARC
  5
3D2
100
AcDbEntity
  8
LAY-1
  6
CONTINUOUS
 62
     7
100
AcDbCircle
 10
1101.318472
 20
191.328903
 30
0.0
 40
1.5
100
AcDbArc
 50
270.0
 51
0.0
  0
CIRCLE
  5
3D3
100
AcDbEntity
  8
LAY-1
  6
CONTINUOUS
 62
     7
100
AcDbCircle
 10
954.005097
 20
1358.681315
 30
0.0
 40
1.621
  0
CIRCLE
  5
3D4
100
AcDbEntity
  8
LAY-1
  6
CONTINUOUS
 62
     7
100
AcDbCircle
 10
904.005097
 20
1358.681315
 30
0.0
 40
1.621
  0
ARC
  5
3D5
100
AcDbEntity
  8
LAY-1
  6
CONTINUOUS
 62
     7
100
AcDbCircle
 10
1118.505097
 20
1242.681315
 30
0.0
 40
22.0
100
AcDbArc
 50
270.0
 51
0.0
  0
LINE
  5
3D6
100
AcDbEntity
  8
LAY-1
  6
CONTINUOUS
 62
     7
100
AcDbLine
 10
1140.505097
 20
1428.681315
 30
0.0
 11
1140.505097
 21
1242.681315
 31
0.0
  0
ARC
  5
3D7
100
AcDbEntity
  8
LAY-1
  6
CONTINUOUS
 62
     7
100
AcDbCircle
 10
886.505097
 20
1242.681315
 30
0.0
 40
22.0
100
AcDbArc
 50
180.0
 51
270.0
  0
LINE
  5
3D8
100
AcDbEntity
  8
LAY-1
  6
CONTINUOUS
 62
     7
100
AcDbLine
 10
864.505097
 20
1428.681315
 30
0.0
 11
864.505097
 21
1242.681315
 31
0.0
  0
LINE
  5
3D9
100
AcDbEntity
  8
LAY-1
  6
CONTINUOUS
 62
     7
100
AcDbLine
 10
886.505097
 20
1220.681315
 30
0.0
 11
1118.505097
 21
1220.681315
 31
0.0
  0
LINE
  5
3DA
100
AcDbEntity
  8
LAY-1
  6
CONTINUOUS
 62
     7
100
AcDbLine
 10
408.714766
 20
583.969315
 30
0.0
 11
409.036266
 21
573.681315
 31
0.0
  0
LINE
  5
3DB
100
AcDbEntity
  8
LAY-1
  6
CONTINUOUS
 62
     7
100
AcDbLine
 10
415.614766
 20
579.691315
 30
0.0
 11
408.848454
 21
579.691315
 31
0.0
  0
LINE
  5
3DC
100
AcDbEntity
  8
LAY-1
  6
CONTINUOUS
 62
     7
100
AcDbLine
 10
415.614766
 20
579.691315
 30
0.0
 11
422.381079
 21
579.691315
 31
0.0
  0
LINE
  5
3DD
100
AcDbEntity
  8
LAY-1
  6
CONTINUOUS
 62
     7
100
AcDbLine
 10
422.514766
 20
583.969315
 30
0.0
 11
422.193266
 21
573.681315
 31
0.0
  0
LINE
  5
3DE
100
AcDbEntity
  8
LAY-1
  6
CONTINUOUS
 62
     7
100
AcDbLine
 10
422.514766
 20
585.681315
 30
0.0
 11
422.514766
 21
583.969315
 31
0.0
  0
LINE
  5
3DF
100
AcDbEntity
  8
LAY-1
  6
CONTINUOUS
 62
     7
100
AcDbLine
 10
408.714766
 20
585.681315
 30
0.0
 11
408.714766
 21
583.969315
 31
0.0
  0
LINE
  5
3E0
100
AcDbEntity
  8
LAY-1
  6
CONTINUOUS
 62
     7
100
AcDbLine
 10
409.105453
 20
545.25157
 30
0.0
 11
408.605458
 21
545.25157
 31
0.0
  0
LINE
  5
3E1
100
AcDbEntity
  8
LAY-1
  6
CONTINUOUS
 62
     7
100
AcDbLine
 10
409.105453
 20
542.872245
 30
0.0
 11
409.105453
 21
545.25157
 31
0.0
  0
LINE
  5
3E2
100
AcDbEntity
  8
LAY-1
  6
CONTINUOUS
 62
     7
100
AcDbLine
 10
413.105413
 20
545.172222
 30
0.0
 11
413.105413
 21
542.872245
 31
0.0
  0
LINE
  5
3E3
100
AcDbEntity
  8
LAY-1
  6
CONTINUOUS
 62
     7
100
AcDbLine
 10
413.305388
 20
556.18149
 30
0.0
 11
410.99601
 21
552.18153
 31
0.0
  0
LINE
  5
3E4
100
AcDbEntity
  8
LAY-1
  6
CONTINUOUS
 62
     7
100
AcDbLine
 10
417.924144
 20
556.18149
 30
0.0
 11
413.305388
 21
556.18149
 31
0.0
  0
LINE
  5
3E5
100
AcDbEntity
  8
LAY-1
  6
CONTINUOUS
 62
     7
100
AcDbLine
 10
410.99601
 20
552.18153
 30
0.0
 11
413.305388
 21
548.18157
 31
0.0
  0
LINE
  5
3E6
100
AcDbEntity
  8
LAY-1
  6
CONTINUOUS
 62
     7
100
AcDbLine
 10
413.614786
 20
553.681515
 30
0.0
 11
413.614786
 21
550.681545
 31
0.0
  0
LINE
  5
3E7
100
AcDbEntity
  8
LAY-1
  6
CONTINUOUS
 62
     7
100
AcDbLine
 10
417.614746
 20
550.681545
 30
0.0
 11
417.614746
 21
553.681515
 31
0.0
  0
CIRCLE
  5
3E8
100
AcDbEntity
  8
LAY-1
  6
CONTINUOUS
 62
     7
100
AcDbCircle
 10
415.614766
 20
552.18153
 30
0.0
 40
2.499975
  0
CIRCLE
  5
3E9
100
AcDbEntity
  8
LAY-1
  6
CONTINUOUS
 62
     7
100
AcDbCircle
 10
415.614766
 20
552.18153
 30
0.0
 40
3.99996
  0
LINE
  5
3EA
100
AcDbEntity
  8
LAY-1
  6
CONTINUOUS
 62
     7
100
AcDbLine
 10
420.233522
 20
552.18153
 30
0.0
 11
417.924144
 21
556.18149
 31
0.0
  0
LINE
  5
3EB
100
AcDbEntity
  8
LAY-1
  6
CONTINUOUS
 62
     7
100
AcDbLine
 10
417.924144
 20
548.18157
 30
0.0
 11
420.233522
 21
552.18153
 31
0.0
  0
LINE
  5
3EC
100
AcDbEntity
  8
LAY-1
  6
CONTINUOUS
 62
     7
100
AcDbLine
 10
413.305388
 20
548.18157
 30
0.0
 11
417.924144
 21
548.18157
 31
0.0
  0
ARC
  5
3ED
100
AcDbEntity
  8
LAY-1
  6
CONTINUOUS
 62
     7
100
AcDbCircle
 10
415.614766
 20
552.18153
 30
0.0
 40
2.099979
100
AcDbArc
 50
197.75279
 51
342.24721
  0
ARC
  5
3EE
100
AcDbEntity
  8
LAY-1
  6
CONTINUOUS
 62
     7
100
AcDbCircle
 10
415.614766
 20
552.18153
 30
0.0
 40
2.099979
100
AcDbArc
 50
17.75279
 51
162.24721
  0
LINE
  5
3EF
100
AcDbEntity
  8
LAY-1
  6
CONTINUOUS
 62
     7
100
AcDbLine
 10
409.105453
 20
542.872245
 30
0.0
 11
413.105413
 21
542.872245
 31
0.0
  0
LINE
  5
3F0
100
AcDbEntity
  8
LAY-1
  6
CONTINUOUS
 62
     7
100
AcDbLine
 10
408.605458
 20
559.172082
 30
0.0
 11
424.605298
 21
559.172082
 31
0.0
  0
LINE
  5
3F1
100
AcDbEntity
  8
LAY-1
  6
CONTINUOUS
 62
     7
100
AcDbLine
 10
424.614676
 20
559.18146
 30
0.0
 11
424.614676
 21
554.681505
 31
0.0
  0
ARC
  5
3F2
100
AcDbEntity
  8
LAY-1
  6
CONTINUOUS
 62
     7
100
AcDbCircle
 10
415.605388
 20
552.172152
 30
0.0
 40
6.99993
100
AcDbArc
 50
270.0
 51
0.0
  0
LINE
  5
3F3
100
AcDbEntity
  8
LAY-1
  6
CONTINUOUS
 62
     7
100
AcDbLine
 10
408.605458
 20
545.172222
 30
0.0
 11
405.605488
 21
546.672207
 31
0.0
  0
LINE
  5
3F4
100
AcDbEntity
  8
LAY-1
  6
CONTINUOUS
 62
     7
100
AcDbLine
 10
405.605488
 20
557.672097
 30
0.0
 11
408.605458
 21
559.172082
 31
0.0
  0
LINE
  5
3F5
100
AcDbEntity
  8
LAY-1
  6
CONTINUOUS
 62
     7
100
AcDbLine
 10
408.614766
 20
518.181315
 30
0.0
 11
421.676944
 21
518.181315
 31
0.0
  0
LINE
  5
3F6
100
AcDbEntity
  8
LAY-1
  6
CONTINUOUS
 62
     7
100
AcDbLine
 10
407.765388
 20
521.681315
 30
0.0
 11
424.926692
 21
521.681315
 31
0.0
  0
LINE
  5
3F7
100
AcDbEntity
  8
LAY-1
  6
CONTINUOUS
 62
     7
100
AcDbLine
 10
426.614656
 20
537.18168
 30
0.0
 11
407.765388
 21
537.18168
 31
0.0
  0
LINE
  5
3F8
100
AcDbEntity
  8
LAY-1
  6
CONTINUOUS
 62
     7
100
AcDbLine
 10
406.114861
 20
549.681555
 30
0.0
 11
408.614836
 21
549.681555
 31
0.0
  0
LINE
  5
3F9
100
AcDbEntity
  8
LAY-1
  6
CONTINUOUS
 62
     7
100
AcDbLine
 10
426.114661
 20
545.681595
 30
0.0
 11
408.155388
 21
545.681595
 31
0.0
  0
LINE
  5
3FA
100
AcDbEntity
  8
LAY-1
  6
CONTINUOUS
 62
     7
100
AcDbLine
 10
408.055388
 20
544.681605
 30
0.0
 11
427.114651
 21
544.681605
 31
0.0
  0
LINE
  5
3FB
100
AcDbEntity
  8
LAY-1
  6
CONTINUOUS
 62
     7
100
AcDbLine
 10
409.614766
 20
512.181315
 30
0.0
 11
422.614766
 21
512.181315
 31
0.0
  0
LINE
  5
3FC
100
AcDbEntity
  8
LAY-1
  6
CONTINUOUS
 62
     7
100
AcDbLine
 10
409.051955
 20
521.680549
 30
0.0
 11
408.941988
 21
518.181315
 31
0.0
  0
ARC
  5
3FD
100
AcDbEntity
  8
LAY-1
  6
CONTINUOUS
 62
     7
100
AcDbCircle
 10
421.676944
 20
514.603163
 30
0.0
 40
3.578152
100
AcDbArc
 50
55.615753
 51
90.995683
  0
LINE
  5
3FE
100
AcDbEntity
  8
LAY-1
  6
CONTINUOUS
 62
     7
100
AcDbLine
 10
407.531863
 20
517.5561
 30
0.0
 11
408.614766
 21
518.181315
 31
0.0
  0
LINE
  5
3FF
100
AcDbEntity
  8
LAY-1
  6
CONTINUOUS
 62
     7
100
AcDbLine
 10
422.614766
 20
518.181315
 30
0.0
 11
423.69767
 21
517.5561
 31
0.0
  0
LINE
  5
400
100
AcDbEntity
  8
LAY-1
  6
CONTINUOUS
 62
     7
100
AcDbLine
 10
422.614766
 20
512.181315
 30
0.0
 11
423.69767
 21
512.80653
 31
0.0
  0
LINE
  5
401
100
AcDbEntity
  8
LAY-1
  6
CONTINUOUS
 62
     7
100
AcDbLine
 10
408.614766
 20
512.181315
 30
0.0
 11
409.614766
 21
512.181315
 31
0.0
  0
LINE
  5
402
100
AcDbEntity
  8
LAY-1
  6
CONTINUOUS
 62
     7
100
AcDbLine
 10
407.531863
 20
512.80653
 30
0.0
 11
408.614766
 21
512.181315
 31
0.0
  0
LINE
  5
403
100
AcDbEntity
  8
LAY-1
  6
CONTINUOUS
 62
     7
100
AcDbLine
 10
407.531863
 20
517.5561
 30
0.0
 11
407.531863
 21
512.80653
 31
0.0
  0
LINE
  5
404
100
AcDbEntity
  8
LAY-1
  6
CONTINUOUS
 62
     7
100
AcDbLine
 10
421.676944
 20
518.181315
 30
0.0
 11
422.614766
 21
518.181315
 31
0.0
  0
LINE
  5
405
100
AcDbEntity
  8
LAY-1
  6
CONTINUOUS
 62
     7
100
AcDbLine
 10
406.114861
 20
554.681505
 30
0.0
 11
406.114861
 21
549.681555
 31
0.0
  0
LINE
  5
406
100
AcDbEntity
  8
LAY-1
  6
CONTINUOUS
 62
     7
100
AcDbLine
 10
424.914673
 20
549.681555
 30
0.0
 11
424.914673
 21
545.1816
 31
0.0
  0
LINE
  5
407
100
AcDbEntity
  8
LAY-1
  6
CONTINUOUS
 62
     7
100
AcDbLine
 10
405.114871
 20
552.18153
 30
0.0
 11
405.114871
 21
573.18132
 31
0.0
  0
LINE
  5
408
100
AcDbEntity
  8
LAY-1
  6
CONTINUOUS
 62
     7
100
AcDbLine
 10
408.614836
 20
544.681605
 30
0.0
 11
406.314859
 21
544.681605
 31
0.0
  0
LINE
  5
409
100
AcDbEntity
  8
LAY-1
  6
CONTINUOUS
 62
     7
100
AcDbLine
 10
405.114871
 20
545.681595
 30
0.0
 11
408.614836
 21
545.681595
 31
0.0
  0
LINE
  5
40A
100
AcDbEntity
  8
LAY-1
  6
CONTINUOUS
 62
     7
100
AcDbLine
 10
427.114651
 20
544.681605
 30
0.0
 11
427.114651
 21
537.681675
 31
0.0
  0
LINE
  5
40B
100
AcDbEntity
  8
LAY-1
  6
CONTINUOUS
 62
     7
100
AcDbLine
 10
406.30284
 20
522.367189
 30
0.0
 11
405.114871
 21
523.053063
 31
0.0
  0
LINE
  5
40C
100
AcDbEntity
  8
LAY-1
  6
CONTINUOUS
 62
     7
100
AcDbLine
 10
406.30284
 20
521.681315
 30
0.0
 11
405.114871
 21
522.367189
 31
0.0
  0
LINE
  5
40D
100
AcDbEntity
  8
LAY-1
  6
CONTINUOUS
 62
     7
100
AcDbLine
 10
426.114661
 20
545.681595
 30
0.0
 11
427.114651
 21
544.681605
 31
0.0
  0
LINE
  5
40E
100
AcDbEntity
  8
LAY-1
  6
CONTINUOUS
 62
     7
100
AcDbLine
 10
426.114661
 20
573.18132
 30
0.0
 11
426.114661
 21
545.681595
 31
0.0
  0
LINE
  5
40F
100
AcDbEntity
  8
LAY-1
  6
CONTINUOUS
 62
     7
100
AcDbLine
 10
405.614866
 20
573.681315
 30
0.0
 11
425.614666
 21
573.681315
 31
0.0
  0
LINE
  5
410
100
AcDbEntity
  8
LAY-1
  6
CONTINUOUS
 62
     7
100
AcDbLine
 10
406.114861
 20
554.681505
 30
0.0
 11
408.614836
 21
554.681505
 31
0.0
  0
LINE
  5
411
100
AcDbEntity
  8
LAY-1
  6
CONTINUOUS
 62
     7
100
AcDbLine
 10
405.114871
 20
545.681595
 30
0.0
 11
405.114871
 21
552.18153
 31
0.0
  0
LINE
  5
412
100
AcDbEntity
  8
LAY-1
  6
CONTINUOUS
 62
     7
100
AcDbLine
 10
404.114881
 20
544.681605
 30
0.0
 11
405.114871
 21
545.681595
 31
0.0
  0
LINE
  5
413
100
AcDbEntity
  8
LAY-1
  6
CONTINUOUS
 62
     7
100
AcDbLine
 10
404.114881
 20
537.681675
 30
0.0
 11
404.114881
 21
544.681605
 31
0.0
  0
LINE
  5
414
100
AcDbEntity
  8
LAY-1
  6
CONTINUOUS
 62
     7
100
AcDbLine
 10
405.114871
 20
573.18132
 30
0.0
 11
405.614866
 21
573.681315
 31
0.0
  0
LINE
  5
415
100
AcDbEntity
  8
LAY-1
  6
CONTINUOUS
 62
     7
100
AcDbLine
 10
404.114881
 20
544.681605
 30
0.0
 11
406.314859
 21
544.681605
 31
0.0
  0
LINE
  5
416
100
AcDbEntity
  8
LAY-1
  6
CONTINUOUS
 62
     7
100
AcDbLine
 10
424.914673
 20
554.681505
 30
0.0
 11
424.914673
 21
557.981472
 31
0.0
  0
LINE
  5
417
100
AcDbEntity
  8
LAY-1
  6
CONTINUOUS
 62
     7
100
AcDbLine
 10
419.484123
 20
558.014805
 30
0.0
 11
424.948006
 21
558.014805
 31
0.0
  0
LINE
  5
418
100
AcDbEntity
  8
LAY-1
  6
CONTINUOUS
 62
     7
100
AcDbLine
 10
406.281526
 20
558.014805
 30
0.0
 11
408.614836
 21
558.014805
 31
0.0
  0
LINE
  5
419
100
AcDbEntity
  8
LAY-1
  6
CONTINUOUS
 62
     7
100
AcDbLine
 10
424.926692
 20
573.18132
 30
0.0
 11
426.114661
 21
573.18132
 31
0.0
  0
LINE
  5
41A
100
AcDbEntity
  8
LAY-1
  6
CONTINUOUS
 62
     7
100
AcDbLine
 10
414.426797
 20
573.18132
 30
0.0
 11
416.802735
 21
573.18132
 31
0.0
  0
LINE
  5
41B
100
AcDbEntity
  8
LAY-1
  6
CONTINUOUS
 62
     7
100
AcDbLine
 10
405.114871
 20
573.18132
 30
0.0
 11
406.30284
 21
573.18132
 31
0.0
  0
ARC
  5
41C
100
AcDbEntity
  8
LAY-1
  6
CONTINUOUS
 62
     7
100
AcDbCircle
 10
420.864714
 20
556.931482
 30
0.0
 40
16.749833
100
AcDbArc
 50
75.965352
 51
104.034648
  0
LINE
  5
41D
100
AcDbEntity
  8
LAY-1
  6
CONTINUOUS
 62
     7
100
AcDbLine
 10
406.114861
 20
537.18168
 30
0.0
 11
406.114861
 21
535.681695
 31
0.0
  0
ARC
  5
41E
100
AcDbEntity
  8
LAY-1
  6
CONTINUOUS
 62
     7
100
AcDbCircle
 10
410.364819
 20
556.931482
 30
0.0
 40
16.749833
100
AcDbArc
 50
75.965352
 51
104.034648
  0
LINE
  5
41F
100
AcDbEntity
  8
LAY-1
  6
CONTINUOUS
 62
     7
100
AcDbLine
 10
425.114671
 20
535.681695
 30
0.0
 11
425.114671
 21
537.18168
 31
0.0
  0
LINE
  5
420
100
AcDbEntity
  8
LAY-1
  6
CONTINUOUS
 62
     7
100
AcDbLine
 10
424.926692
 20
522.367189
 30
0.0
 11
424.926692
 21
534.99582
 31
0.0
  0
LINE
  5
421
100
AcDbEntity
  8
LAY-1
  6
CONTINUOUS
 62
     7
100
AcDbLine
 10
406.30284
 20
534.99582
 30
0.0
 11
406.30284
 21
522.367189
 31
0.0
  0
ARC
  5
422
100
AcDbEntity
  8
LAY-1
  6
CONTINUOUS
 62
     7
100
AcDbCircle
 10
410.364819
 20
534.052456
 30
0.0
 40
12.371142
100
AcDbArc
 50
250.831763
 51
262.831528
  0
ARC
  5
423
100
AcDbEntity
  8
LAY-1
  6
CONTINUOUS
 62
     7
100
AcDbCircle
 10
420.864714
 20
534.052456
 30
0.0
 40
12.371142
100
AcDbArc
 50
277.168473
 51
289.168237
  0
LINE
  5
424
100
AcDbEntity
  8
LAY-1
  6
CONTINUOUS
 62
     7
100
AcDbLine
 10
410.114821
 20
537.18168
 30
0.0
 11
404.614876
 21
537.18168
 31
0.0
  0
LINE
  5
425
100
AcDbEntity
  8
LAY-1
  6
CONTINUOUS
 62
     7
100
AcDbLine
 10
410.114821
 20
535.681695
 30
0.0
 11
406.30284
 21
535.681695
 31
0.0
  0
ARC
  5
426
100
AcDbEntity
  8
LAY-1
  6
CONTINUOUS
 62
     7
100
AcDbCircle
 10
420.864714
 20
523.310553
 30
0.0
 40
12.371142
100
AcDbArc
 50
70.831763
 51
88.842081
  0
LINE
  5
427
100
AcDbEntity
  8
LAY-1
  6
CONTINUOUS
 62
     7
100
AcDbLine
 10
405.114871
 20
534.99582
 30
0.0
 11
406.30284
 21
534.99582
 31
0.0
  0
LINE
  5
428
100
AcDbEntity
  8
LAY-1
  6
CONTINUOUS
 62
     7
100
AcDbLine
 10
406.30284
 20
522.367189
 30
0.0
 11
405.114871
 21
522.367189
 31
0.0
  0
ARC
  5
429
100
AcDbEntity
  8
LAY-1
  6
CONTINUOUS
 62
     7
100
AcDbCircle
 10
410.364819
 20
523.310553
 30
0.0
 40
12.371142
100
AcDbArc
 50
91.157919
 51
109.168237
  0
LINE
  5
42A
100
AcDbEntity
  8
LAY-1
  6
CONTINUOUS
 62
     7
100
AcDbLine
 10
424.926692
 20
522.367189
 30
0.0
 11
426.114661
 21
522.367189
 31
0.0
  0
LINE
  5
42B
100
AcDbEntity
  8
LAY-1
  6
CONTINUOUS
 62
     7
100
AcDbLine
 10
426.114661
 20
534.99582
 30
0.0
 11
424.926692
 21
534.99582
 31
0.0
  0
LINE
  5
42C
100
AcDbEntity
  8
LAY-1
  6
CONTINUOUS
 62
     7
100
AcDbLine
 10
424.926692
 20
535.681695
 30
0.0
 11
426.114661
 21
534.99582
 31
0.0
  0
LINE
  5
42D
100
AcDbEntity
  8
LAY-1
  6
CONTINUOUS
 62
     7
100
AcDbLine
 10
405.114871
 20
534.99582
 30
0.0
 11
406.30284
 21
535.681695
 31
0.0
  0
LINE
  5
42E
100
AcDbEntity
  8
LAY-1
  6
CONTINUOUS
 62
     7
100
AcDbLine
 10
426.114661
 20
522.367189
 30
0.0
 11
426.114661
 21
534.99582
 31
0.0
  0
LINE
  5
42F
100
AcDbEntity
  8
LAY-1
  6
CONTINUOUS
 62
     7
100
AcDbLine
 10
424.926692
 20
521.681315
 30
0.0
 11
426.114661
 21
522.367189
 31
0.0
  0
LINE
  5
430
100
AcDbEntity
  8
LAY-1
  6
CONTINUOUS
 62
     7
100
AcDbLine
 10
406.30284
 20
521.681315
 30
0.0
 11
408.830108
 21
521.681315
 31
0.0
  0
LINE
  5
431
100
AcDbEntity
  8
LAY-1
  6
CONTINUOUS
 62
     7
100
AcDbLine
 10
405.114871
 20
534.99582
 30
0.0
 11
405.114871
 21
522.367189
 31
0.0
  0
LINE
  5
432
100
AcDbEntity
  8
LAY-1
  6
CONTINUOUS
 62
     7
100
AcDbLine
 10
406.281526
 20
558.014805
 30
0.0
 11
405.114871
 21
559.18146
 31
0.0
  0
LINE
  5
433
100
AcDbEntity
  8
LAY-1
  6
CONTINUOUS
 62
     7
100
AcDbLine
 10
426.114661
 20
559.18146
 30
0.0
 11
424.914673
 21
557.981472
 31
0.0
  0
LINE
  5
434
100
AcDbEntity
  8
LAY-1
  6
CONTINUOUS
 62
     7
100
AcDbLine
 10
425.114671
 20
549.681555
 30
0.0
 11
422.153049
 21
549.681555
 31
0.0
  0
LINE
  5
435
100
AcDbEntity
  8
LAY-1
  6
CONTINUOUS
 62
     7
100
AcDbLine
 10
425.114671
 20
554.681505
 30
0.0
 11
425.114671
 21
549.681555
 31
0.0
  0
LINE
  5
436
100
AcDbEntity
  8
LAY-1
  6
CONTINUOUS
 62
     7
100
AcDbLine
 10
405.114871
 20
559.18146
 30
0.0
 11
408.614836
 21
559.18146
 31
0.0
  0
LINE
  5
437
100
AcDbEntity
  8
LAY-1
  6
CONTINUOUS
 62
     7
100
AcDbLine
 10
406.314859
 20
554.681505
 30
0.0
 11
406.314859
 21
558.014805
 31
0.0
  0
LINE
  5
438
100
AcDbEntity
  8
LAY-1
  6
CONTINUOUS
 62
     7
100
AcDbLine
 10
424.926692
 20
561.18144
 30
0.0
 11
424.926692
 21
573.18132
 31
0.0
  0
LINE
  5
439
100
AcDbEntity
  8
LAY-1
  6
CONTINUOUS
 62
     7
100
AcDbLine
 10
416.802735
 20
561.18144
 30
0.0
 11
424.926692
 21
561.18144
 31
0.0
  0
LINE
  5
43A
100
AcDbEntity
  8
LAY-1
  6
CONTINUOUS
 62
     7
100
AcDbLine
 10
416.802735
 20
573.18132
 30
0.0
 11
416.802735
 21
561.18144
 31
0.0
  0
LINE
  5
43B
100
AcDbEntity
  8
LAY-1
  6
CONTINUOUS
 62
     7
100
AcDbLine
 10
414.426797
 20
561.18144
 30
0.0
 11
414.426797
 21
573.18132
 31
0.0
  0
LINE
  5
43C
100
AcDbEntity
  8
LAY-1
  6
CONTINUOUS
 62
     7
100
AcDbLine
 10
406.30284
 20
561.18144
 30
0.0
 11
414.426797
 21
561.18144
 31
0.0
  0
LINE
  5
43D
100
AcDbEntity
  8
LAY-1
  6
CONTINUOUS
 62
     7
100
AcDbLine
 10
415.614766
 20
559.18146
 30
0.0
 11
424.614676
 21
559.18146
 31
0.0
  0
LINE
  5
43E
100
AcDbEntity
  8
LAY-1
  6
CONTINUOUS
 62
     7
100
AcDbLine
 10
427.114651
 20
537.681675
 30
0.0
 11
426.614656
 21
537.18168
 31
0.0
  0
LINE
  5
43F
100
AcDbEntity
  8
LAY-1
  6
CONTINUOUS
 62
     7
100
AcDbLine
 10
404.614876
 20
537.18168
 30
0.0
 11
404.114881
 21
537.681675
 31
0.0
  0
LINE
  5
440
100
AcDbEntity
  8
LAY-1
  6
CONTINUOUS
 62
     7
100
AcDbLine
 10
424.614676
 20
559.18146
 30
0.0
 11
426.114661
 21
559.18146
 31
0.0
  0
LINE
  5
441
100
AcDbEntity
  8
LAY-1
  6
CONTINUOUS
 62
     7
100
AcDbLine
 10
406.30284
 20
573.18132
 30
0.0
 11
406.30284
 21
561.18144
 31
0.0
  0
LINE
  5
442
100
AcDbEntity
  8
LAY-1
  6
CONTINUOUS
 62
     7
100
AcDbLine
 10
425.614666
 20
573.681315
 30
0.0
 11
426.114661
 21
573.18132
 31
0.0
  0
LINE
  5
443
100
AcDbEntity
  8
LAY-1
  6
CONTINUOUS
 62
     7
100
AcDbLine
 10
425.114671
 20
554.681505
 30
0.0
 11
422.153049
 21
554.681505
 31
0.0
  0
LINE
  5
444
100
AcDbEntity
  8
LAY-1
  6
CONTINUOUS
 62
     7
100
AcDbLine
 10
406.314859
 20
545.681595
 30
0.0
 11
406.314859
 21
549.681555
 31
0.0
  0
LINE
  5
445
100
AcDbEntity
  8
LAY-1
  6
CONTINUOUS
 62
     7
100
AcDbLine
 10
422.177514
 20
521.682552
 30
0.0
 11
422.287545
 21
518.181315
 31
0.0
  0
LINE
  5
446
100
AcDbEntity
  8
LAY-1
  6
CONTINUOUS
 62
     7
100
AcDbLine
 10
425.114671
 20
535.681695
 30
0.0
 11
410.114821
 21
535.681695
 31
0.0
  0
LINE
  5
447
100
AcDbEntity
  8
LAY-1
  6
CONTINUOUS
 62
     7
100
AcDbLine
 10
397.605568
 20
557.672097
 30
0.0
 11
405.605488
 21
557.672097
 31
0.0
  0
LINE
  5
448
100
AcDbEntity
  8
LAY-1
  6
CONTINUOUS
 62
     7
100
AcDbLine
 10
405.605488
 20
546.672207
 30
0.0
 11
397.605568
 21
546.672207
 31
0.0
  0
LINE
  5
449
100
AcDbEntity
  8
LAY-1
  6
CONTINUOUS
 62
     7
100
AcDbLine
 10
393.605608
 20
559.172082
 30
0.0
 11
397.605568
 21
557.672097
 31
0.0
  0
LINE
  5
44A
100
AcDbEntity
  8
LAY-1
  6
CONTINUOUS
 62
     7
100
AcDbLine
 10
397.605568
 20
546.672207
 30
0.0
 11
393.605608
 21
545.172222
 31
0.0
  0
LINE
  5
44B
100
AcDbEntity
  8
LAY-1
  6
CONTINUOUS
 62
     7
100
AcDbLine
 10
393.605608
 20
545.172222
 30
0.0
 11
386.605678
 21
545.172222
 31
0.0
  0
LINE
  5
44C
100
AcDbEntity
  8
LAY-1
  6
CONTINUOUS
 62
     7
100
AcDbLine
 10
386.605678
 20
559.172082
 30
0.0
 11
393.605608
 21
559.172082
 31
0.0
  0
ARC
  5
44D
100
AcDbEntity
  8
LAY-1
  6
CONTINUOUS
 62
     7
100
AcDbCircle
 10
360.105943
 20
552.172152
 30
0.0
 40
4.499955
100
AcDbArc
 50
95.34716
 51
264.652841
  0
LINE
  5
44E
100
AcDbEntity
  8
LAY-1
  6
CONTINUOUS
 62
     7
100
AcDbLine
 10
386.605678
 20
545.172222
 30
0.0
 11
359.686592
 21
547.691779
 31
0.0
  0
LINE
  5
44F
100
AcDbEntity
  8
LAY-1
  6
CONTINUOUS
 62
     7
100
AcDbLine
 10
359.686592
 20
556.652524
 30
0.0
 11
386.605678
 21
559.172082
 31
0.0
  0
LINE
  5
450
100
AcDbEntity
  8
LAY-1
  6
CONTINUOUS
 62
     7
100
AcDbLine
 10
423.69767
 20
517.5561
 30
0.0
 11
423.69767
 21
512.80653
 31
0.0
  0
LINE
  5
451
100
AcDbEntity
  8
LAY-1
  6
CONTINUOUS
 62
     7
100
AcDbLine
 10
486.114766
 20
585.681315
 30
0.0
 11
486.114766
 21
581.681315
 31
0.0
  0
LINE
  5
452
100
AcDbEntity
  8
LAY-1
  6
CONTINUOUS
 62
     7
100
AcDbLine
 10
376.114766
 20
585.681315
 30
0.0
 11
376.114766
 21
581.681315
 31
0.0
  0
LINE
  5
453
100
AcDbEntity
  8
LAY-1
  6
CONTINUOUS
 62
     7
100
AcDbLine
 10
408.799446
 20
583.681315
 30
0.0
 11
376.114766
 21
583.681315
 31
0.0
  0
LINE
  5
454
100
AcDbEntity
  8
LAY-1
  6
CONTINUOUS
 62
     7
100
AcDbLine
 10
408.786266
 20
581.681315
 30
0.0
 11
376.114766
 21
581.681315
 31
0.0
  0
LINE
  5
455
100
AcDbEntity
  8
LAY-1
  6
CONTINUOUS
 62
     7
100
AcDbLine
 10
476.914766
 20
575.181315
 30
0.0
 11
476.164766
 21
575.614327
 31
0.0
  0
LINE
  5
456
100
AcDbEntity
  8
LAY-1
  6
CONTINUOUS
 62
     7
100
AcDbLine
 10
481.914766
 20
575.181315
 30
0.0
 11
476.914766
 21
575.181315
 31
0.0
  0
ARC
  5
457
100
AcDbEntity
  8
LAY-1
  6
CONTINUOUS
 62
     7
100
AcDbCircle
 10
477.596391
 20
577.764435
 30
0.0
 40
2.583121
100
AcDbArc
 50
236.342803
 51
303.657197
  0
LINE
  5
458
100
AcDbEntity
  8
LAY-1
  6
CONTINUOUS
 62
     7
100
AcDbLine
 10
486.914766
 20
575.181315
 30
0.0
 11
487.664766
 21
575.614327
 31
0.0
  0
LINE
  5
459
100
AcDbEntity
  8
LAY-1
  6
CONTINUOUS
 62
     7
100
AcDbLine
 10
481.914766
 20
575.181315
 30
0.0
 11
486.914766
 21
575.181315
 31
0.0
  0
ARC
  5
45A
100
AcDbEntity
  8
LAY-1
  6
CONTINUOUS
 62
     7
100
AcDbCircle
 10
486.233142
 20
577.764435
 30
0.0
 40
2.583121
100
AcDbArc
 50
236.342803
 51
303.657197
  0
ARC
  5
45B
100
AcDbEntity
  8
LAY-1
  6
CONTINUOUS
 62
     7
100
AcDbCircle
 10
481.914766
 20
585.020325
 30
0.0
 40
9.839011
100
AcDbArc
 50
252.938469
 51
287.061531
  0
LINE
  5
45C
100
AcDbEntity
  8
LAY-1
  6
CONTINUOUS
 62
     7
100
AcDbLine
 10
476.164766
 20
575.614327
 30
0.0
 11
476.164766
 21
580.181315
 31
0.0
  0
LINE
  5
45D
100
AcDbEntity
  8
LAY-1
  6
CONTINUOUS
 62
     7
100
AcDbLine
 10
479.028015
 20
575.614327
 30
0.0
 11
479.028015
 21
580.181315
 31
0.0
  0
LINE
  5
45E
100
AcDbEntity
  8
LAY-1
  6
CONTINUOUS
 62
     7
100
AcDbLine
 10
487.664766
 20
575.614327
 30
0.0
 11
487.664766
 21
580.181315
 31
0.0
  0
LINE
  5
45F
100
AcDbEntity
  8
LAY-1
  6
CONTINUOUS
 62
     7
100
AcDbLine
 10
484.801518
 20
575.614327
 30
0.0
 11
484.801518
 21
580.181315
 31
0.0
  0
LINE
  5
460
100
AcDbEntity
  8
LAY-1
  6
CONTINUOUS
 62
     7
100
AcDbLine
 10
488.014766
 20
580.181315
 30
0.0
 11
488.014766
 21
581.681315
 31
0.0
  0
LINE
  5
461
100
AcDbEntity
  8
LAY-1
  6
CONTINUOUS
 62
     7
100
AcDbLine
 10
481.914766
 20
580.181315
 30
0.0
 11
488.014766
 21
580.181315
 31
0.0
  0
LINE
  5
462
100
AcDbEntity
  8
LAY-1
  6
CONTINUOUS
 62
     7
100
AcDbLine
 10
481.914766
 20
581.681315
 30
0.0
 11
488.014766
 21
581.681315
 31
0.0
  0
LINE
  5
463
100
AcDbEntity
  8
LAY-1
  6
CONTINUOUS
 62
     7
100
AcDbLine
 10
475.814766
 20
580.181315
 30
0.0
 11
475.814766
 21
581.681315
 31
0.0
  0
LINE
  5
464
100
AcDbEntity
  8
LAY-1
  6
CONTINUOUS
 62
     7
100
AcDbLine
 10
481.914766
 20
580.181315
 30
0.0
 11
475.814766
 21
580.181315
 31
0.0
  0
LINE
  5
465
100
AcDbEntity
  8
LAY-1
  6
CONTINUOUS
 62
     7
100
AcDbLine
 10
480.414766
 20
580.181315
 30
0.0
 11
481.914766
 21
581.681315
 31
0.0
  0
LINE
  5
466
100
AcDbEntity
  8
LAY-1
  6
CONTINUOUS
 62
     7
100
AcDbLine
 10
483.414766
 20
581.681315
 30
0.0
 11
481.914766
 21
580.181315
 31
0.0
  0
LINE
  5
467
100
AcDbEntity
  8
LAY-1
  6
CONTINUOUS
 62
     7
100
AcDbLine
 10
375.314766
 20
575.181315
 30
0.0
 11
374.564766
 21
575.614327
 31
0.0
  0
LINE
  5
468
100
AcDbEntity
  8
LAY-1
  6
CONTINUOUS
 62
     7
100
AcDbLine
 10
380.314766
 20
575.181315
 30
0.0
 11
375.314766
 21
575.181315
 31
0.0
  0
ARC
  5
469
100
AcDbEntity
  8
LAY-1
  6
CONTINUOUS
 62
     7
100
AcDbCircle
 10
375.996391
 20
577.764435
 30
0.0
 40
2.583121
100
AcDbArc
 50
236.342803
 51
303.657197
  0
LINE
  5
46A
100
AcDbEntity
  8
LAY-1
  6
CONTINUOUS
 62
     7
100
AcDbLine
 10
385.314766
 20
575.181315
 30
0.0
 11
386.064766
 21
575.614327
 31
0.0
  0
LINE
  5
46B
100
AcDbEntity
  8
LAY-1
  6
CONTINUOUS
 62
     7
100
AcDbLine
 10
380.314766
 20
575.181315
 30
0.0
 11
385.314766
 21
575.181315
 31
0.0
  0
ARC
  5
46C
100
AcDbEntity
  8
LAY-1
  6
CONTINUOUS
 62
     7
100
AcDbCircle
 10
384.633142
 20
577.764435
 30
0.0
 40
2.583121
100
AcDbArc
 50
236.342803
 51
303.657197
  0
ARC
  5
46D
100
AcDbEntity
  8
LAY-1
  6
CONTINUOUS
 62
     7
100
AcDbCircle
 10
380.314766
 20
585.020325
 30
0.0
 40
9.839011
100
AcDbArc
 50
252.938469
 51
287.061531
  0
LINE
  5
46E
100
AcDbEntity
  8
LAY-1
  6
CONTINUOUS
 62
     7
100
AcDbLine
 10
374.564766
 20
575.614327
 30
0.0
 11
374.564766
 21
580.181315
 31
0.0
  0
LINE
  5
46F
100
AcDbEntity
  8
LAY-1
  6
CONTINUOUS
 62
     7
100
AcDbLine
 10
377.428015
 20
575.614327
 30
0.0
 11
377.428015
 21
580.181315
 31
0.0
  0
LINE
  5
470
100
AcDbEntity
  8
LAY-1
  6
CONTINUOUS
 62
     7
100
AcDbLine
 10
386.064766
 20
575.614327
 30
0.0
 11
386.064766
 21
580.181315
 31
0.0
  0
LINE
  5
471
100
AcDbEntity
  8
LAY-1
  6
CONTINUOUS
 62
     7
100
AcDbLine
 10
383.201518
 20
575.614327
 30
0.0
 11
383.201518
 21
580.181315
 31
0.0
  0
LINE
  5
472
100
AcDbEntity
  8
LAY-1
  6
CONTINUOUS
 62
     7
100
AcDbLine
 10
386.414766
 20
580.181315
 30
0.0
 11
386.414766
 21
581.681315
 31
0.0
  0
LINE
  5
473
100
AcDbEntity
  8
LAY-1
  6
CONTINUOUS
 62
     7
100
AcDbLine
 10
380.314766
 20
580.181315
 30
0.0
 11
386.414766
 21
580.181315
 31
0.0
  0
LINE
  5
474
100
AcDbEntity
  8
LAY-1
  6
CONTINUOUS
 62
     7
100
AcDbLine
 10
374.214766
 20
580.181315
 30
0.0
 11
374.214766
 21
581.681315
 31
0.0
  0
LINE
  5
475
100
AcDbEntity
  8
LAY-1
  6
CONTINUOUS
 62
     7
100
AcDbLine
 10
380.314766
 20
580.181315
 30
0.0
 11
374.214766
 21
580.181315
 31
0.0
  0
LINE
  5
476
100
AcDbEntity
  8
LAY-1
  6
CONTINUOUS
 62
     7
100
AcDbLine
 10
380.314766
 20
581.681315
 30
0.0
 11
374.214766
 21
581.681315
 31
0.0
  0
LINE
  5
477
100
AcDbEntity
  8
LAY-1
  6
CONTINUOUS
 62
     7
100
AcDbLine
 10
378.814766
 20
580.181315
 30
0.0
 11
380.314766
 21
581.681315
 31
0.0
  0
LINE
  5
478
100
AcDbEntity
  8
LAY-1
  6
CONTINUOUS
 62
     7
100
AcDbLine
 10
381.814766
 20
581.681315
 30
0.0
 11
380.314766
 21
580.181315
 31
0.0
  0
LINE
  5
479
100
AcDbEntity
  8
LAY-1
  6
CONTINUOUS
 62
     7
100
AcDbLine
 10
452.114766
 20
564.741315
 30
0.0
 11
438.596454
 21
564.741315
 31
0.0
  0
LINE
  5
47A
100
AcDbEntity
  8
LAY-1
  6
CONTINUOUS
 62
     7
100
AcDbLine
 10
452.114766
 20
564.741315
 30
0.0
 11
465.633079
 21
564.741315
 31
0.0
  0
LINE
  5
47B
100
AcDbEntity
  8
LAY-1
  6
CONTINUOUS
 62
     7
100
AcDbLine
 10
465.714766
 20
585.681315
 30
0.0
 11
465.714766
 21
567.355315
 31
0.0
  0
LINE
  5
47C
100
AcDbEntity
  8
LAY-1
  6
CONTINUOUS
 62
     7
100
AcDbLine
 10
438.514766
 20
585.681315
 30
0.0
 11
438.514766
 21
566.870168
 31
0.0
  0
LINE
  5
47D
100
AcDbEntity
  8
LAY-1
  6
CONTINUOUS
 62
     7
100
AcDbLine
 10
465.714766
 20
567.355315
 30
0.0
 11
465.349954
 21
555.681315
 31
0.0
  0
LINE
  5
47E
100
AcDbEntity
  8
LAY-1
  6
CONTINUOUS
 62
     7
100
AcDbLine
 10
438.514766
 20
567.355315
 30
0.0
 11
438.879579
 21
555.681315
 31
0.0
  0
LINE
  5
47F
100
AcDbEntity
  8
LAY-1
  6
CONTINUOUS
 62
     7
100
AcDbLine
 10
468.114766
 20
515.681315
 30
0.0
 11
436.114766
 21
515.681315
 31
0.0
  0
LINE
  5
480
100
AcDbEntity
  8
LAY-1
  6
CONTINUOUS
 62
     7
100
AcDbLine
 10
468.114766
 20
555.681315
 30
0.0
 11
436.114766
 21
555.681315
 31
0.0
  0
LINE
  5
481
100
AcDbEntity
  8
LAY-1
  6
CONTINUOUS
 62
     7
100
AcDbLine
 10
468.114766
 20
555.681315
 30
0.0
 11
468.114766
 21
515.681315
 31
0.0
  0
LINE
  5
482
100
AcDbEntity
  8
LAY-1
  6
CONTINUOUS
 62
     7
100
AcDbLine
 10
486.114766
 20
583.681315
 30
0.0
 11
465.714766
 21
583.681315
 31
0.0
  0
LINE
  5
483
100
AcDbEntity
  8
LAY-1
  6
CONTINUOUS
 62
     7
100
AcDbLine
 10
486.114766
 20
581.681315
 30
0.0
 11
465.714766
 21
581.681315
 31
0.0
  0
LINE
  5
484
100
AcDbEntity
  8
LAY-1
  6
CONTINUOUS
 62
     7
100
AcDbLine
 10
438.514766
 20
583.681315
 30
0.0
 11
422.514766
 21
583.681315
 31
0.0
  0
LINE
  5
485
100
AcDbEntity
  8
LAY-1
  6
CONTINUOUS
 62
     7
100
AcDbLine
 10
438.514766
 20
581.681315
 30
0.0
 11
422.443266
 21
581.681315
 31
0.0
  0
LINE
  5
486
100
AcDbEntity
  8
LAY-1
  6
CONTINUOUS
 62
     7
100
AcDbLine
 10
436.114766
 20
555.681315
 30
0.0
 11
436.114766
 21
515.681315
 31
0.0
  0
LINE
  5
487
100
AcDbEntity
  8
LAY-1
  6
CONTINUOUS
 62
     7
100
AcDbLine
 10
555.814723
 20
999.291669
 30
0.0
 11
555.814723
 21
984.781315
 31
0.0
  0
LINE
  5
488
100
AcDbEntity
  8
LAY-1
  6
CONTINUOUS
 62
     7
100
AcDbLine
 10
555.814723
 20
970.07096
 30
0.0
 11
555.814723
 21
984.581315
 31
0.0
  0
LINE
  5
489
100
AcDbEntity
  8
LAY-1
  6
CONTINUOUS
 62
     7
100
AcDbLine
 10
535.110276
 20
984.681315
 30
0.0
 11
535.110276
 21
957.828279
 31
0.0
  0
ARC
  5
48A
100
AcDbEntity
  8
LAY-1
  6
CONTINUOUS
 62
     7
100
AcDbCircle
 10
545.814723
 20
970.07096
 30
0.0
 40
10.0
100
AcDbArc
 50
273.0
 51
0.0
  0
ARC
  5
48B
100
AcDbEntity
  8
LAY-1
  6
CONTINUOUS
 62
     7
100
AcDbCircle
 10
536.314723
 20
958.557991
 30
0.0
 40
1.0
100
AcDbArc
 50
93.0
 51
174.089092
  0
ARC
  5
48C
100
AcDbEntity
  8
LAY-1
  6
CONTINUOUS
 62
     7
100
AcDbCircle
 10
532.33599
 20
958.969918
 30
0.0
 40
3.0
100
AcDbArc
 50
273.0
 51
354.089092
  0
LINE
  5
48D
100
AcDbEntity
  8
LAY-1
  6
CONTINUOUS
 62
     7
100
AcDbLine
 10
546.338082
 20
960.084665
 30
0.0
 11
536.262387
 21
959.55662
 31
0.0
  0
LINE
  5
48E
100
AcDbEntity
  8
LAY-1
  6
CONTINUOUS
 62
     7
100
AcDbLine
 10
535.110276
 20
984.681315
 30
0.0
 11
535.110276
 21
1011.53435
 31
0.0
  0
ARC
  5
48F
100
AcDbEntity
  8
LAY-1
  6
CONTINUOUS
 62
     7
100
AcDbCircle
 10
545.814723
 20
999.291669
 30
0.0
 40
10.0
100
AcDbArc
 50
0.0
 51
87.0
  0
ARC
  5
490
100
AcDbEntity
  8
LAY-1
  6
CONTINUOUS
 62
     7
100
AcDbCircle
 10
536.314723
 20
1010.804639
 30
0.0
 40
1.0
100
AcDbArc
 50
185.910908
 51
267.0
  0
ARC
  5
491
100
AcDbEntity
  8
LAY-1
  6
CONTINUOUS
 62
     7
100
AcDbCircle
 10
532.33599
 20
1010.392711
 30
0.0
 40
3.0
100
AcDbArc
 50
5.910908
 51
87.0
  0
LINE
  5
492
100
AcDbEntity
  8
LAY-1
  6
CONTINUOUS
 62
     7
100
AcDbLine
 10
546.338082
 20
1009.277964
 30
0.0
 11
536.262387
 21
1009.806009
 31
0.0
  0
CIRCLE
  5
493
100
AcDbEntity
  8
LAY-1
  6
CONTINUOUS
 62
     7
100
AcDbCircle
 10
395.114766
 20
984.681315
 30
0.0
 40
47.5
  0
CIRCLE
  5
494
100
AcDbEntity
  8
LAY-1
  6
CONTINUOUS
 62
     7
100
AcDbCircle
 10
419.863504
 20
959.932577
 30
0.0
 40
7.5
  0
CIRCLE
  5
495
100
AcDbEntity
  8
LAY-1
  6
CONTINUOUS
 62
     7
100
AcDbCircle
 10
395.114766
 20
984.681315
 30
0.0
 40
25.5
  0
CIRCLE
  5
496
100
AcDbEntity
  8
LAY-1
  6
CONTINUOUS
 62
     7
100
AcDbCircle
 10
395.114766
 20
984.681315
 30
0.0
 40
10.85
  0
CIRCLE
  5
497
100
AcDbEntity
  8
LAY-1
  6
CONTINUOUS
 62
     7
100
AcDbCircle
 10
395.114766
 20
984.681315
 30
0.0
 40
7.15
  0
CIRCLE
  5
498
100
AcDbEntity
  8
LAY-1
  6
CONTINUOUS
 62
     7
100
AcDbCircle
 10
419.863504
 20
1009.430052
 30
0.0
 40
7.5
  0
CIRCLE
  5
499
100
AcDbEntity
  8
LAY-1
  6
CONTINUOUS
 62
     7
100
AcDbCircle
 10
370.366029
 20
1009.430052
 30
0.0
 40
7.5
  0
CIRCLE
  5
49A
100
AcDbEntity
  8
LAY-1
  6
CONTINUOUS
 62
     7
100
AcDbCircle
 10
370.366029
 20
959.932577
 30
0.0
 40
7.5
  0
LINE
  5
49B
100
AcDbEntity
  8
LAY-1
  6
CONTINUOUS
 62
     7
100
AcDbLine
 10
521.114766
 20
1013.984908
 30
0.0
 11
532.492998
 21
1013.3886
 31
0.0
  0
LINE
  5
49C
100
AcDbEntity
  8
LAY-1
  6
CONTINUOUS
 62
     7
100
AcDbLine
 10
521.114766
 20
955.377722
 30
0.0
 11
532.492998
 21
955.97403
 31
0.0
  0
LINE
  5
49D
100
AcDbEntity
  8
LAY-1
  6
CONTINUOUS
 62
     7
100
AcDbLine
 10
521.114766
 20
1069.681315
 30
0.0
 11
521.114766
 21
585.681315
 31
0.0
  0
LINE
  5
49E
100
AcDbEntity
  8
LAY-1
  6
CONTINUOUS
 62
     7
100
AcDbLine
 10
313.114766
 20
1069.681315
 30
0.0
 11
521.114766
 21
1069.681315
 31
0.0
  0
LINE
  5
49F
100
AcDbEntity
  8
LAY-1
  6
CONTINUOUS
 62
     7
100
AcDbLine
 10
313.114766
 20
999.681315
 30
0.0
 11
350.045375
 21
999.681315
 31
0.0
  0
LINE
  5
4A0
100
AcDbEntity
  8
LAY-1
  6
CONTINUOUS
 62
     7
100
AcDbLine
 10
313.114766
 20
1069.681315
 30
0.0
 11
313.114766
 21
585.681315
 31
0.0
  0
LINE
  5
4A1
100
AcDbEntity
  8
LAY-1
  6
CONTINUOUS
 62
     7
100
AcDbLine
 10
313.114766
 20
969.681315
 30
0.0
 11
350.045375
 21
969.681315
 31
0.0
  0
LINE
  5
4A2
100
AcDbEntity
  8
LAY-1
  6
CONTINUOUS
 62
     7
100
AcDbLine
 10
499.614766
 20
445.681315
 30
0.0
 11
499.614766
 21
457.681315
 31
0.0
  0
LINE
  5
4A3
100
AcDbEntity
  8
LAY-1
  6
CONTINUOUS
 62
     7
100
AcDbLine
 10
462.964766
 20
461.641113
 30
0.0
 11
466.924564
 21
457.681315
 31
0.0
  0
LINE
  5
4A4
100
AcDbEntity
  8
LAY-1
  6
CONTINUOUS
 62
     7
100
AcDbLine
 10
452.114766
 20
445.681315
 30
0.0
 11
499.614766
 21
445.681315
 31
0.0
  0
LINE
  5
4A5
100
AcDbEntity
  8
LAY-1
  6
CONTINUOUS
 62
     7
100
AcDbLine
 10
404.614766
 20
445.681315
 30
0.0
 11
404.614766
 21
457.681315
 31
0.0
  0
LINE
  5
4A6
100
AcDbEntity
  8
LAY-1
  6
CONTINUOUS
 62
     7
100
AcDbLine
 10
441.264766
 20
461.641113
 30
0.0
 11
437.304968
 21
457.681315
 31
0.0
  0
LINE
  5
4A7
100
AcDbEntity
  8
LAY-1
  6
CONTINUOUS
 62
     7
100
AcDbLine
 10
452.114766
 20
445.681315
 30
0.0
 11
404.614766
 21
445.681315
 31
0.0
  0
LINE
  5
4A8
100
AcDbEntity
  8
LAY-1
  6
CONTINUOUS
 62
     7
100
AcDbLine
 10
499.614766
 20
457.681315
 30
0.0
 11
452.114766
 21
457.681315
 31
0.0
  0
LINE
  5
4A9
100
AcDbEntity
  8
LAY-1
  6
CONTINUOUS
 62
     7
100
AcDbLine
 10
404.614766
 20
457.681315
 30
0.0
 11
452.114766
 21
457.681315
 31
0.0
  0
LINE
  5
4AA
100
AcDbEntity
  8
LAY-1
  6
CONTINUOUS
 62
     7
100
AcDbLine
 10
462.964766
 20
461.641113
 30
0.0
 11
441.264766
 21
461.641113
 31
0.0
  0
LINE
  5
4AB
100
AcDbEntity
  8
LAY-1
  6
CONTINUOUS
 62
     7
100
AcDbLine
 10
441.264766
 20
461.641113
 30
0.0
 11
441.264766
 21
501.181315
 31
0.0
  0
LINE
  5
4AC
100
AcDbEntity
  8
LAY-1
  6
CONTINUOUS
 62
     7
100
AcDbLine
 10
462.964766
 20
461.641113
 30
0.0
 11
462.964766
 21
501.181315
 31
0.0
  0
LINE
  5
4AD
100
AcDbEntity
  8
LAY-1
  6
CONTINUOUS
 62
     7
100
AcDbLine
 10
462.964766
 20
501.181315
 30
0.0
 11
441.264766
 21
501.181315
 31
0.0
  0
LINE
  5
4AE
100
AcDbEntity
  8
LAY-1
  6
CONTINUOUS
 62
     7
100
AcDbLine
 10
441.637266
 20
504.681315
 30
0.0
 11
441.527274
 21
501.181315
 31
0.0
  0
LINE
  5
4AF
100
AcDbEntity
  8
LAY-1
  6
CONTINUOUS
 62
     7
100
AcDbLine
 10
462.592266
 20
504.681315
 30
0.0
 11
462.702258
 21
501.181315
 31
0.0
  0
LINE
  5
4B0
100
AcDbEntity
  8
LAY-1
  6
CONTINUOUS
 62
     7
100
AcDbLine
 10
433.639558
 20
510.681315
 30
0.0
 11
470.589975
 21
510.681315
 31
0.0
  0
LINE
  5
4B1
100
AcDbEntity
  8
LAY-1
  6
CONTINUOUS
 62
     7
100
AcDbLine
 10
461.377105
 20
506.110377
 30
0.0
 11
461.377105
 21
510.681315
 31
0.0
  0
LINE
  5
4B2
100
AcDbEntity
  8
LAY-1
  6
CONTINUOUS
 62
     7
100
AcDbLine
 10
442.852428
 20
506.110377
 30
0.0
 11
442.852428
 21
510.681315
 31
0.0
  0
ARC
  5
4B3
100
AcDbEntity
  8
LAY-1
  6
CONTINUOUS
 62
     7
100
AcDbCircle
 10
465.98354
 20
512.820029
 30
0.0
 40
8.138715
100
AcDbArc
 50
235.528901
 51
304.471099
  0
ARC
  5
4B4
100
AcDbEntity
  8
LAY-1
  6
CONTINUOUS
 62
     7
100
AcDbCircle
 10
438.245993
 20
512.820029
 30
0.0
 40
8.138715
100
AcDbArc
 50
235.528901
 51
304.471099
  0
ARC
  5
4B5
100
AcDbEntity
  8
LAY-1
  6
CONTINUOUS
 62
     7
100
AcDbCircle
 10
452.114766
 20
535.412353
 30
0.0
 40
30.731038
100
AcDbArc
 50
252.458283
 51
287.541717
  0
LINE
  5
4B6
100
AcDbEntity
  8
LAY-1
  6
CONTINUOUS
 62
     7
100
AcDbLine
 10
436.114766
 20
504.681315
 30
0.0
 11
468.114766
 21
504.681315
 31
0.0
  0
LINE
  5
4B7
100
AcDbEntity
  8
LAY-1
  6
CONTINUOUS
 62
     7
100
AcDbLine
 10
470.589975
 20
506.110377
 30
0.0
 11
470.589975
 21
510.681315
 31
0.0
  0
LINE
  5
4B8
100
AcDbEntity
  8
LAY-1
  6
CONTINUOUS
 62
     7
100
AcDbLine
 10
433.639558
 20
506.110377
 30
0.0
 11
433.639558
 21
510.681315
 31
0.0
  0
LINE
  5
4B9
100
AcDbEntity
  8
LAY-1
  6
CONTINUOUS
 62
     7
100
AcDbLine
 10
470.589975
 20
506.110377
 30
0.0
 11
468.114766
 21
504.681315
 31
0.0
  0
LINE
  5
4BA
100
AcDbEntity
  8
LAY-1
  6
CONTINUOUS
 62
     7
100
AcDbLine
 10
433.639558
 20
506.110377
 30
0.0
 11
436.114766
 21
504.681315
 31
0.0
  0
LINE
  5
4BB
100
AcDbEntity
  8
LAY-1
  6
CONTINUOUS
 62
     7
100
AcDbLine
 10
465.491516
 20
510.681315
 30
0.0
 11
465.335266
 21
515.681315
 31
0.0
  0
LINE
  5
4BC
100
AcDbEntity
  8
LAY-1
  6
CONTINUOUS
 62
     7
100
AcDbLine
 10
438.738016
 20
510.681315
 30
0.0
 11
438.894266
 21
515.681315
 31
0.0
  0
LINE
  5
4BD
100
AcDbEntity
  8
LAY-1
  6
CONTINUOUS
 62
     7
100
AcDbLine
 10
465.42499
 20
512.810168
 30
0.0
 11
452.114766
 21
512.810168
 31
0.0
  0
LINE
  5
4BE
100
AcDbEntity
  8
LAY-1
  6
CONTINUOUS
 62
     7
100
AcDbLine
 10
438.804543
 20
512.810168
 30
0.0
 11
452.114766
 21
512.810168
 31
0.0
  0
CIRCLE
  5
4BF
100
AcDbEntity
  8
LAY-1
  6
CONTINUOUS
 62
     7
100
AcDbCircle
 10
352.114766
 20
853.681315
 30
0.0
 40
12.5
  0
CIRCLE
  5
4C0
100
AcDbEntity
  8
LAY-1
  6
CONTINUOUS
 62
     7
100
AcDbCircle
 10
352.114766
 20
853.681315
 30
0.0
 40
12.0
  0
LINE
  5
4C1
100
AcDbEntity
  8
LAY-1
  6
CONTINUOUS
 62
     7
100
AcDbLine
 10
311.114766
 20
838.681315
 30
0.0
 11
311.114766
 21
868.681315
 31
0.0
  0
LINE
  5
4C2
100
AcDbEntity
  8
LAY-1
  6
CONTINUOUS
 62
     7
100
AcDbLine
 10
313.414766
 20
838.681315
 30
0.0
 11
313.414766
 21
868.681315
 31
0.0
  0
LINE
  5
4C3
100
AcDbEntity
  8
LAY-1
  6
CONTINUOUS
 62
     7
100
AcDbLine
 10
313.414766
 20
868.681315
 30
0.0
 11
311.114766
 21
868.681315
 31
0.0
  0
LINE
  5
4C4
100
AcDbEntity
  8
LAY-1
  6
CONTINUOUS
 62
     7
100
AcDbLine
 10
313.414766
 20
838.681315
 30
0.0
 11
311.114766
 21
838.681315
 31
0.0
  0
LINE
  5
4C5
100
AcDbEntity
  8
LAY-1
  6
CONTINUOUS
 62
     7
100
AcDbLine
 10
313.114766
 20
857.681315
 30
0.0
 11
340.272047
 21
857.681315
 31
0.0
  0
LINE
  5
4C6
100
AcDbEntity
  8
LAY-1
  6
CONTINUOUS
 62
     7
100
AcDbLine
 10
313.114766
 20
849.681315
 30
0.0
 11
340.272047
 21
849.681315
 31
0.0
  0
CIRCLE
  5
4C7
100
AcDbEntity
  8
LAY-1
  6
CONTINUOUS
 62
     7
100
AcDbCircle
 10
352.114766
 20
603.681315
 30
0.0
 40
12.5
  0
CIRCLE
  5
4C8
100
AcDbEntity
  8
LAY-1
  6
CONTINUOUS
 62
     7
100
AcDbCircle
 10
352.114766
 20
603.681315
 30
0.0
 40
12.0
  0
LINE
  5
4C9
100
AcDbEntity
  8
LAY-1
  6
CONTINUOUS
 62
     7
100
AcDbLine
 10
313.414766
 20
618.681315
 30
0.0
 11
313.414766
 21
588.681315
 31
0.0
  0
LINE
  5
4CA
100
AcDbEntity
  8
LAY-1
  6
CONTINUOUS
 62
     7
100
AcDbLine
 10
311.114766
 20
618.681315
 30
0.0
 11
311.114766
 21
588.681315
 31
0.0
  0
LINE
  5
4CB
100
AcDbEntity
  8
LAY-1
  6
CONTINUOUS
 62
     7
100
AcDbLine
 10
313.414766
 20
618.681315
 30
0.0
 11
311.114766
 21
618.681315
 31
0.0
  0
LINE
  5
4CC
100
AcDbEntity
  8
LAY-1
  6
CONTINUOUS
 62
     7
100
AcDbLine
 10
313.414766
 20
588.681315
 30
0.0
 11
311.114766
 21
588.681315
 31
0.0
  0
LINE
  5
4CD
100
AcDbEntity
  8
LAY-1
  6
CONTINUOUS
 62
     7
100
AcDbLine
 10
313.114766
 20
607.681315
 30
0.0
 11
340.272047
 21
607.681315
 31
0.0
  0
LINE
  5
4CE
100
AcDbEntity
  8
LAY-1
  6
CONTINUOUS
 62
     7
100
AcDbLine
 10
313.114766
 20
599.681315
 30
0.0
 11
340.272047
 21
599.681315
 31
0.0
  0
LINE
  5
4CF
100
AcDbEntity
  8
LAY-1
  6
CONTINUOUS
 62
     7
100
AcDbLine
 10
405.114871
 20
563.681315
 30
0.0
 11
389.614766
 21
563.681315
 31
0.0
  0
LINE
  5
4D0
100
AcDbEntity
  8
LAY-1
  6
CONTINUOUS
 62
     7
100
AcDbLine
 10
389.614766
 20
581.681315
 30
0.0
 11
389.614766
 21
563.681315
 31
0.0
  0
LINE
  5
4D1
100
AcDbEntity
  8
LAY-1
  6
CONTINUOUS
 62
     7
100
AcDbLine
 10
472.614766
 20
581.681315
 30
0.0
 11
472.614766
 21
563.681315
 31
0.0
  0
LINE
  5
4D2
100
AcDbEntity
  8
LAY-1
  6
CONTINUOUS
 62
     7
100
AcDbLine
 10
465.599954
 20
563.681315
 30
0.0
 11
472.614766
 21
563.681315
 31
0.0
  0
LINE
  5
4D3
100
AcDbEntity
  8
LAY-1
  6
CONTINUOUS
 62
     7
100
AcDbLine
 10
1624.114766
 20
585.681315
 30
0.0
 11
1624.114766
 21
581.681315
 31
0.0
  0
LINE
  5
4D4
100
AcDbEntity
  8
LAY-1
  6
CONTINUOUS
 62
     7
100
AcDbLine
 10
1734.114766
 20
585.681315
 30
0.0
 11
1734.114766
 21
581.681315
 31
0.0
  0
LINE
  5
4D5
100
AcDbEntity
  8
LAY-1
  6
CONTINUOUS
 62
     7
100
AcDbLine
 10
1633.314766
 20
575.181315
 30
0.0
 11
1634.064766
 21
575.614327
 31
0.0
  0
LINE
  5
4D6
100
AcDbEntity
  8
LAY-1
  6
CONTINUOUS
 62
     7
100
AcDbLine
 10
1628.314766
 20
575.181315
 30
0.0
 11
1633.314766
 21
575.181315
 31
0.0
  0
ARC
  5
4D7
100
AcDbEntity
  8
LAY-1
  6
CONTINUOUS
 62
     7
100
AcDbCircle
 10
1632.633142
 20
577.764435
 30
0.0
 40
2.583121
100
AcDbArc
 50
236.342803
 51
303.657197
  0
LINE
  5
4D8
100
AcDbEntity
  8
LAY-1
  6
CONTINUOUS
 62
     7
100
AcDbLine
 10
1623.314766
 20
575.181315
 30
0.0
 11
1622.564766
 21
575.614327
 31
0.0
  0
LINE
  5
4D9
100
AcDbEntity
  8
LAY-1
  6
CONTINUOUS
 62
     7
100
AcDbLine
 10
1628.314766
 20
575.181315
 30
0.0
 11
1623.314766
 21
575.181315
 31
0.0
  0
ARC
  5
4DA
100
AcDbEntity
  8
LAY-1
  6
CONTINUOUS
 62
     7
100
AcDbCircle
 10
1623.996391
 20
577.764435
 30
0.0
 40
2.583121
100
AcDbArc
 50
236.342803
 51
303.657197
  0
ARC
  5
4DB
100
AcDbEntity
  8
LAY-1
  6
CONTINUOUS
 62
     7
100
AcDbCircle
 10
1628.314766
 20
585.020325
 30
0.0
 40
9.839011
100
AcDbArc
 50
252.938469
 51
287.061531
  0
LINE
  5
4DC
100
AcDbEntity
  8
LAY-1
  6
CONTINUOUS
 62
     7
100
AcDbLine
 10
1634.064766
 20
575.614327
 30
0.0
 11
1634.064766
 21
580.181315
 31
0.0
  0
LINE
  5
4DD
100
AcDbEntity
  8
LAY-1
  6
CONTINUOUS
 62
     7
100
AcDbLine
 10
1631.201518
 20
575.614327
 30
0.0
 11
1631.201518
 21
580.181315
 31
0.0
  0
LINE
  5
4DE
100
AcDbEntity
  8
LAY-1
  6
CONTINUOUS
 62
     7
100
AcDbLine
 10
1622.564766
 20
575.614327
 30
0.0
 11
1622.564766
 21
580.181315
 31
0.0
  0
LINE
  5
4DF
100
AcDbEntity
  8
LAY-1
  6
CONTINUOUS
 62
     7
100
AcDbLine
 10
1625.428015
 20
575.614327
 30
0.0
 11
1625.428015
 21
580.181315
 31
0.0
  0
LINE
  5
4E0
100
AcDbEntity
  8
LAY-1
  6
CONTINUOUS
 62
     7
100
AcDbLine
 10
1622.214766
 20
580.181315
 30
0.0
 11
1622.214766
 21
581.681315
 31
0.0
  0
LINE
  5
4E1
100
AcDbEntity
  8
LAY-1
  6
CONTINUOUS
 62
     7
100
AcDbLine
 10
1628.314766
 20
580.181315
 30
0.0
 11
1622.214766
 21
580.181315
 31
0.0
  0
LINE
  5
4E2
100
AcDbEntity
  8
LAY-1
  6
CONTINUOUS
 62
     7
100
AcDbLine
 10
1628.314766
 20
581.681315
 30
0.0
 11
1622.214766
 21
581.681315
 31
0.0
  0
LINE
  5
4E3
100
AcDbEntity
  8
LAY-1
  6
CONTINUOUS
 62
     7
100
AcDbLine
 10
1634.414766
 20
580.181315
 30
0.0
 11
1634.414766
 21
581.681315
 31
0.0
  0
LINE
  5
4E4
100
AcDbEntity
  8
LAY-1
  6
CONTINUOUS
 62
     7
100
AcDbLine
 10
1628.314766
 20
580.181315
 30
0.0
 11
1634.414766
 21
580.181315
 31
0.0
  0
LINE
  5
4E5
100
AcDbEntity
  8
LAY-1
  6
CONTINUOUS
 62
     7
100
AcDbLine
 10
1629.814766
 20
580.181315
 30
0.0
 11
1628.314766
 21
581.681315
 31
0.0
  0
LINE
  5
4E6
100
AcDbEntity
  8
LAY-1
  6
CONTINUOUS
 62
     7
100
AcDbLine
 10
1626.814766
 20
581.681315
 30
0.0
 11
1628.314766
 21
580.181315
 31
0.0
  0
LINE
  5
4E7
100
AcDbEntity
  8
LAY-1
  6
CONTINUOUS
 62
     7
100
AcDbLine
 10
1734.914766
 20
575.181315
 30
0.0
 11
1735.664766
 21
575.614327
 31
0.0
  0
LINE
  5
4E8
100
AcDbEntity
  8
LAY-1
  6
CONTINUOUS
 62
     7
100
AcDbLine
 10
1729.914766
 20
575.181315
 30
0.0
 11
1734.914766
 21
575.181315
 31
0.0
  0
ARC
  5
4E9
100
AcDbEntity
  8
LAY-1
  6
CONTINUOUS
 62
     7
100
AcDbCircle
 10
1734.233142
 20
577.764435
 30
0.0
 40
2.583121
100
AcDbArc
 50
236.342803
 51
303.657197
  0
LINE
  5
4EA
100
AcDbEntity
  8
LAY-1
  6
CONTINUOUS
 62
     7
100
AcDbLine
 10
1724.914766
 20
575.181315
 30
0.0
 11
1724.164766
 21
575.614327
 31
0.0
  0
LINE
  5
4EB
100
AcDbEntity
  8
LAY-1
  6
CONTINUOUS
 62
     7
100
AcDbLine
 10
1729.914766
 20
575.181315
 30
0.0
 11
1724.914766
 21
575.181315
 31
0.0
  0
ARC
  5
4EC
100
AcDbEntity
  8
LAY-1
  6
CONTINUOUS
 62
     7
100
AcDbCircle
 10
1725.596391
 20
577.764435
 30
0.0
 40
2.583121
100
AcDbArc
 50
236.342803
 51
303.657197
  0
ARC
  5
4ED
100
AcDbEntity
  8
LAY-1
  6
CONTINUOUS
 62
     7
100
AcDbCircle
 10
1729.914766
 20
585.020325
 30
0.0
 40
9.839011
100
AcDbArc
 50
252.938469
 51
287.061531
  0
LINE
  5
4EE
100
AcDbEntity
  8
LAY-1
  6
CONTINUOUS
 62
     7
100
AcDbLine
 10
1735.664766
 20
575.614327
 30
0.0
 11
1735.664766
 21
580.181315
 31
0.0
  0
LINE
  5
4EF
100
AcDbEntity
  8
LAY-1
  6
CONTINUOUS
 62
     7
100
AcDbLine
 10
1732.801518
 20
575.614327
 30
0.0
 11
1732.801518
 21
580.181315
 31
0.0
  0
LINE
  5
4F0
100
AcDbEntity
  8
LAY-1
  6
CONTINUOUS
 62
     7
100
AcDbLine
 10
1724.164766
 20
575.614327
 30
0.0
 11
1724.164766
 21
580.181315
 31
0.0
  0
LINE
  5
4F1
100
AcDbEntity
  8
LAY-1
  6
CONTINUOUS
 62
     7
100
AcDbLine
 10
1727.028015
 20
575.614327
 30
0.0
 11
1727.028015
 21
580.181315
 31
0.0
  0
LINE
  5
4F2
100
AcDbEntity
  8
LAY-1
  6
CONTINUOUS
 62
     7
100
AcDbLine
 10
1723.814766
 20
580.181315
 30
0.0
 11
1723.814766
 21
581.681315
 31
0.0
  0
LINE
  5
4F3
100
AcDbEntity
  8
LAY-1
  6
CONTINUOUS
 62
     7
100
AcDbLine
 10
1729.914766
 20
580.181315
 30
0.0
 11
1723.814766
 21
580.181315
 31
0.0
  0
LINE
  5
4F4
100
AcDbEntity
  8
LAY-1
  6
CONTINUOUS
 62
     7
100
AcDbLine
 10
1736.014766
 20
580.181315
 30
0.0
 11
1736.014766
 21
581.681315
 31
0.0
  0
LINE
  5
4F5
100
AcDbEntity
  8
LAY-1
  6
CONTINUOUS
 62
     7
100
AcDbLine
 10
1729.914766
 20
580.181315
 30
0.0
 11
1736.014766
 21
580.181315
 31
0.0
  0
LINE
  5
4F6
100
AcDbEntity
  8
LAY-1
  6
CONTINUOUS
 62
     7
100
AcDbLine
 10
1729.914766
 20
581.681315
 30
0.0
 11
1736.014766
 21
581.681315
 31
0.0
  0
LINE
  5
4F7
100
AcDbEntity
  8
LAY-1
  6
CONTINUOUS
 62
     7
100
AcDbLine
 10
1731.414766
 20
580.181315
 30
0.0
 11
1729.914766
 21
581.681315
 31
0.0
  0
LINE
  5
4F8
100
AcDbEntity
  8
LAY-1
  6
CONTINUOUS
 62
     7
100
AcDbLine
 10
1728.414766
 20
581.681315
 30
0.0
 11
1729.914766
 21
580.181315
 31
0.0
  0
LINE
  5
4F9
100
AcDbEntity
  8
LAY-1
  6
CONTINUOUS
 62
     7
100
AcDbLine
 10
1642.114766
 20
555.681315
 30
0.0
 11
1642.114766
 21
515.681315
 31
0.0
  0
LINE
  5
4FA
100
AcDbEntity
  8
LAY-1
  6
CONTINUOUS
 62
     7
100
AcDbLine
 10
1554.41481
 20
999.291669
 30
0.0
 11
1554.41481
 21
984.781315
 31
0.0
  0
LINE
  5
4FB
100
AcDbEntity
  8
LAY-1
  6
CONTINUOUS
 62
     7
100
AcDbLine
 10
1554.41481
 20
970.07096
 30
0.0
 11
1554.41481
 21
984.581315
 31
0.0
  0
LINE
  5
4FC
100
AcDbEntity
  8
LAY-1
  6
CONTINUOUS
 62
     7
100
AcDbLine
 10
1575.119257
 20
984.681315
 30
0.0
 11
1575.119257
 21
957.828279
 31
0.0
  0
ARC
  5
4FD
100
AcDbEntity
  8
LAY-1
  6
CONTINUOUS
 62
     7
100
AcDbCircle
 10
1564.41481
 20
970.07096
 30
0.0
 40
10.0
100
AcDbArc
 50
180.0
 51
267.0
  0
ARC
  5
4FE
100
AcDbEntity
  8
LAY-1
  6
CONTINUOUS
 62
     7
100
AcDbCircle
 10
1573.91481
 20
958.557991
 30
0.0
 40
1.0
100
AcDbArc
 50
5.910908
 51
87.0
  0
ARC
  5
4FF
100
AcDbEntity
  8
LAY-1
  6
CONTINUOUS
 62
     7
100
AcDbCircle
 10
1577.893543
 20
958.969918
 30
0.0
 40
3.0
100
AcDbArc
 50
185.910908
 51
267.0
  0
LINE
  5
500
100
AcDbEntity
  8
LAY-1
  6
CONTINUOUS
 62
     7
100
AcDbLine
 10
1563.89145
 20
960.084665
 30
0.0
 11
1573.967146
 21
959.55662
 31
0.0
  0
LINE
  5
501
100
AcDbEntity
  8
LAY-1
  6
CONTINUOUS
 62
     7
100
AcDbLine
 10
1575.119257
 20
984.681315
 30
0.0
 11
1575.119257
 21
1011.53435
 31
0.0
  0
ARC
  5
502
100
AcDbEntity
  8
LAY-1
  6
CONTINUOUS
 62
     7
100
AcDbCircle
 10
1564.41481
 20
999.291669
 30
0.0
 40
10.0
100
AcDbArc
 50
93.0
 51
180.0
  0
ARC
  5
503
100
AcDbEntity
  8
LAY-1
  6
CONTINUOUS
 62
     7
100
AcDbCircle
 10
1573.91481
 20
1010.804639
 30
0.0
 40
1.0
100
AcDbArc
 50
273.0
 51
354.089092
  0
ARC
  5
504
100
AcDbEntity
  8
LAY-1
  6
CONTINUOUS
 62
     7
100
AcDbCircle
 10
1577.893543
 20
1010.392711
 30
0.0
 40
3.0
100
AcDbArc
 50
93.0
 51
174.089092
  0
LINE
  5
505
100
AcDbEntity
  8
LAY-1
  6
CONTINUOUS
 62
     7
100
AcDbLine
 10
1563.89145
 20
1009.277964
 30
0.0
 11
1573.967146
 21
1009.806009
 31
0.0
  0
CIRCLE
  5
506
100
AcDbEntity
  8
LAY-1
  6
CONTINUOUS
 62
     7
100
AcDbCircle
 10
1715.114766
 20
984.681315
 30
0.0
 40
47.5
  0
CIRCLE
  5
507
100
AcDbEntity
  8
LAY-1
  6
CONTINUOUS
 62
     7
100
AcDbCircle
 10
1690.366029
 20
959.932577
 30
0.0
 40
7.5
  0
CIRCLE
  5
508
100
AcDbEntity
  8
LAY-1
  6
CONTINUOUS
 62
     7
100
AcDbCircle
 10
1715.114766
 20
984.681315
 30
0.0
 40
25.5
  0
CIRCLE
  5
509
100
AcDbEntity
  8
LAY-1
  6
CONTINUOUS
 62
     7
100
AcDbCircle
 10
1715.114766
 20
984.681315
 30
0.0
 40
10.85
  0
CIRCLE
  5
50A
100
AcDbEntity
  8
LAY-1
  6
CONTINUOUS
 62
     7
100
AcDbCircle
 10
1715.114766
 20
984.681315
 30
0.0
 40
7.15
  0
CIRCLE
  5
50B
100
AcDbEntity
  8
LAY-1
  6
CONTINUOUS
 62
     7
100
AcDbCircle
 10
1690.366029
 20
1009.430052
 30
0.0
 40
7.5
  0
CIRCLE
  5
50C
100
AcDbEntity
  8
LAY-1
  6
CONTINUOUS
 62
     7
100
AcDbCircle
 10
1739.863504
 20
1009.430052
 30
0.0
 40
7.5
  0
CIRCLE
  5
50D
100
AcDbEntity
  8
LAY-1
  6
CONTINUOUS
 62
     7
100
AcDbCircle
 10
1739.863504
 20
959.932577
 30
0.0
 40
7.5
  0
LINE
  5
50E
100
AcDbEntity
  8
LAY-1
  6
CONTINUOUS
 62
     7
100
AcDbLine
 10
1679.114766
 20
583.681315
 30
0.0
 11
1734.114766
 21
583.681315
 31
0.0
  0
LINE
  5
50F
100
AcDbEntity
  8
LAY-1
  6
CONTINUOUS
 62
     7
100
AcDbLine
 10
1679.114766
 20
581.681315
 30
0.0
 11
1734.114766
 21
581.681315
 31
0.0
  0
LINE
  5
510
100
AcDbEntity
  8
LAY-1
  6
CONTINUOUS
 62
     7
100
AcDbLine
 10
1624.114766
 20
583.681315
 30
0.0
 11
1679.114766
 21
583.681315
 31
0.0
  0
LINE
  5
511
100
AcDbEntity
  8
LAY-1
  6
CONTINUOUS
 62
     7
100
AcDbLine
 10
1624.114766
 20
581.681315
 30
0.0
 11
1679.114766
 21
581.681315
 31
0.0
  0
CIRCLE
  5
512
100
AcDbEntity
  8
LAY-1
  6
CONTINUOUS
 62
     7
100
AcDbCircle
 10
1700.114766
 20
905.181315
 30
0.0
 40
12.5
  0
CIRCLE
  5
513
100
AcDbEntity
  8
LAY-1
  6
CONTINUOUS
 62
     7
100
AcDbCircle
 10
1700.114766
 20
905.181315
 30
0.0
 40
12.0
  0
LINE
  5
514
100
AcDbEntity
  8
LAY-1
  6
CONTINUOUS
 62
     7
100
AcDbLine
 10
1589.114766
 20
1013.984908
 30
0.0
 11
1577.736535
 21
1013.3886
 31
0.0
  0
LINE
  5
515
100
AcDbEntity
  8
LAY-1
  6
CONTINUOUS
 62
     7
100
AcDbLine
 10
1589.114766
 20
955.377722
 30
0.0
 11
1577.736535
 21
955.97403
 31
0.0
  0
LINE
  5
516
100
AcDbEntity
  8
LAY-1
  6
CONTINUOUS
 62
     7
100
AcDbLine
 10
1589.114766
 20
1069.681315
 30
0.0
 11
1797.114766
 21
1069.681315
 31
0.0
  0
LINE
  5
517
100
AcDbEntity
  8
LAY-1
  6
CONTINUOUS
 62
     7
100
AcDbLine
 10
1589.114766
 20
1069.681315
 30
0.0
 11
1589.114766
 21
585.681315
 31
0.0
  0
LINE
  5
518
100
AcDbEntity
  8
LAY-1
  6
CONTINUOUS
 62
     7
100
AcDbLine
 10
1797.114766
 20
1069.681315
 30
0.0
 11
1797.114766
 21
585.681315
 31
0.0
  0
LINE
  5
519
100
AcDbEntity
  8
LAY-1
  6
CONTINUOUS
 62
     7
100
AcDbLine
 10
1797.114766
 20
999.681315
 30
0.0
 11
1760.184157
 21
999.681315
 31
0.0
  0
LINE
  5
51A
100
AcDbEntity
  8
LAY-1
  6
CONTINUOUS
 62
     7
100
AcDbLine
 10
1797.114766
 20
969.681315
 30
0.0
 11
1760.184157
 21
969.681315
 31
0.0
  0
LINE
  5
51B
100
AcDbEntity
  8
LAY-1
  6
CONTINUOUS
 62
     7
100
AcDbLine
 10
1749.114766
 20
585.681315
 30
0.0
 11
1797.114766
 21
585.681315
 31
0.0
  0
LINE
  5
51C
100
AcDbEntity
  8
LAY-1
  6
CONTINUOUS
 62
     7
100
AcDbLine
 10
1609.114766
 20
585.681315
 30
0.0
 11
1589.114766
 21
585.681315
 31
0.0
  0
LINE
  5
51D
100
AcDbEntity
  8
LAY-1
  6
CONTINUOUS
 62
     7
100
AcDbLine
 10
1609.114766
 20
585.681315
 30
0.0
 11
1749.114766
 21
585.681315
 31
0.0
  0
POLYLINE
  5
51E
100
AcDbEntity
  8
LAY-1
  6
CONTINUOUS
 62
     7
100
AcDb2dPolyline
 66
     1
 10
0.0
 20
0.0
 30
0.0
 70
   128
  0
VERTEX
  5
51F
100
AcDbEntity
  8
LAY-1
  6
CONTINUOUS
 62
     7
100
AcDbVertex
100
AcDb2dVertex
 10
1648.07723
 20
617.948674
 30
0.0
  0
VERTEX
  5
520
100
AcDbEntity
  8
LAY-1
  6
CONTINUOUS
 62
     7
100
AcDbVertex
100
AcDb2dVertex
 10
1643.27723
 20
626.262518
 30
0.0
  0
VERTEX
  5
521
100
AcDbEntity
  8
LAY-1
  6
CONTINUOUS
 62
     7
100
AcDbVertex
100
AcDb2dVertex
 10
1638.47723
 20
617.948674
 30
0.0
  0
VERTEX
  5
522
100
AcDbEntity
  8
LAY-1
  6
CONTINUOUS
 62
     7
100
AcDbVertex
100
AcDb2dVertex
 10
1648.07723
 20
617.948674
 30
0.0
  0
SEQEND
  5
523
100
AcDbEntity
  8
LAY-1
  6
CONTINUOUS
 62
     7
  0
POLYLINE
  5
524
100
AcDbEntity
  8
LAY-1
  6
CONTINUOUS
 62
     7
100
AcDb2dPolyline
 66
     1
 10
0.0
 20
0.0
 30
0.0
 70
   128
  0
VERTEX
  5
525
100
AcDbEntity
  8
LAY-1
  6
CONTINUOUS
 62
     7
100
AcDbVertex
100
AcDb2dVertex
 10
1649.043252
 20
617.317013
 30
0.0
  0
VERTEX
  5
526
100
AcDbEntity
  8
LAY-1
  6
CONTINUOUS
 62
     7
100
AcDbVertex
100
AcDb2dVertex
 10
1643.283252
 20
627.293625
 30
0.0
  0
VERTEX
  5
527
100
AcDbEntity
  8
LAY-1
  6
CONTINUOUS
 62
     7
100
AcDbVertex
100
AcDb2dVertex
 10
1637.523252
 20
617.317013
 30
0.0
  0
VERTEX
  5
528
100
AcDbEntity
  8
LAY-1
  6
CONTINUOUS
 62
     7
100
AcDbVertex
100
AcDb2dVertex
 10
1649.043252
 20
617.317013
 30
0.0
  0
SEQEND
  5
529
100
AcDbEntity
  8
LAY-1
  6
CONTINUOUS
 62
     7
  0
LINE
  5
52A
100
AcDbEntity
  8
LAY-1
  6
CONTINUOUS
 62
     7
100
AcDbLine
 10
1640.523252
 20
629.077125
 30
0.0
 11
1720.523252
 21
629.077125
 31
0.0
  0
ARC
  5
52B
100
AcDbEntity
  8
LAY-1
  6
CONTINUOUS
 62
     7
100
AcDbCircle
 10
1640.523252
 20
624.077125
 30
0.0
 40
5.0
100
AcDbArc
 50
90.0
 51
180.0
  0
LINE
  5
52C
100
AcDbEntity
  8
LAY-1
  6
CONTINUOUS
 62
     7
100
AcDbLine
 10
1635.523252
 20
624.077125
 30
0.0
 11
1635.523252
 21
600.317013
 31
0.0
  0
LINE
  5
52D
100
AcDbEntity
  8
LAY-1
  6
CONTINUOUS
 62
     7
100
AcDbLine
 10
1635.523252
 20
615.317013
 30
0.0
 11
1725.523252
 21
615.317013
 31
0.0
  0
LINE
  5
52E
100
AcDbEntity
  8
LAY-1
  6
CONTINUOUS
 62
     7
100
AcDbLine
 10
1640.523252
 20
595.317013
 30
0.0
 11
1720.523252
 21
595.317013
 31
0.0
  0
ARC
  5
52F
100
AcDbEntity
  8
LAY-1
  6
CONTINUOUS
 62
     7
100
AcDbCircle
 10
1640.523252
 20
600.317013
 30
0.0
 40
5.0
100
AcDbArc
 50
180.0
 51
270.0
  0
ARC
  5
530
100
AcDbEntity
  8
LAY-1
  6
CONTINUOUS
 62
     7
100
AcDbCircle
 10
1720.523252
 20
600.317013
 30
0.0
 40
5.0
100
AcDbArc
 50
270.0
 51
0.0
  0
LINE
  5
531
100
AcDbEntity
  8
LAY-1
  6
CONTINUOUS
 62
     7
100
AcDbLine
 10
1725.523252
 20
624.077125
 30
0.0
 11
1725.523252
 21
600.317013
 31
0.0
  0
ARC
  5
532
100
AcDbEntity
  8
LAY-1
  6
CONTINUOUS
 62
     7
100
AcDbCircle
 10
1720.523252
 20
624.077125
 30
0.0
 40
5.0
100
AcDbArc
 50
0.0
 51
90.0
  0
ARC
  5
533
100
AcDbEntity
  8
LAY-1
  6
CONTINUOUS
 62
     7
100
AcDbCircle
 10
1675.244282
 20
909.981315
 30
0.0
 40
2.5
100
AcDbArc
 50
0.0
 51
90.0
  0
LINE
  5
534
100
AcDbEntity
  8
LAY-1
  6
CONTINUOUS
 62
     7
100
AcDbLine
 10
1630.244282
 20
912.481315
 30
0.0
 11
1675.244282
 21
912.481315
 31
0.0
  0
ARC
  5
535
100
AcDbEntity
  8
LAY-1
  6
CONTINUOUS
 62
     7
100
AcDbCircle
 10
1630.244282
 20
909.981315
 30
0.0
 40
2.5
100
AcDbArc
 50
90.0
 51
180.0
  0
LINE
  5
536
100
AcDbEntity
  8
LAY-1
  6
CONTINUOUS
 62
     7
100
AcDbLine
 10
1627.744282
 20
909.981315
 30
0.0
 11
1627.744282
 21
899.981315
 31
0.0
  0
ARC
  5
537
100
AcDbEntity
  8
LAY-1
  6
CONTINUOUS
 62
     7
100
AcDbCircle
 10
1630.244282
 20
899.981315
 30
0.0
 40
2.5
100
AcDbArc
 50
180.0
 51
270.0
  0
LINE
  5
538
100
AcDbEntity
  8
LAY-1
  6
CONTINUOUS
 62
     7
100
AcDbLine
 10
1677.744282
 20
909.981315
 30
0.0
 11
1677.744282
 21
899.981315
 31
0.0
  0
LINE
  5
539
100
AcDbEntity
  8
LAY-1
  6
CONTINUOUS
 62
     7
100
AcDbLine
 10
1630.244282
 20
897.481315
 30
0.0
 11
1675.244282
 21
897.481315
 31
0.0
  0
ARC
  5
53A
100
AcDbEntity
  8
LAY-1
  6
CONTINUOUS
 62
     7
100
AcDbCircle
 10
1675.244282
 20
899.981315
 30
0.0
 40
2.5
100
AcDbArc
 50
270.0
 51
0.0
  0
ARC
  5
53B
100
AcDbEntity
  8
LAY-1
  6
CONTINUOUS
 62
     7
100
AcDbCircle
 10
1675.244282
 20
909.981315
 30
0.0
 40
1.5
100
AcDbArc
 50
0.0
 51
90.0
  0
LINE
  5
53C
100
AcDbEntity
  8
LAY-1
  6
CONTINUOUS
 62
     7
100
AcDbLine
 10
1630.244282
 20
911.481315
 30
0.0
 11
1675.244282
 21
911.481315
 31
0.0
  0
ARC
  5
53D
100
AcDbEntity
  8
LAY-1
  6
CONTINUOUS
 62
     7
100
AcDbCircle
 10
1630.244282
 20
909.981315
 30
0.0
 40
1.5
100
AcDbArc
 50
90.0
 51
180.0
  0
LINE
  5
53E
100
AcDbEntity
  8
LAY-1
  6
CONTINUOUS
 62
     7
100
AcDbLine
 10
1628.744282
 20
909.981315
 30
0.0
 11
1628.744282
 21
899.981315
 31
0.0
  0
ARC
  5
53F
100
AcDbEntity
  8
LAY-1
  6
CONTINUOUS
 62
     7
100
AcDbCircle
 10
1630.244282
 20
899.981315
 30
0.0
 40
1.5
100
AcDbArc
 50
180.0
 51
270.0
  0
LINE
  5
540
100
AcDbEntity
  8
LAY-1
  6
CONTINUOUS
 62
     7
100
AcDbLine
 10
1676.744282
 20
909.981315
 30
0.0
 11
1676.744282
 21
899.981315
 31
0.0
  0
LINE
  5
541
100
AcDbEntity
  8
LAY-1
  6
CONTINUOUS
 62
     7
100
AcDbLine
 10
1630.244282
 20
898.481315
 30
0.0
 11
1675.244282
 21
898.481315
 31
0.0
  0
ARC
  5
542
100
AcDbEntity
  8
LAY-1
  6
CONTINUOUS
 62
     7
100
AcDbCircle
 10
1675.244282
 20
899.981315
 30
0.0
 40
1.5
100
AcDbArc
 50
270.0
 51
0.0
  0
LINE
  5
543
100
AcDbEntity
  8
LAY-1
  6
CONTINUOUS
 62
     7
100
AcDbLine
 10
1628.744282
 20
904.981315
 30
0.0
 11
1676.744282
 21
904.981315
 31
0.0
  0
ARC
  5
544
100
AcDbEntity
  8
LAY-1
  6
CONTINUOUS
 62
     7
100
AcDbCircle
 10
1587.91481
 20
991.681315
 30
0.0
 40
3.0
100
AcDbArc
 50
90.0
 51
180.0
  0
ARC
  5
545
100
AcDbEntity
  8
LAY-1
  6
CONTINUOUS
 62
     7
100
AcDbCircle
 10
1587.91481
 20
977.681315
 30
0.0
 40
3.0
100
AcDbArc
 50
180.0
 51
270.0
  0
LINE
  5
546
100
AcDbEntity
  8
LAY-1
  6
CONTINUOUS
 62
     7
100
AcDbLine
 10
1587.91481
 20
994.681315
 30
0.0
 11
1589.114766
 21
994.681315
 31
0.0
  0
LINE
  5
547
100
AcDbEntity
  8
LAY-1
  6
CONTINUOUS
 62
     7
100
AcDbLine
 10
1587.91481
 20
974.681315
 30
0.0
 11
1589.114766
 21
974.681315
 31
0.0
  0
LINE
  5
548
100
AcDbEntity
  8
LAY-1
  6
CONTINUOUS
 62
     7
100
AcDbLine
 10
1584.91481
 20
977.681315
 30
0.0
 11
1584.91481
 21
991.681315
 31
0.0
  0
LINE
  5
549
100
AcDbEntity
  8
LAY-1
  6
CONTINUOUS
 62
     7
100
AcDbLine
 10
1705.614766
 20
445.681315
 30
0.0
 11
1705.614766
 21
457.681315
 31
0.0
  0
LINE
  5
54A
100
AcDbEntity
  8
LAY-1
  6
CONTINUOUS
 62
     7
100
AcDbLine
 10
1668.964766
 20
461.641113
 30
0.0
 11
1672.924564
 21
457.681315
 31
0.0
  0
LINE
  5
54B
100
AcDbEntity
  8
LAY-1
  6
CONTINUOUS
 62
     7
100
AcDbLine
 10
1658.114766
 20
445.681315
 30
0.0
 11
1705.614766
 21
445.681315
 31
0.0
  0
LINE
  5
54C
100
AcDbEntity
  8
LAY-1
  6
CONTINUOUS
 62
     7
100
AcDbLine
 10
1610.614766
 20
445.681315
 30
0.0
 11
1610.614766
 21
457.681315
 31
0.0
  0
LINE
  5
54D
100
AcDbEntity
  8
LAY-1
  6
CONTINUOUS
 62
     7
100
AcDbLine
 10
1647.264766
 20
461.641113
 30
0.0
 11
1643.304968
 21
457.681315
 31
0.0
  0
LINE
  5
54E
100
AcDbEntity
  8
LAY-1
  6
CONTINUOUS
 62
     7
100
AcDbLine
 10
1658.114766
 20
445.681315
 30
0.0
 11
1610.614766
 21
445.681315
 31
0.0
  0
LINE
  5
54F
100
AcDbEntity
  8
LAY-1
  6
CONTINUOUS
 62
     7
100
AcDbLine
 10
1705.614766
 20
457.681315
 30
0.0
 11
1658.114766
 21
457.681315
 31
0.0
  0
LINE
  5
550
100
AcDbEntity
  8
LAY-1
  6
CONTINUOUS
 62
     7
100
AcDbLine
 10
1610.614766
 20
457.681315
 30
0.0
 11
1658.114766
 21
457.681315
 31
0.0
  0
LINE
  5
551
100
AcDbEntity
  8
LAY-1
  6
CONTINUOUS
 62
     7
100
AcDbLine
 10
1668.964766
 20
461.641113
 30
0.0
 11
1647.264766
 21
461.641113
 31
0.0
  0
LINE
  5
552
100
AcDbEntity
  8
LAY-1
  6
CONTINUOUS
 62
     7
100
AcDbLine
 10
1647.264766
 20
461.641113
 30
0.0
 11
1647.264766
 21
501.181315
 31
0.0
  0
LINE
  5
553
100
AcDbEntity
  8
LAY-1
  6
CONTINUOUS
 62
     7
100
AcDbLine
 10
1668.964766
 20
461.641113
 30
0.0
 11
1668.964766
 21
501.181315
 31
0.0
  0
LINE
  5
554
100
AcDbEntity
  8
LAY-1
  6
CONTINUOUS
 62
     7
100
AcDbLine
 10
1668.964766
 20
501.181315
 30
0.0
 11
1647.264766
 21
501.181315
 31
0.0
  0
LINE
  5
555
100
AcDbEntity
  8
LAY-1
  6
CONTINUOUS
 62
     7
100
AcDbLine
 10
1647.637266
 20
504.681315
 30
0.0
 11
1647.527274
 21
501.181315
 31
0.0
  0
LINE
  5
556
100
AcDbEntity
  8
LAY-1
  6
CONTINUOUS
 62
     7
100
AcDbLine
 10
1668.592266
 20
504.681315
 30
0.0
 11
1668.702258
 21
501.181315
 31
0.0
  0
LINE
  5
557
100
AcDbEntity
  8
LAY-1
  6
CONTINUOUS
 62
     7
100
AcDbLine
 10
1667.377105
 20
506.110377
 30
0.0
 11
1667.377105
 21
510.681315
 31
0.0
  0
LINE
  5
558
100
AcDbEntity
  8
LAY-1
  6
CONTINUOUS
 62
     7
100
AcDbLine
 10
1648.852428
 20
506.110377
 30
0.0
 11
1648.852428
 21
510.681315
 31
0.0
  0
ARC
  5
559
100
AcDbEntity
  8
LAY-1
  6
CONTINUOUS
 62
     7
100
AcDbCircle
 10
1671.98354
 20
512.820029
 30
0.0
 40
8.138715
100
AcDbArc
 50
235.528901
 51
304.471099
  0
ARC
  5
55A
100
AcDbEntity
  8
LAY-1
  6
CONTINUOUS
 62
     7
100
AcDbCircle
 10
1644.245993
 20
512.820029
 30
0.0
 40
8.138715
100
AcDbArc
 50
235.528901
 51
304.471099
  0
ARC
  5
55B
100
AcDbEntity
  8
LAY-1
  6
CONTINUOUS
 62
     7
100
AcDbCircle
 10
1658.114766
 20
535.412353
 30
0.0
 40
30.731038
100
AcDbArc
 50
252.458283
 51
287.541717
  0
LINE
  5
55C
100
AcDbEntity
  8
LAY-1
  6
CONTINUOUS
 62
     7
100
AcDbLine
 10
1642.114766
 20
504.681315
 30
0.0
 11
1674.114766
 21
504.681315
 31
0.0
  0
LINE
  5
55D
100
AcDbEntity
  8
LAY-1
  6
CONTINUOUS
 62
     7
100
AcDbLine
 10
1639.639558
 20
506.110377
 30
0.0
 11
1639.639558
 21
510.681315
 31
0.0
  0
LINE
  5
55E
100
AcDbEntity
  8
LAY-1
  6
CONTINUOUS
 62
     7
100
AcDbLine
 10
1676.589975
 20
506.110377
 30
0.0
 11
1674.114766
 21
504.681315
 31
0.0
  0
LINE
  5
55F
100
AcDbEntity
  8
LAY-1
  6
CONTINUOUS
 62
     7
100
AcDbLine
 10
1639.639558
 20
506.110377
 30
0.0
 11
1642.114766
 21
504.681315
 31
0.0
  0
LINE
  5
560
100
AcDbEntity
  8
LAY-1
  6
CONTINUOUS
 62
     7
100
AcDbLine
 10
1644.738016
 20
510.681315
 30
0.0
 11
1644.894266
 21
515.681315
 31
0.0
  0
LINE
  5
561
100
AcDbEntity
  8
LAY-1
  6
CONTINUOUS
 62
     7
100
AcDbLine
 10
1644.804543
 20
512.810168
 30
0.0
 11
1658.114766
 21
512.810168
 31
0.0
  0
CIRCLE
  5
562
100
AcDbEntity
  8
LAY-1
  6
CONTINUOUS
 62
     7
100
AcDbCircle
 10
1758.114766
 20
853.681315
 30
0.0
 40
12.5
  0
CIRCLE
  5
563
100
AcDbEntity
  8
LAY-1
  6
CONTINUOUS
 62
     7
100
AcDbCircle
 10
1758.114766
 20
853.681315
 30
0.0
 40
12.0
  0
LINE
  5
564
100
AcDbEntity
  8
LAY-1
  6
CONTINUOUS
 62
     7
100
AcDbLine
 10
1799.114766
 20
838.681315
 30
0.0
 11
1799.114766
 21
868.681315
 31
0.0
  0
LINE
  5
565
100
AcDbEntity
  8
LAY-1
  6
CONTINUOUS
 62
     7
100
AcDbLine
 10
1796.814766
 20
838.681315
 30
0.0
 11
1796.814766
 21
868.681315
 31
0.0
  0
LINE
  5
566
100
AcDbEntity
  8
LAY-1
  6
CONTINUOUS
 62
     7
100
AcDbLine
 10
1796.814766
 20
868.681315
 30
0.0
 11
1799.114766
 21
868.681315
 31
0.0
  0
LINE
  5
567
100
AcDbEntity
  8
LAY-1
  6
CONTINUOUS
 62
     7
100
AcDbLine
 10
1796.814766
 20
838.681315
 30
0.0
 11
1799.114766
 21
838.681315
 31
0.0
  0
LINE
  5
568
100
AcDbEntity
  8
LAY-1
  6
CONTINUOUS
 62
     7
100
AcDbLine
 10
1797.114766
 20
857.681315
 30
0.0
 11
1769.957486
 21
857.681315
 31
0.0
  0
LINE
  5
569
100
AcDbEntity
  8
LAY-1
  6
CONTINUOUS
 62
     7
100
AcDbLine
 10
1797.114766
 20
849.681315
 30
0.0
 11
1769.957486
 21
849.681315
 31
0.0
  0
CIRCLE
  5
56A
100
AcDbEntity
  8
LAY-1
  6
CONTINUOUS
 62
     7
100
AcDbCircle
 10
1758.114766
 20
603.681315
 30
0.0
 40
12.5
  0
CIRCLE
  5
56B
100
AcDbEntity
  8
LAY-1
  6
CONTINUOUS
 62
     7
100
AcDbCircle
 10
1758.114766
 20
603.681315
 30
0.0
 40
12.0
  0
LINE
  5
56C
100
AcDbEntity
  8
LAY-1
  6
CONTINUOUS
 62
     7
100
AcDbLine
 10
1796.814766
 20
618.681315
 30
0.0
 11
1796.814766
 21
588.681315
 31
0.0
  0
LINE
  5
56D
100
AcDbEntity
  8
LAY-1
  6
CONTINUOUS
 62
     7
100
AcDbLine
 10
1799.114766
 20
618.681315
 30
0.0
 11
1799.114766
 21
588.681315
 31
0.0
  0
LINE
  5
56E
100
AcDbEntity
  8
LAY-1
  6
CONTINUOUS
 62
     7
100
AcDbLine
 10
1796.814766
 20
618.681315
 30
0.0
 11
1799.114766
 21
618.681315
 31
0.0
  0
LINE
  5
56F
100
AcDbEntity
  8
LAY-1
  6
CONTINUOUS
 62
     7
100
AcDbLine
 10
1797.114766
 20
607.681315
 30
0.0
 11
1769.957486
 21
607.681315
 31
0.0
  0
LINE
  5
570
100
AcDbEntity
  8
LAY-1
  6
CONTINUOUS
 62
     7
100
AcDbLine
 10
1797.114766
 20
599.681315
 30
0.0
 11
1769.957486
 21
599.681315
 31
0.0
  0
LINE
  5
571
100
AcDbEntity
  8
LAY-1
  6
CONTINUOUS
 62
     7
100
AcDbLine
 10
1796.814766
 20
588.681315
 30
0.0
 11
1799.114766
 21
588.681315
 31
0.0
  0
CIRCLE
  5
572
100
AcDbEntity
  8
LAY-1
  6
CONTINUOUS
 62
     7
100
AcDbCircle
 10
1700.114766
 20
905.181315
 30
0.0
 40
17.5
  0
LINE
  5
573
100
AcDbEntity
  8
LAY-1
  6
CONTINUOUS
 62
     7
100
AcDbLine
 10
1671.714766
 20
567.355315
 30
0.0
 11
1671.349954
 21
555.681315
 31
0.0
  0
LINE
  5
574
100
AcDbEntity
  8
LAY-1
  6
CONTINUOUS
 62
     7
100
AcDbLine
 10
1663.614766
 20
564.741315
 30
0.0
 11
1671.633079
 21
564.741315
 31
0.0
  0
LINE
  5
575
100
AcDbEntity
  8
LAY-1
  6
CONTINUOUS
 62
     7
100
AcDbLine
 10
1674.114766
 20
555.681315
 30
0.0
 11
1674.114766
 21
515.681315
 31
0.0
  0
LINE
  5
576
100
AcDbEntity
  8
LAY-1
  6
CONTINUOUS
 62
     7
100
AcDbLine
 10
1674.114766
 20
555.681315
 30
0.0
 11
1658.114766
 21
555.681315
 31
0.0
  0
LINE
  5
577
100
AcDbEntity
  8
LAY-1
  6
CONTINUOUS
 62
     7
100
AcDbLine
 10
1642.114766
 20
555.681315
 30
0.0
 11
1658.114766
 21
555.681315
 31
0.0
  0
LINE
  5
578
100
AcDbEntity
  8
LAY-1
  6
CONTINUOUS
 62
     7
100
AcDbLine
 10
1642.114766
 20
515.681315
 30
0.0
 11
1674.114766
 21
515.681315
 31
0.0
  0
LINE
  5
579
100
AcDbEntity
  8
LAY-1
  6
CONTINUOUS
 62
     7
100
AcDbLine
 10
1639.639558
 20
510.681315
 30
0.0
 11
1676.589975
 21
510.681315
 31
0.0
  0
LINE
  5
57A
100
AcDbEntity
  8
LAY-1
  6
CONTINUOUS
 62
     7
100
AcDbLine
 10
1676.589975
 20
506.110377
 30
0.0
 11
1676.589975
 21
510.681315
 31
0.0
  0
LINE
  5
57B
100
AcDbEntity
  8
LAY-1
  6
CONTINUOUS
 62
     7
100
AcDbLine
 10
1671.491516
 20
510.681315
 30
0.0
 11
1671.335266
 21
515.681315
 31
0.0
  0
LINE
  5
57C
100
AcDbEntity
  8
LAY-1
  6
CONTINUOUS
 62
     7
100
AcDbLine
 10
1671.42499
 20
512.810168
 30
0.0
 11
1658.114766
 21
512.810168
 31
0.0
  0
LINE
  5
57D
100
AcDbEntity
  8
LAY-1
  6
CONTINUOUS
 62
     7
100
AcDbLine
 10
1662.614766
 20
581.681315
 30
0.0
 11
1662.614766
 21
563.681315
 31
0.0
  0
LINE
  5
57E
100
AcDbEntity
  8
LAY-1
  6
CONTINUOUS
 62
     7
100
AcDbLine
 10
1662.614766
 20
563.681315
 30
0.0
 11
1637.614766
 21
563.681315
 31
0.0
  0
LINE
  5
57F
100
AcDbEntity
  8
LAY-1
  6
CONTINUOUS
 62
     7
100
AcDbLine
 10
1637.614766
 20
581.681315
 30
0.0
 11
1637.614766
 21
563.681315
 31
0.0
  0
LINE
  5
580
100
AcDbEntity
  8
LAY-1
  6
CONTINUOUS
 62
     7
100
AcDbLine
 10
1701.614766
 20
518.181315
 30
0.0
 11
1688.552589
 21
518.181315
 31
0.0
  0
LINE
  5
581
100
AcDbEntity
  8
LAY-1
  6
CONTINUOUS
 62
     7
100
AcDbLine
 10
1702.464144
 20
521.681315
 30
0.0
 11
1685.30284
 21
521.681315
 31
0.0
  0
LINE
  5
582
100
AcDbEntity
  8
LAY-1
  6
CONTINUOUS
 62
     7
100
AcDbLine
 10
1683.614876
 20
537.18168
 30
0.0
 11
1702.464144
 21
537.18168
 31
0.0
  0
LINE
  5
583
100
AcDbEntity
  8
LAY-1
  6
CONTINUOUS
 62
     7
100
AcDbLine
 10
1684.114871
 20
545.681595
 30
0.0
 11
1702.074144
 21
545.681595
 31
0.0
  0
LINE
  5
584
100
AcDbEntity
  8
LAY-1
  6
CONTINUOUS
 62
     7
100
AcDbLine
 10
1700.614766
 20
512.181315
 30
0.0
 11
1687.614766
 21
512.181315
 31
0.0
  0
LINE
  5
585
100
AcDbEntity
  8
LAY-1
  6
CONTINUOUS
 62
     7
100
AcDbLine
 10
1701.177577
 20
521.680549
 30
0.0
 11
1701.287545
 21
518.181315
 31
0.0
  0
ARC
  5
586
100
AcDbEntity
  8
LAY-1
  6
CONTINUOUS
 62
     7
100
AcDbCircle
 10
1688.552589
 20
514.603163
 30
0.0
 40
3.578152
100
AcDbArc
 50
89.004317
 51
124.384247
  0
LINE
  5
587
100
AcDbEntity
  8
LAY-1
  6
CONTINUOUS
 62
     7
100
AcDbLine
 10
1702.69767
 20
517.5561
 30
0.0
 11
1701.614766
 21
518.181315
 31
0.0
  0
LINE
  5
588
100
AcDbEntity
  8
LAY-1
  6
CONTINUOUS
 62
     7
100
AcDbLine
 10
1687.614766
 20
518.181315
 30
0.0
 11
1686.531863
 21
517.5561
 31
0.0
  0
LINE
  5
589
100
AcDbEntity
  8
LAY-1
  6
CONTINUOUS
 62
     7
100
AcDbLine
 10
1687.614766
 20
512.181315
 30
0.0
 11
1686.531863
 21
512.80653
 31
0.0
  0
LINE
  5
58A
100
AcDbEntity
  8
LAY-1
  6
CONTINUOUS
 62
     7
100
AcDbLine
 10
1701.614766
 20
512.181315
 30
0.0
 11
1700.614766
 21
512.181315
 31
0.0
  0
LINE
  5
58B
100
AcDbEntity
  8
LAY-1
  6
CONTINUOUS
 62
     7
100
AcDbLine
 10
1702.69767
 20
512.80653
 30
0.0
 11
1701.614766
 21
512.181315
 31
0.0
  0
LINE
  5
58C
100
AcDbEntity
  8
LAY-1
  6
CONTINUOUS
 62
     7
100
AcDbLine
 10
1702.69767
 20
517.5561
 30
0.0
 11
1702.69767
 21
512.80653
 31
0.0
  0
LINE
  5
58D
100
AcDbEntity
  8
LAY-1
  6
CONTINUOUS
 62
     7
100
AcDbLine
 10
1688.552589
 20
518.181315
 30
0.0
 11
1687.614766
 21
518.181315
 31
0.0
  0
LINE
  5
58E
100
AcDbEntity
  8
LAY-1
  6
CONTINUOUS
 62
     7
100
AcDbLine
 10
1705.114661
 20
545.681595
 30
0.0
 11
1701.614696
 21
545.681595
 31
0.0
  0
LINE
  5
58F
100
AcDbEntity
  8
LAY-1
  6
CONTINUOUS
 62
     7
100
AcDbLine
 10
1683.114881
 20
544.681605
 30
0.0
 11
1683.114881
 21
537.681675
 31
0.0
  0
LINE
  5
590
100
AcDbEntity
  8
LAY-1
  6
CONTINUOUS
 62
     7
100
AcDbLine
 10
1703.926692
 20
522.367189
 30
0.0
 11
1705.114661
 21
523.053063
 31
0.0
  0
LINE
  5
591
100
AcDbEntity
  8
LAY-1
  6
CONTINUOUS
 62
     7
100
AcDbLine
 10
1703.926692
 20
521.681315
 30
0.0
 11
1705.114661
 21
522.367189
 31
0.0
  0
LINE
  5
592
100
AcDbEntity
  8
LAY-1
  6
CONTINUOUS
 62
     7
100
AcDbLine
 10
1684.114871
 20
545.681595
 30
0.0
 11
1683.114881
 21
544.681605
 31
0.0
  0
LINE
  5
593
100
AcDbEntity
  8
LAY-1
  6
CONTINUOUS
 62
     7
100
AcDbLine
 10
1684.114871
 20
573.18132
 30
0.0
 11
1684.114871
 21
545.681595
 31
0.0
  0
LINE
  5
594
100
AcDbEntity
  8
LAY-1
  6
CONTINUOUS
 62
     7
100
AcDbLine
 10
1705.114661
 20
545.681595
 30
0.0
 11
1705.114661
 21
552.18153
 31
0.0
  0
LINE
  5
595
100
AcDbEntity
  8
LAY-1
  6
CONTINUOUS
 62
     7
100
AcDbLine
 10
1706.114651
 20
544.681605
 30
0.0
 11
1705.114661
 21
545.681595
 31
0.0
  0
LINE
  5
596
100
AcDbEntity
  8
LAY-1
  6
CONTINUOUS
 62
     7
100
AcDbLine
 10
1706.114651
 20
537.681675
 30
0.0
 11
1706.114651
 21
544.681605
 31
0.0
  0
LINE
  5
597
100
AcDbEntity
  8
LAY-1
  6
CONTINUOUS
 62
     7
100
AcDbLine
 10
1685.30284
 20
573.18132
 30
0.0
 11
1684.114871
 21
573.18132
 31
0.0
  0
ARC
  5
598
100
AcDbEntity
  8
LAY-1
  6
CONTINUOUS
 62
     7
100
AcDbCircle
 10
1689.364819
 20
556.931482
 30
0.0
 40
16.749833
100
AcDbArc
 50
75.965352
 51
104.034648
  0
LINE
  5
599
100
AcDbEntity
  8
LAY-1
  6
CONTINUOUS
 62
     7
100
AcDbLine
 10
1704.114671
 20
537.18168
 30
0.0
 11
1704.114671
 21
535.681695
 31
0.0
  0
LINE
  5
59A
100
AcDbEntity
  8
LAY-1
  6
CONTINUOUS
 62
     7
100
AcDbLine
 10
1685.114861
 20
535.681695
 30
0.0
 11
1685.114861
 21
537.18168
 31
0.0
  0
LINE
  5
59B
100
AcDbEntity
  8
LAY-1
  6
CONTINUOUS
 62
     7
100
AcDbLine
 10
1685.30284
 20
522.367189
 30
0.0
 11
1685.30284
 21
534.99582
 31
0.0
  0
LINE
  5
59C
100
AcDbEntity
  8
LAY-1
  6
CONTINUOUS
 62
     7
100
AcDbLine
 10
1703.926692
 20
534.99582
 30
0.0
 11
1703.926692
 21
522.367189
 31
0.0
  0
ARC
  5
59D
100
AcDbEntity
  8
LAY-1
  6
CONTINUOUS
 62
     7
100
AcDbCircle
 10
1699.864714
 20
534.052456
 30
0.0
 40
12.371142
100
AcDbArc
 50
277.168472
 51
289.168237
  0
ARC
  5
59E
100
AcDbEntity
  8
LAY-1
  6
CONTINUOUS
 62
     7
100
AcDbCircle
 10
1689.364819
 20
534.052456
 30
0.0
 40
12.371142
100
AcDbArc
 50
250.831763
 51
262.831527
  0
LINE
  5
59F
100
AcDbEntity
  8
LAY-1
  6
CONTINUOUS
 62
     7
100
AcDbLine
 10
1700.114711
 20
537.18168
 30
0.0
 11
1705.614656
 21
537.18168
 31
0.0
  0
LINE
  5
5A0
100
AcDbEntity
  8
LAY-1
  6
CONTINUOUS
 62
     7
100
AcDbLine
 10
1700.114711
 20
535.681695
 30
0.0
 11
1703.926692
 21
535.681695
 31
0.0
  0
ARC
  5
5A1
100
AcDbEntity
  8
LAY-1
  6
CONTINUOUS
 62
     7
100
AcDbCircle
 10
1689.364819
 20
523.310553
 30
0.0
 40
12.371142
100
AcDbArc
 50
91.157919
 51
109.168237
  0
LINE
  5
5A2
100
AcDbEntity
  8
LAY-1
  6
CONTINUOUS
 62
     7
100
AcDbLine
 10
1705.114661
 20
534.99582
 30
0.0
 11
1703.926692
 21
534.99582
 31
0.0
  0
LINE
  5
5A3
100
AcDbEntity
  8
LAY-1
  6
CONTINUOUS
 62
     7
100
AcDbLine
 10
1703.926692
 20
522.367189
 30
0.0
 11
1705.114661
 21
522.367189
 31
0.0
  0
ARC
  5
5A4
100
AcDbEntity
  8
LAY-1
  6
CONTINUOUS
 62
     7
100
AcDbCircle
 10
1699.864714
 20
523.310553
 30
0.0
 40
12.371142
100
AcDbArc
 50
70.831763
 51
88.842081
  0
LINE
  5
5A5
100
AcDbEntity
  8
LAY-1
  6
CONTINUOUS
 62
     7
100
AcDbLine
 10
1685.30284
 20
522.367189
 30
0.0
 11
1684.114871
 21
522.367189
 31
0.0
  0
LINE
  5
5A6
100
AcDbEntity
  8
LAY-1
  6
CONTINUOUS
 62
     7
100
AcDbLine
 10
1684.114871
 20
534.99582
 30
0.0
 11
1685.30284
 21
534.99582
 31
0.0
  0
LINE
  5
5A7
100
AcDbEntity
  8
LAY-1
  6
CONTINUOUS
 62
     7
100
AcDbLine
 10
1685.30284
 20
535.681695
 30
0.0
 11
1684.114871
 21
534.99582
 31
0.0
  0
LINE
  5
5A8
100
AcDbEntity
  8
LAY-1
  6
CONTINUOUS
 62
     7
100
AcDbLine
 10
1705.114661
 20
534.99582
 30
0.0
 11
1703.926692
 21
535.681695
 31
0.0
  0
LINE
  5
5A9
100
AcDbEntity
  8
LAY-1
  6
CONTINUOUS
 62
     7
100
AcDbLine
 10
1684.114871
 20
522.367189
 30
0.0
 11
1684.114871
 21
534.99582
 31
0.0
  0
LINE
  5
5AA
100
AcDbEntity
  8
LAY-1
  6
CONTINUOUS
 62
     7
100
AcDbLine
 10
1685.30284
 20
521.681315
 30
0.0
 11
1684.114871
 21
522.367189
 31
0.0
  0
LINE
  5
5AB
100
AcDbEntity
  8
LAY-1
  6
CONTINUOUS
 62
     7
100
AcDbLine
 10
1703.926692
 20
521.681315
 30
0.0
 11
1701.399424
 21
521.681315
 31
0.0
  0
LINE
  5
5AC
100
AcDbEntity
  8
LAY-1
  6
CONTINUOUS
 62
     7
100
AcDbLine
 10
1705.114661
 20
534.99582
 30
0.0
 11
1705.114661
 21
522.367189
 31
0.0
  0
LINE
  5
5AD
100
AcDbEntity
  8
LAY-1
  6
CONTINUOUS
 62
     7
100
AcDbLine
 10
1685.30284
 20
561.18144
 30
0.0
 11
1685.30284
 21
573.18132
 31
0.0
  0
LINE
  5
5AE
100
AcDbEntity
  8
LAY-1
  6
CONTINUOUS
 62
     7
100
AcDbLine
 10
1693.426797
 20
561.18144
 30
0.0
 11
1685.30284
 21
561.18144
 31
0.0
  0
LINE
  5
5AF
100
AcDbEntity
  8
LAY-1
  6
CONTINUOUS
 62
     7
100
AcDbLine
 10
1693.426797
 20
573.18132
 30
0.0
 11
1693.426797
 21
561.18144
 31
0.0
  0
LINE
  5
5B0
100
AcDbEntity
  8
LAY-1
  6
CONTINUOUS
 62
     7
100
AcDbLine
 10
1703.926692
 20
561.18144
 30
0.0
 11
1695.802735
 21
561.18144
 31
0.0
  0
LINE
  5
5B1
100
AcDbEntity
  8
LAY-1
  6
CONTINUOUS
 62
     7
100
AcDbLine
 10
1683.114881
 20
537.681675
 30
0.0
 11
1683.614876
 21
537.18168
 31
0.0
  0
LINE
  5
5B2
100
AcDbEntity
  8
LAY-1
  6
CONTINUOUS
 62
     7
100
AcDbLine
 10
1705.614656
 20
537.18168
 30
0.0
 11
1706.114651
 21
537.681675
 31
0.0
  0
LINE
  5
5B3
100
AcDbEntity
  8
LAY-1
  6
CONTINUOUS
 62
     7
100
AcDbLine
 10
1684.614866
 20
573.681315
 30
0.0
 11
1684.114871
 21
573.18132
 31
0.0
  0
LINE
  5
5B4
100
AcDbEntity
  8
LAY-1
  6
CONTINUOUS
 62
     7
100
AcDbLine
 10
1688.052018
 20
521.682552
 30
0.0
 11
1687.941988
 21
518.181315
 31
0.0
  0
LINE
  5
5B5
100
AcDbEntity
  8
LAY-1
  6
CONTINUOUS
 62
     7
100
AcDbLine
 10
1685.114861
 20
535.681695
 30
0.0
 11
1700.114711
 21
535.681695
 31
0.0
  0
LINE
  5
5B6
100
AcDbEntity
  8
LAY-1
  6
CONTINUOUS
 62
     7
100
AcDbLine
 10
1716.623924
 20
559.172082
 30
0.0
 11
1712.623964
 21
557.672097
 31
0.0
  0
LINE
  5
5B7
100
AcDbEntity
  8
LAY-1
  6
CONTINUOUS
 62
     7
100
AcDbLine
 10
1712.623964
 20
546.672207
 30
0.0
 11
1716.623924
 21
545.172222
 31
0.0
  0
LINE
  5
5B8
100
AcDbEntity
  8
LAY-1
  6
CONTINUOUS
 62
     7
100
AcDbLine
 10
1686.531863
 20
517.5561
 30
0.0
 11
1686.531863
 21
512.80653
 31
0.0
  0
LINE
  5
5B9
100
AcDbEntity
  8
LAY-1
  6
CONTINUOUS
 62
     7
100
AcDbLine
 10
1694.614766
 20
579.691315
 30
0.0
 11
1687.848454
 21
579.691315
 31
0.0
  0
LINE
  5
5BA
100
AcDbEntity
  8
LAY-1
  6
CONTINUOUS
 62
     7
100
AcDbLine
 10
1687.786266
 20
581.681315
 30
0.0
 11
1688.036266
 21
573.681315
 31
0.0
  0
LINE
  5
5BB
100
AcDbEntity
  8
LAY-1
  6
CONTINUOUS
 62
     7
100
AcDbLine
 10
1712.623964
 20
557.672097
 30
0.0
 11
1705.114661
 21
557.672097
 31
0.0
  0
LINE
  5
5BC
100
AcDbEntity
  8
LAY-1
  6
CONTINUOUS
 62
     7
100
AcDbLine
 10
1705.114661
 20
546.672207
 30
0.0
 11
1712.623964
 21
546.672207
 31
0.0
  0
LINE
  5
5BD
100
AcDbEntity
  8
LAY-1
  6
CONTINUOUS
 62
     7
100
AcDbLine
 10
1706.114651
 20
544.681605
 30
0.0
 11
1683.114881
 21
544.681605
 31
0.0
  0
LINE
  5
5BE
100
AcDbEntity
  8
LAY-1
  6
CONTINUOUS
 62
     7
100
AcDbLine
 10
1695.614766
 20
563.681315
 30
0.0
 11
1720.614766
 21
563.681315
 31
0.0
  0
LINE
  5
5BF
100
AcDbEntity
  8
LAY-1
  6
CONTINUOUS
 62
     7
100
AcDbLine
 10
1720.614766
 20
581.681315
 30
0.0
 11
1720.614766
 21
563.681315
 31
0.0
  0
LINE
  5
5C0
100
AcDbEntity
  8
LAY-1
  6
CONTINUOUS
 62
     7
100
AcDbLine
 10
1695.614766
 20
581.681315
 30
0.0
 11
1695.614766
 21
563.681315
 31
0.0
  0
LINE
  5
5C1
100
AcDbEntity
  8
LAY-1
  6
CONTINUOUS
 62
     7
100
AcDbLine
 10
1694.614766
 20
579.691315
 30
0.0
 11
1695.614766
 21
579.691315
 31
0.0
  0
LINE
  5
5C2
100
AcDbEntity
  8
LAY-1
  6
CONTINUOUS
 62
     7
100
AcDbLine
 10
1695.614766
 20
573.681315
 30
0.0
 11
1684.614866
 21
573.681315
 31
0.0
  0
LINE
  5
5C3
100
AcDbEntity
  8
LAY-1
  6
CONTINUOUS
 62
     7
100
AcDbLine
 10
1695.802735
 20
561.18144
 30
0.0
 11
1695.802735
 21
563.681315
 31
0.0
  0
LINE
  5
5C4
100
AcDbEntity
  8
LAY-1
  6
CONTINUOUS
 62
     7
100
AcDbLine
 10
1695.614766
 20
573.18132
 30
0.0
 11
1693.426797
 21
573.18132
 31
0.0
  0
LINE
  5
5C5
100
AcDbEntity
  8
LAY-1
  6
CONTINUOUS
 62
     7
100
AcDbLine
 10
1703.926692
 20
563.681315
 30
0.0
 11
1703.926692
 21
561.18144
 31
0.0
  0
LINE
  5
5C6
100
AcDbEntity
  8
LAY-1
  6
CONTINUOUS
 62
     7
100
AcDbLine
 10
1705.114661
 20
552.18153
 30
0.0
 11
1705.114661
 21
563.681315
 31
0.0
  0
LINE
  5
5C7
100
AcDbEntity
  8
LAY-1
  6
CONTINUOUS
 62
     7
100
AcDbLine
 10
1716.623924
 20
545.172222
 30
0.0
 11
1723.623854
 21
545.172222
 31
0.0
  0
LINE
  5
5C8
100
AcDbEntity
  8
LAY-1
  6
CONTINUOUS
 62
     7
100
AcDbLine
 10
1723.623854
 20
559.172082
 30
0.0
 11
1716.623924
 21
559.172082
 31
0.0
  0
LINE
  5
5C9
100
AcDbEntity
  8
LAY-1
  6
CONTINUOUS
 62
     7
100
AcDbLine
 10
1750.542941
 20
556.652524
 30
0.0
 11
1723.623854
 21
559.172082
 31
0.0
  0
LINE
  5
5CA
100
AcDbEntity
  8
LAY-1
  6
CONTINUOUS
 62
     7
100
AcDbLine
 10
1723.623854
 20
545.172222
 30
0.0
 11
1750.542941
 21
547.691779
 31
0.0
  0
ARC
  5
5CB
100
AcDbEntity
  8
LAY-1
  6
CONTINUOUS
 62
     7
100
AcDbCircle
 10
1750.123589
 20
552.172152
 30
0.0
 40
4.499955
100
AcDbArc
 50
275.347159
 51
84.65284
  0
LINE
  5
5CC
100
AcDbEntity
  8
LAY-1
  6
CONTINUOUS
 62
     7
100
AcDbLine
 10
1663.614766
 20
564.741315
 30
0.0
 11
1662.614766
 21
564.741315
 31
0.0
  0
LINE
  5
5CD
100
AcDbEntity
  8
LAY-1
  6
CONTINUOUS
 62
     7
100
AcDbLine
 10
1644.629579
 20
563.681315
 30
0.0
 11
1644.879579
 21
555.681315
 31
0.0
  0
LINE
  5
5CE
100
AcDbEntity
  8
LAY-1
  6
CONTINUOUS
 62
     7
100
AcDbLine
 10
1671.714766
 20
581.681315
 30
0.0
 11
1671.714766
 21
567.355315
 31
0.0
  0
LINE
  5
5CF
100
AcDbEntity
  8
LAY-1
  6
CONTINUOUS
 62
     7
100
AcDbLine
 10
1028.528421
 20
1206.481358
 30
0.0
 11
976.392586
 21
1206.481358
 31
0.0
  0
LINE
  5
5D0
100
AcDbEntity
  8
LAY-1
  6
CONTINUOUS
 62
     7
100
AcDbLine
 10
978.008448
 20
1195.457999
 30
0.0
 11
977.480403
 21
1205.533694
 31
0.0
  0
ARC
  5
5D1
100
AcDbEntity
  8
LAY-1
  6
CONTINUOUS
 62
     7
100
AcDbCircle
 10
1038.351991
 20
1219.481358
 30
0.0
 40
3.0
100
AcDbArc
 50
183.0
 51
270.0
  0
ARC
  5
5D2
100
AcDbEntity
  8
LAY-1
  6
CONTINUOUS
 62
     7
100
AcDbCircle
 10
1017.015452
 20
1195.981358
 30
0.0
 40
10.0
100
AcDbArc
 50
270.0
 51
357.0
  0
LINE
  5
5D3
100
AcDbEntity
  8
LAY-1
  6
CONTINUOUS
 62
     7
100
AcDbLine
 10
1028.528421
 20
1206.481358
 30
0.0
 11
1028.617608
 21
1206.481358
 31
0.0
  0
ARC
  5
5D4
100
AcDbEntity
  8
LAY-1
  6
CONTINUOUS
 62
     7
100
AcDbCircle
 10
1028.617608
 20
1209.481358
 30
0.0
 40
3.0
100
AcDbArc
 50
270.0
 51
357.0
  0
ARC
  5
5D5
100
AcDbEntity
  8
LAY-1
  6
CONTINUOUS
 62
     7
100
AcDbCircle
 10
1028.528421
 20
1205.481358
 30
0.0
 40
1.0
100
AcDbArc
 50
90.0
 51
177.0
  0
ARC
  5
5D6
100
AcDbEntity
  8
LAY-1
  6
CONTINUOUS
 62
     7
100
AcDbCircle
 10
976.481773
 20
1205.481358
 30
0.0
 40
1.0
100
AcDbArc
 50
3.0
 51
90.0
  0
ARC
  5
5D7
100
AcDbEntity
  8
LAY-1
  6
CONTINUOUS
 62
     7
100
AcDbCircle
 10
976.392586
 20
1209.481358
 30
0.0
 40
3.0
100
AcDbArc
 50
183.0
 51
270.0
  0
ARC
  5
5D8
100
AcDbEntity
  8
LAY-1
  6
CONTINUOUS
 62
     7
100
AcDbCircle
 10
987.994743
 20
1195.981358
 30
0.0
 40
10.0
100
AcDbArc
 50
183.0
 51
270.0
  0
LINE
  5
5D9
100
AcDbEntity
  8
LAY-1
  6
CONTINUOUS
 62
     7
100
AcDbLine
 10
987.994743
 20
1185.981358
 30
0.0
 11
1002.505097
 21
1185.981358
 31
0.0
  0
LINE
  5
5DA
100
AcDbEntity
  8
LAY-1
  6
CONTINUOUS
 62
     7
100
AcDbLine
 10
1017.015452
 20
1185.981358
 30
0.0
 11
1002.505097
 21
1185.981358
 31
0.0
  0
LINE
  5
5DB
100
AcDbEntity
  8
LAY-1
  6
CONTINUOUS
 62
     7
100
AcDbLine
 10
1027.001747
 20
1195.457999
 30
0.0
 11
1027.529792
 21
1205.533694
 31
0.0
  0
LINE
  5
5DC
100
AcDbEntity
  8
LAY-1
  6
CONTINUOUS
 62
     7
100
AcDbLine
 10
1047.37931
 20
1216.481358
 30
0.0
 11
1038.351991
 21
1216.481358
 31
0.0
  0
ARC
  5
5DD
100
AcDbEntity
  8
LAY-1
  6
CONTINUOUS
 62
     7
100
AcDbCircle
 10
1047.37931
 20
1219.481358
 30
0.0
 40
3.0
100
AcDbArc
 50
270.0
 51
357.0
  0
LINE
  5
5DE
100
AcDbEntity
  8
LAY-1
  6
CONTINUOUS
 62
     7
100
AcDbLine
 10
1050.446314
 20
1220.681315
 30
0.0
 11
1050.375199
 21
1219.32435
 31
0.0
  0
LINE
  5
5DF
100
AcDbEntity
  8
LAY-1
  6
CONTINUOUS
 62
     7
100
AcDbLine
 10
1035.356102
 20
1219.32435
 30
0.0
 11
1035.284987
 21
1220.681315
 31
0.0
  0
LINE
  5
5E0
100
AcDbEntity
  8
LAY-1
  6
CONTINUOUS
 62
     7
100
AcDbLine
 10
1032.20869
 20
1220.681315
 30
0.0
 11
1031.613497
 21
1209.32435
 31
0.0
  0
LINE
  5
5E1
100
AcDbEntity
  8
LAY-1
  6
CONTINUOUS
 62
     7
100
AcDbLine
 10
972.801504
 20
1220.681315
 30
0.0
 11
973.396698
 21
1209.32435
 31
0.0
  0
LINE
  5
5E2
100
AcDbEntity
  8
LAY-1
  6
CONTINUOUS
 62
     7
100
AcDbLine
 10
899.005097
 20
1428.681315
 30
0.0
 11
959.005097
 21
1428.681315
 31
0.0
  0
LINE
  5
5E3
100
AcDbEntity
  8
LAY-1
  6
CONTINUOUS
 62
     7
100
AcDbLine
 10
899.005097
 20
1428.681315
 30
0.0
 11
899.005097
 21
1287.181315
 31
0.0
  0
LINE
  5
5E4
100
AcDbEntity
  8
LAY-1
  6
CONTINUOUS
 62
     7
100
AcDbLine
 10
959.005097
 20
1428.681315
 30
0.0
 11
959.005097
 21
1287.181315
 31
0.0
  0
CIRCLE
  5
5E5
100
AcDbEntity
  8
LAY-1
  6
CONTINUOUS
 62
     7
100
AcDbCircle
 10
954.005097
 20
1358.681315
 30
0.0
 40
2.5
  0
CIRCLE
  5
5E6
100
AcDbEntity
  8
LAY-1
  6
CONTINUOUS
 62
     7
100
AcDbCircle
 10
904.005097
 20
1358.681315
 30
0.0
 40
2.5
  0
LINE
  5
5E7
100
AcDbEntity
  8
LAY-1
  6
CONTINUOUS
 62
     7
100
AcDbLine
 10
959.005097
 20
1287.181315
 30
0.0
 11
946.505097
 21
1287.181315
 31
0.0
  0
LINE
  5
5E8
100
AcDbEntity
  8
LAY-1
  6
CONTINUOUS
 62
     7
100
AcDbLine
 10
899.005097
 20
1287.181315
 30
0.0
 11
911.505097
 21
1287.181315
 31
0.0
  0
CIRCLE
  5
5E9
100
AcDbEntity
  8
LAY-1
  6
CONTINUOUS
 62
     7
100
AcDbCircle
 10
929.005097
 20
1287.181315
 30
0.0
 40
17.5
  0
ARC
  5
5EA
100
AcDbEntity
  8
LAY-1
  6
CONTINUOUS
 62
     7
100
AcDbCircle
 10
1034.314766
 20
929.981315
 30
0.0
 40
2.0
100
AcDbArc
 50
0.0
 51
90.0
  0
LINE
  5
5EB
100
AcDbEntity
  8
LAY-1
  6
CONTINUOUS
 62
     7
100
AcDbLine
 10
972.314766
 20
931.981315
 30
0.0
 11
1034.314766
 21
931.981315
 31
0.0
  0
ARC
  5
5EC
100
AcDbEntity
  8
LAY-1
  6
CONTINUOUS
 62
     7
100
AcDbCircle
 10
972.314766
 20
929.981315
 30
0.0
 40
2.0
100
AcDbArc
 50
90.0
 51
180.0
  0
LINE
  5
5ED
100
AcDbEntity
  8
LAY-1
  6
CONTINUOUS
 62
     7
100
AcDbLine
 10
1036.314766
 20
929.981315
 30
0.0
 11
1036.314766
 21
913.981315
 31
0.0
  0
ARC
  5
5EE
100
AcDbEntity
  8
LAY-1
  6
CONTINUOUS
 62
     7
100
AcDbCircle
 10
1034.314766
 20
913.981315
 30
0.0
 40
2.0
100
AcDbArc
 50
270.0
 51
0.0
  0
LINE
  5
5EF
100
AcDbEntity
  8
LAY-1
  6
CONTINUOUS
 62
     7
100
AcDbLine
 10
972.314766
 20
911.981315
 30
0.0
 11
1034.314766
 21
911.981315
 31
0.0
  0
LINE
  5
5F0
100
AcDbEntity
  8
LAY-1
  6
CONTINUOUS
 62
     7
100
AcDbLine
 10
970.314766
 20
929.981315
 30
0.0
 11
970.314766
 21
913.981315
 31
0.0
  0
ARC
  5
5F1
100
AcDbEntity
  8
LAY-1
  6
CONTINUOUS
 62
     7
100
AcDbCircle
 10
972.314766
 20
913.981315
 30
0.0
 40
2.0
100
AcDbArc
 50
180.0
 51
270.0
  0
LINE
  5
5F2
100
AcDbEntity
  8
LAY-1
  6
CONTINUOUS
 62
     7
100
AcDbLine
 10
852.505097
 20
1361.681315
 30
0.0
 11
852.505097
 21
1344.681315
 31
0.0
  0
LINE
  5
5F3
100
AcDbEntity
  8
LAY-1
  6
CONTINUOUS
 62
     7
100
AcDbLine
 10
857.054077
 20
1333.831315
 30
0.0
 11
852.505097
 21
1329.282335
 31
0.0
  0
LINE
  5
5F4
100
AcDbEntity
  8
LAY-1
  6
CONTINUOUS
 62
     7
100
AcDbLine
 10
857.054077
 20
1355.531315
 30
0.0
 11
857.054077
 21
1333.831315
 31
0.0
  0
LINE
  5
5F5
100
AcDbEntity
  8
LAY-1
  6
CONTINUOUS
 62
     7
100
AcDbLine
 10
857.054077
 20
1355.531315
 30
0.0
 11
852.505097
 21
1360.080294
 31
0.0
  0
LINE
  5
5F6
100
AcDbEntity
  8
LAY-1
  6
CONTINUOUS
 62
     7
100
AcDbLine
 10
852.505097
 20
1344.681315
 30
0.0
 11
852.505097
 21
1327.681315
 31
0.0
  0
LINE
  5
5F7
100
AcDbEntity
  8
LAY-1
  6
CONTINUOUS
 62
     7
100
AcDbLine
 10
852.505097
 20
1361.681315
 30
0.0
 11
849.847501
 21
1362.124247
 31
0.0
  0
LINE
  5
5F8
100
AcDbEntity
  8
LAY-1
  6
CONTINUOUS
 62
     7
100
AcDbLine
 10
852.505097
 20
1327.681315
 30
0.0
 11
849.847501
 21
1327.238382
 31
0.0
  0
LINE
  5
5F9
100
AcDbEntity
  8
LAY-1
  6
CONTINUOUS
 62
     7
100
AcDbLine
 10
846.505097
 20
1344.681315
 30
0.0
 11
846.505097
 21
1392.181315
 31
0.0
  0
LINE
  5
5FA
100
AcDbEntity
  8
LAY-1
  6
CONTINUOUS
 62
     7
100
AcDbLine
 10
846.505097
 20
1297.181315
 30
0.0
 11
846.505097
 21
1344.681315
 31
0.0
  0
LINE
  5
5FB
100
AcDbEntity
  8
LAY-1
  6
CONTINUOUS
 62
     7
100
AcDbLine
 10
833.505097
 20
1344.681315
 30
0.0
 11
833.505097
 21
1392.181315
 31
0.0
  0
LINE
  5
5FC
100
AcDbEntity
  8
LAY-1
  6
CONTINUOUS
 62
     7
100
AcDbLine
 10
833.505097
 20
1297.181315
 30
0.0
 11
833.505097
 21
1344.681315
 31
0.0
  0
LINE
  5
5FD
100
AcDbEntity
  8
LAY-1
  6
CONTINUOUS
 62
     7
100
AcDbLine
 10
832.505097
 20
1344.681315
 30
0.0
 11
832.505097
 21
1319.181315
 31
0.0
  0
ARC
  5
5FE
100
AcDbEntity
  8
LAY-1
  6
CONTINUOUS
 62
     7
100
AcDbCircle
 10
832.505097
 20
1318.181315
 30
0.0
 40
1.0
100
AcDbArc
 50
0.0
 51
90.0
  0
ARC
  5
5FF
100
AcDbEntity
  8
LAY-1
  6
CONTINUOUS
 62
     7
100
AcDbCircle
 10
832.505097
 20
1371.181315
 30
0.0
 40
1.0
100
AcDbArc
 50
270.0
 51
0.0
  0
ARC
  5
600
100
AcDbEntity
  8
LAY-1
  6
CONTINUOUS
 62
     7
100
AcDbCircle
 10
850.505097
 20
1366.069823
 30
0.0
 40
4.0
100
AcDbArc
 50
180.0
 51
260.537678
  0
ARC
  5
601
100
AcDbEntity
  8
LAY-1
  6
CONTINUOUS
 62
     7
100
AcDbCircle
 10
850.505097
 20
1323.292806
 30
0.0
 40
4.0
100
AcDbArc
 50
99.462322
 51
180.0
  0
LINE
  5
602
100
AcDbEntity
  8
LAY-1
  6
CONTINUOUS
 62
     7
100
AcDbLine
 10
846.505097
 20
1297.181315
 30
0.0
 11
833.505097
 21
1297.181315
 31
0.0
  0
LINE
  5
603
100
AcDbEntity
  8
LAY-1
  6
CONTINUOUS
 62
     7
100
AcDbLine
 10
846.505097
 20
1392.181315
 30
0.0
 11
833.505097
 21
1392.181315
 31
0.0
  0
LINE
  5
604
100
AcDbEntity
  8
LAY-1
  6
CONTINUOUS
 62
     7
100
AcDbLine
 10
832.505097
 20
1319.181315
 30
0.0
 11
832.505097
 21
1370.181315
 31
0.0
  0
LINE
  5
605
100
AcDbEntity
  8
LAY-1
  6
CONTINUOUS
 62
     7
100
AcDbLine
 10
1152.505097
 20
1361.681315
 30
0.0
 11
1152.505097
 21
1344.681315
 31
0.0
  0
LINE
  5
606
100
AcDbEntity
  8
LAY-1
  6
CONTINUOUS
 62
     7
100
AcDbLine
 10
1147.956118
 20
1333.831315
 30
0.0
 11
1152.505097
 21
1329.282335
 31
0.0
  0
LINE
  5
607
100
AcDbEntity
  8
LAY-1
  6
CONTINUOUS
 62
     7
100
AcDbLine
 10
1147.956118
 20
1355.531315
 30
0.0
 11
1147.956118
 21
1333.831315
 31
0.0
  0
LINE
  5
608
100
AcDbEntity
  8
LAY-1
  6
CONTINUOUS
 62
     7
100
AcDbLine
 10
1147.956118
 20
1355.531315
 30
0.0
 11
1152.505097
 21
1360.080294
 31
0.0
  0
LINE
  5
609
100
AcDbEntity
  8
LAY-1
  6
CONTINUOUS
 62
     7
100
AcDbLine
 10
1152.505097
 20
1344.681315
 30
0.0
 11
1152.505097
 21
1327.681315
 31
0.0
  0
LINE
  5
60A
100
AcDbEntity
  8
LAY-1
  6
CONTINUOUS
 62
     7
100
AcDbLine
 10
1152.505097
 20
1361.681315
 30
0.0
 11
1155.162693
 21
1362.124247
 31
0.0
  0
LINE
  5
60B
100
AcDbEntity
  8
LAY-1
  6
CONTINUOUS
 62
     7
100
AcDbLine
 10
1152.505097
 20
1327.681315
 30
0.0
 11
1155.162693
 21
1327.238382
 31
0.0
  0
LINE
  5
60C
100
AcDbEntity
  8
LAY-1
  6
CONTINUOUS
 62
     7
100
AcDbLine
 10
1158.505097
 20
1344.681315
 30
0.0
 11
1158.505097
 21
1392.181315
 31
0.0
  0
LINE
  5
60D
100
AcDbEntity
  8
LAY-1
  6
CONTINUOUS
 62
     7
100
AcDbLine
 10
1158.505097
 20
1297.181315
 30
0.0
 11
1158.505097
 21
1344.681315
 31
0.0
  0
LINE
  5
60E
100
AcDbEntity
  8
LAY-1
  6
CONTINUOUS
 62
     7
100
AcDbLine
 10
1171.505097
 20
1344.681315
 30
0.0
 11
1171.505097
 21
1392.181315
 31
0.0
  0
LINE
  5
60F
100
AcDbEntity
  8
LAY-1
  6
CONTINUOUS
 62
     7
100
AcDbLine
 10
1171.505097
 20
1297.181315
 30
0.0
 11
1171.505097
 21
1344.681315
 31
0.0
  0
LINE
  5
610
100
AcDbEntity
  8
LAY-1
  6
CONTINUOUS
 62
     7
100
AcDbLine
 10
1172.505097
 20
1344.681315
 30
0.0
 11
1172.505097
 21
1319.181315
 31
0.0
  0
ARC
  5
611
100
AcDbEntity
  8
LAY-1
  6
CONTINUOUS
 62
     7
100
AcDbCircle
 10
1172.505097
 20
1318.181315
 30
0.0
 40
1.0
100
AcDbArc
 50
90.0
 51
180.0
  0
ARC
  5
612
100
AcDbEntity
  8
LAY-1
  6
CONTINUOUS
 62
     7
100
AcDbCircle
 10
1172.505097
 20
1371.181315
 30
0.0
 40
1.0
100
AcDbArc
 50
180.0
 51
270.0
  0
ARC
  5
613
100
AcDbEntity
  8
LAY-1
  6
CONTINUOUS
 62
     7
100
AcDbCircle
 10
1154.505097
 20
1366.069823
 30
0.0
 40
4.0
100
AcDbArc
 50
279.462322
 51
0.0
  0
ARC
  5
614
100
AcDbEntity
  8
LAY-1
  6
CONTINUOUS
 62
     7
100
AcDbCircle
 10
1154.505097
 20
1323.292806
 30
0.0
 40
4.0
100
AcDbArc
 50
0.0
 51
80.537678
  0
LINE
  5
615
100
AcDbEntity
  8
LAY-1
  6
CONTINUOUS
 62
     7
100
AcDbLine
 10
1158.505097
 20
1297.181315
 30
0.0
 11
1171.505097
 21
1297.181315
 31
0.0
  0
LINE
  5
616
100
AcDbEntity
  8
LAY-1
  6
CONTINUOUS
 62
     7
100
AcDbLine
 10
1158.505097
 20
1392.181315
 30
0.0
 11
1171.505097
 21
1392.181315
 31
0.0
  0
LINE
  5
617
100
AcDbEntity
  8
LAY-1
  6
CONTINUOUS
 62
     7
100
AcDbLine
 10
1172.505097
 20
1319.181315
 30
0.0
 11
1172.505097
 21
1370.181315
 31
0.0
  0
LINE
  5
618
100
AcDbEntity
  8
LAY-1
  6
CONTINUOUS
 62
     7
100
AcDbLine
 10
1147.956118
 20
1355.531315
 30
0.0
 11
1140.505097
 21
1355.531315
 31
0.0
  0
LINE
  5
619
100
AcDbEntity
  8
LAY-1
  6
CONTINUOUS
 62
     7
100
AcDbLine
 10
1147.956118
 20
1333.831315
 30
0.0
 11
1140.505097
 21
1333.831315
 31
0.0
  0
LINE
  5
61A
100
AcDbEntity
  8
LAY-1
  6
CONTINUOUS
 62
     7
100
AcDbLine
 10
857.054077
 20
1355.531315
 30
0.0
 11
864.505097
 21
1355.531315
 31
0.0
  0
LINE
  5
61B
100
AcDbEntity
  8
LAY-1
  6
CONTINUOUS
 62
     7
100
AcDbLine
 10
857.054077
 20
1333.831315
 30
0.0
 11
864.505097
 21
1333.831315
 31
0.0
  0
LINE
  5
61C
100
AcDbEntity
  8
LAY-1
  6
CONTINUOUS
 62
     7
100
AcDbLine
 10
1140.505097
 20
1377.681315
 30
0.0
 11
1140.505097
 21
1387.681315
 31
0.0
  0
LINE
  5
61D
100
AcDbEntity
  8
LAY-1
  6
CONTINUOUS
 62
     7
100
AcDbLine
 10
1140.505097
 20
1397.681315
 30
0.0
 11
1140.505097
 21
1387.681315
 31
0.0
  0
LINE
  5
61E
100
AcDbEntity
  8
LAY-1
  6
CONTINUOUS
 62
     7
100
AcDbLine
 10
1143.005097
 20
1400.181315
 30
0.0
 11
1143.005097
 21
1387.681315
 31
0.0
  0
LINE
  5
61F
100
AcDbEntity
  8
LAY-1
  6
CONTINUOUS
 62
     7
100
AcDbLine
 10
1143.005097
 20
1375.181315
 30
0.0
 11
1143.005097
 21
1387.681315
 31
0.0
  0
LINE
  5
620
100
AcDbEntity
  8
LAY-1
  6
CONTINUOUS
 62
     7
100
AcDbLine
 10
1151.505097
 20
1375.681315
 30
0.0
 11
1143.005097
 21
1375.181315
 31
0.0
  0
LINE
  5
621
100
AcDbEntity
  8
LAY-1
  6
CONTINUOUS
 62
     7
100
AcDbLine
 10
1143.005097
 20
1377.681315
 30
0.0
 11
1140.505097
 21
1377.681315
 31
0.0
  0
LINE
  5
622
100
AcDbEntity
  8
LAY-1
  6
CONTINUOUS
 62
     7
100
AcDbLine
 10
1151.505097
 20
1399.681315
 30
0.0
 11
1143.005097
 21
1400.181315
 31
0.0
  0
LINE
  5
623
100
AcDbEntity
  8
LAY-1
  6
CONTINUOUS
 62
     7
100
AcDbLine
 10
1143.005097
 20
1397.681315
 30
0.0
 11
1140.505097
 21
1397.681315
 31
0.0
  0
ARC
  5
624
100
AcDbEntity
  8
LAY-1
  6
CONTINUOUS
 62
     7
100
AcDbCircle
 10
1116.505097
 20
1387.681315
 30
0.0
 40
37.0
100
AcDbArc
 50
341.075356
 51
18.924644
  0
LINE
  5
625
100
AcDbEntity
  8
LAY-1
  6
CONTINUOUS
 62
     7
100
AcDbLine
 10
1151.505097
 20
1399.681315
 30
0.0
 11
1151.505097
 21
1375.681315
 31
0.0
  0
LINE
  5
626
100
AcDbEntity
  8
LAY-1
  6
CONTINUOUS
 62
     7
100
AcDbLine
 10
1160.505097
 20
1426.681315
 30
0.0
 11
1160.505097
 21
1428.681315
 31
0.0
  0
LINE
  5
627
100
AcDbEntity
  8
LAY-1
  6
CONTINUOUS
 62
     7
100
AcDbLine
 10
844.505097
 20
1426.681315
 30
0.0
 11
844.505097
 21
1428.681315
 31
0.0
  0
LINE
  5
628
100
AcDbEntity
  8
LAY-1
  6
CONTINUOUS
 62
     7
100
AcDbLine
 10
864.505097
 20
1426.681315
 30
0.0
 11
844.505097
 21
1426.681315
 31
0.0
  0
LINE
  5
629
100
AcDbEntity
  8
LAY-1
  6
CONTINUOUS
 62
     7
100
AcDbLine
 10
864.505097
 20
1377.681315
 30
0.0
 11
864.505097
 21
1387.681315
 31
0.0
  0
LINE
  5
62A
100
AcDbEntity
  8
LAY-1
  6
CONTINUOUS
 62
     7
100
AcDbLine
 10
864.505097
 20
1397.681315
 30
0.0
 11
864.505097
 21
1387.681315
 31
0.0
  0
LINE
  5
62B
100
AcDbEntity
  8
LAY-1
  6
CONTINUOUS
 62
     7
100
AcDbLine
 10
862.005097
 20
1400.181315
 30
0.0
 11
862.005097
 21
1387.681315
 31
0.0
  0
LINE
  5
62C
100
AcDbEntity
  8
LAY-1
  6
CONTINUOUS
 62
     7
100
AcDbLine
 10
862.005097
 20
1375.181315
 30
0.0
 11
862.005097
 21
1387.681315
 31
0.0
  0
LINE
  5
62D
100
AcDbEntity
  8
LAY-1
  6
CONTINUOUS
 62
     7
100
AcDbLine
 10
853.505097
 20
1375.681315
 30
0.0
 11
862.005097
 21
1375.181315
 31
0.0
  0
LINE
  5
62E
100
AcDbEntity
  8
LAY-1
  6
CONTINUOUS
 62
     7
100
AcDbLine
 10
862.005097
 20
1377.681315
 30
0.0
 11
864.505097
 21
1377.681315
 31
0.0
  0
LINE
  5
62F
100
AcDbEntity
  8
LAY-1
  6
CONTINUOUS
 62
     7
100
AcDbLine
 10
853.505097
 20
1399.681315
 30
0.0
 11
862.005097
 21
1400.181315
 31
0.0
  0
LINE
  5
630
100
AcDbEntity
  8
LAY-1
  6
CONTINUOUS
 62
     7
100
AcDbLine
 10
862.005097
 20
1397.681315
 30
0.0
 11
864.505097
 21
1397.681315
 31
0.0
  0
ARC
  5
631
100
AcDbEntity
  8
LAY-1
  6
CONTINUOUS
 62
     7
100
AcDbCircle
 10
888.505097
 20
1387.681315
 30
0.0
 40
37.0
100
AcDbArc
 50
161.075356
 51
198.924644
  0
LINE
  5
632
100
AcDbEntity
  8
LAY-1
  6
CONTINUOUS
 62
     7
100
AcDbLine
 10
853.505097
 20
1399.681315
 30
0.0
 11
853.505097
 21
1375.681315
 31
0.0
  0
LINE
  5
633
100
AcDbEntity
  8
LAY-1
  6
CONTINUOUS
 62
     7
100
AcDbLine
 10
844.505097
 20
1428.681315
 30
0.0
 11
899.214766
 21
1428.681315
 31
0.0
  0
LINE
  5
634
100
AcDbEntity
  8
LAY-1
  6
CONTINUOUS
 62
     7
100
AcDbLine
 10
1140.505097
 20
1426.681315
 30
0.0
 11
1160.505097
 21
1426.681315
 31
0.0
  0
LINE
  5
635
100
AcDbEntity
  8
LAY-1
  6
CONTINUOUS
 62
     7
100
AcDbLine
 10
946.505097
 20
1428.681315
 30
0.0
 11
1160.505097
 21
1428.681315
 31
0.0
  0
LINE
  5
636
100
AcDbEntity
  8
LAY-1
  6
EXLTYPE3
 62
     1
100
AcDbLine
 10
1010.005097
 20
466.981315
 30
0.0
 11
1010.005097
 21
437.381315
 31
0.0
  0
LINE
  5
637
100
AcDbEntity
  8
LAY-1
  6
EXLTYPE3
 62
     1
100
AcDbLine
 10
935.005097
 20
466.981315
 30
0.0
 11
935.005097
 21
437.381315
 31
0.0
  0
LINE
  5
638
100
AcDbEntity
  8
LAY-1
  6
CONTINUOUS
 62
     1
100
AcDbLine
 10
960.0
 20
565.0
 30
0.0
 11
958.830364
 21
567.025868
 31
0.0
  0
LINE
  5
639
100
AcDbEntity
  8
LAY-1
  6
CONTINUOUS
 62
     1
100
AcDbLine
 10
984.860843
 20
564.741315
 30
0.0
 11
986.17983
 21
567.025868
 31
0.0
  0
LINE
  5
63A
100
AcDbEntity
  8
LAY-1
  6
CONTINUOUS
 62
     1
100
AcDbLine
 10
984.860843
 20
564.741315
 30
0.0
 11
984.577718
 21
555.681315
 31
0.0
  0
LINE
  5
63B
100
AcDbEntity
  8
LAY-1
  6
CONTINUOUS
 62
     1
100
AcDbLine
 10
960.149352
 20
564.741315
 30
0.0
 11
960.432477
 21
555.681315
 31
0.0
  0
LINE
  5
63C
100
AcDbEntity
  8
LAY-1
  6
CONTINUOUS
 62
     1
100
AcDbLine
 10
960.0
 20
506.362629
 30
0.0
 11
958.830364
 21
504.336761
 31
0.0
  0
LINE
  5
63D
100
AcDbEntity
  8
LAY-1
  6
CONTINUOUS
 62
     1
100
AcDbLine
 10
984.860843
 20
506.621315
 30
0.0
 11
986.17983
 21
504.336761
 31
0.0
  0
LINE
  5
63E
100
AcDbEntity
  8
LAY-1
  6
CONTINUOUS
 62
     1
100
AcDbLine
 10
984.860843
 20
506.621315
 30
0.0
 11
984.577718
 21
515.681315
 31
0.0
  0
LINE
  5
63F
100
AcDbEntity
  8
LAY-1
  6
CONTINUOUS
 62
     1
100
AcDbLine
 10
960.149352
 20
506.621315
 30
0.0
 11
960.432477
 21
515.681315
 31
0.0
  0
LINE
  5
640
100
AcDbEntity
  8
LAY-1
  6
CONTINUOUS
 62
     7
100
AcDbLine
 10
1022.505097
 20
445.681315
 30
0.0
 11
1022.505097
 21
459.681315
 31
0.0
  0
LINE
  5
641
100
AcDbEntity
  8
LAY-1
  6
CONTINUOUS
 62
     7
100
AcDbLine
 10
988.905097
 20
459.681315
 30
0.0
 11
986.105097
 21
462.481315
 31
0.0
  0
LINE
  5
642
100
AcDbEntity
  8
LAY-1
  6
CONTINUOUS
 62
     7
100
AcDbLine
 10
972.505097
 20
445.681315
 30
0.0
 11
1022.505097
 21
445.681315
 31
0.0
  0
LINE
  5
643
100
AcDbEntity
  8
LAY-1
  6
CONTINUOUS
 62
     7
100
AcDbLine
 10
922.505097
 20
445.681315
 30
0.0
 11
922.505097
 21
459.681315
 31
0.0
  0
LINE
  5
644
100
AcDbEntity
  8
LAY-1
  6
CONTINUOUS
 62
     7
100
AcDbLine
 10
956.105097
 20
459.681315
 30
0.0
 11
958.905097
 21
462.481315
 31
0.0
  0
LINE
  5
645
100
AcDbEntity
  8
LAY-1
  6
CONTINUOUS
 62
     7
100
AcDbLine
 10
972.505097
 20
445.681315
 30
0.0
 11
922.505097
 21
445.681315
 31
0.0
  0
LINE
  5
646
100
AcDbEntity
  8
LAY-1
  6
CONTINUOUS
 62
     7
100
AcDbLine
 10
1022.505097
 20
459.681315
 30
0.0
 11
972.505097
 21
459.681315
 31
0.0
  0
LINE
  5
647
100
AcDbEntity
  8
LAY-1
  6
CONTINUOUS
 62
     7
100
AcDbLine
 10
922.505097
 20
459.681315
 30
0.0
 11
972.505097
 21
459.681315
 31
0.0
  0
LINE
  5
648
100
AcDbEntity
  8
LAY-1
  6
CONTINUOUS
 62
     7
100
AcDbLine
 10
986.105097
 20
462.481315
 30
0.0
 11
958.905097
 21
462.481315
 31
0.0
  0
LINE
  5
649
100
AcDbEntity
  8
LAY-1
  6
CONTINUOUS
 62
     7
100
AcDbLine
 10
986.105097
 20
504.492462
 30
0.0
 11
986.105097
 21
462.481315
 31
0.0
  0
LINE
  5
64A
100
AcDbEntity
  8
LAY-1
  6
CONTINUOUS
 62
     7
100
AcDbLine
 10
958.905097
 20
504.492462
 30
0.0
 11
958.905097
 21
462.481315
 31
0.0
  0
LINE
  5
64B
100
AcDbEntity
  8
LAY-1
  6
CONTINUOUS
 62
     7
100
AcDbLine
 10
972.505097
 20
564.741315
 30
0.0
 11
958.986785
 21
564.741315
 31
0.0
  0
LINE
  5
64C
100
AcDbEntity
  8
LAY-1
  6
CONTINUOUS
 62
     7
100
AcDbLine
 10
972.505097
 20
564.741315
 30
0.0
 11
979.022761
 21
564.741315
 31
0.0
  0
LINE
  5
64D
100
AcDbEntity
  8
LAY-1
  6
CONTINUOUS
 62
     7
100
AcDbLine
 10
958.905097
 20
567.355315
 30
0.0
 11
959.016885
 21
563.778106
 31
0.0
  0
LINE
  5
64E
100
AcDbEntity
  8
LAY-1
  6
CONTINUOUS
 62
     7
100
AcDbLine
 10
959.79737
 20
564.741315
 30
0.0
 11
958.986785
 21
564.741315
 31
0.0
  0
LINE
  5
64F
100
AcDbEntity
  8
LAY-1
  6
CONTINUOUS
 62
     7
100
AcDbLine
 10
972.505097
 20
564.741315
 30
0.0
 11
965.987434
 21
564.741315
 31
0.0
  0
LINE
  5
650
100
AcDbEntity
  8
LAY-1
  6
CONTINUOUS
 62
     7
100
AcDbLine
 10
972.505097
 20
564.741315
 30
0.0
 11
986.02341
 21
564.741315
 31
0.0
  0
LINE
  5
651
100
AcDbEntity
  8
LAY-1
  6
CONTINUOUS
 62
     7
100
AcDbLine
 10
986.105097
 20
567.355315
 30
0.0
 11
985.740285
 21
555.681315
 31
0.0
  0
LINE
  5
652
100
AcDbEntity
  8
LAY-1
  6
CONTINUOUS
 62
     7
100
AcDbLine
 10
958.905097
 20
567.355315
 30
0.0
 11
959.26991
 21
555.681315
 31
0.0
  0
LINE
  5
653
100
AcDbEntity
  8
LAY-1
  6
CONTINUOUS
 62
     7
100
AcDbLine
 10
988.505097
 20
515.681315
 30
0.0
 11
956.505097
 21
515.681315
 31
0.0
  0
LINE
  5
654
100
AcDbEntity
  8
LAY-1
  6
CONTINUOUS
 62
     7
100
AcDbLine
 10
988.505097
 20
555.681315
 30
0.0
 11
956.505097
 21
555.681315
 31
0.0
  0
LINE
  5
655
100
AcDbEntity
  8
LAY-1
  6
CONTINUOUS
 62
     7
100
AcDbLine
 10
988.505097
 20
555.681315
 30
0.0
 11
988.505097
 21
515.681315
 31
0.0
  0
LINE
  5
656
100
AcDbEntity
  8
LAY-1
  6
CONTINUOUS
 62
     7
100
AcDbLine
 10
956.505097
 20
555.681315
 30
0.0
 11
956.505097
 21
515.681315
 31
0.0
  0
LINE
  5
657
100
AcDbEntity
  8
LAY-1
  6
CONTINUOUS
 62
     7
100
AcDbLine
 10
972.505097
 20
506.621315
 30
0.0
 11
958.986785
 21
506.621315
 31
0.0
  0
LINE
  5
658
100
AcDbEntity
  8
LAY-1
  6
CONTINUOUS
 62
     7
100
AcDbLine
 10
972.505097
 20
506.621315
 30
0.0
 11
979.022761
 21
506.621315
 31
0.0
  0
LINE
  5
659
100
AcDbEntity
  8
LAY-1
  6
CONTINUOUS
 62
     7
100
AcDbLine
 10
958.905097
 20
504.007315
 30
0.0
 11
959.016885
 21
507.584523
 31
0.0
  0
LINE
  5
65A
100
AcDbEntity
  8
LAY-1
  6
CONTINUOUS
 62
     7
100
AcDbLine
 10
959.79737
 20
506.621315
 30
0.0
 11
958.986785
 21
506.621315
 31
0.0
  0
LINE
  5
65B
100
AcDbEntity
  8
LAY-1
  6
CONTINUOUS
 62
     7
100
AcDbLine
 10
972.505097
 20
506.621315
 30
0.0
 11
965.987434
 21
506.621315
 31
0.0
  0
LINE
  5
65C
100
AcDbEntity
  8
LAY-1
  6
CONTINUOUS
 62
     7
100
AcDbLine
 10
972.505097
 20
506.621315
 30
0.0
 11
986.02341
 21
506.621315
 31
0.0
  0
LINE
  5
65D
100
AcDbEntity
  8
LAY-1
  6
CONTINUOUS
 62
     7
100
AcDbLine
 10
986.105097
 20
504.007315
 30
0.0
 11
985.740285
 21
515.681315
 31
0.0
  0
LINE
  5
65E
100
AcDbEntity
  8
LAY-1
  6
CONTINUOUS
 62
     7
100
AcDbLine
 10
958.905097
 20
504.007315
 30
0.0
 11
959.26991
 21
515.681315
 31
0.0
  0
LINE
  5
65F
100
AcDbEntity
  8
LAY-1
  6
EXLTYPE3
 62
     1
100
AcDbLine
 10
353.414766
 20
552.18153
 30
0.0
 11
429.014766
 21
552.18153
 31
0.0
  0
LINE
  5
660
100
AcDbEntity
  8
LAY-1
  6
EXLTYPE3
 62
     1
100
AcDbLine
 10
415.764766
 20
585.681315
 30
0.0
 11
415.764766
 21
510.081315
 31
0.0
  0
LINE
  5
661
100
AcDbEntity
  8
LAY-1
  6
CONTINUOUS
 62
     7
100
AcDbLine
 10
313.114766
 20
585.681315
 30
0.0
 11
521.114766
 21
585.681315
 31
0.0
  0
LINE
  5
662
100
AcDbEntity
  8
LAY-1
  6
EXLTYPE3
 62
     1
100
AcDbLine
 10
395.114766
 20
1039.981315
 30
0.0
 11
395.114766
 21
929.381315
 31
0.0
  0
LINE
  5
663
100
AcDbEntity
  8
LAY-1
  6
EXLTYPE3
 62
     1
100
AcDbLine
 10
813.114766
 20
1344.681315
 30
0.0
 11
1193.114766
 21
1344.681315
 31
0.0
  0
LINE
  5
664
100
AcDbEntity
  8
LAY-1
  6
EXLTYPE3
 62
     1
100
AcDbLine
 10
1658.114766
 20
563.681315
 30
0.0
 11
1658.114766
 21
432.581315
 31
0.0
  0
LINE
  5
665
100
AcDbEntity
  8
LAY-1
  6
EXLTYPE3
 62
     1
100
AcDbLine
 10
1694.614766
 20
581.681315
 30
0.0
 11
1694.614766
 21
508.581315
 31
0.0
  0
LINE
  5
666
100
AcDbEntity
  8
LAY-1
  6
EXLTYPE3
 62
     1
100
AcDbLine
 10
913.040846
 20
505.181315
 30
0.0
 11
913.040846
 21
585.681315
 31
0.0
  0
LINE
  5
667
100
AcDbEntity
  8
LAY-1
  6
EXLTYPE3
 62
     1
100
AcDbLine
 10
972.505097
 20
585.681315
 30
0.0
 11
972.505097
 21
437.681315
 31
0.0
  0
ARC
  5
668
100
AcDbEntity
  8
LAY-1
  6
CONTINUOUS
 62
     7
100
AcDbCircle
 10
1034.314766
 20
860.351527
 30
0.0
 40
2.0
100
AcDbArc
 50
0.0
 51
90.0
  0
LINE
  5
669
100
AcDbEntity
  8
LAY-1
  6
CONTINUOUS
 62
     7
100
AcDbLine
 10
972.314766
 20
862.351527
 30
0.0
 11
1034.314766
 21
862.351527
 31
0.0
  0
ARC
  5
66A
100
AcDbEntity
  8
LAY-1
  6
CONTINUOUS
 62
     7
100
AcDbCircle
 10
972.314766
 20
860.351527
 30
0.0
 40
2.0
100
AcDbArc
 50
90.0
 51
180.0
  0
LINE
  5
66B
100
AcDbEntity
  8
LAY-1
  6
CONTINUOUS
 62
     7
100
AcDbLine
 10
1036.314766
 20
860.351527
 30
0.0
 11
1036.314766
 21
844.351527
 31
0.0
  0
ARC
  5
66C
100
AcDbEntity
  8
LAY-1
  6
CONTINUOUS
 62
     7
100
AcDbCircle
 10
1034.314766
 20
844.351527
 30
0.0
 40
2.0
100
AcDbArc
 50
270.0
 51
0.0
  0
LINE
  5
66D
100
AcDbEntity
  8
LAY-1
  6
CONTINUOUS
 62
     7
100
AcDbLine
 10
972.314766
 20
842.351527
 30
0.0
 11
1034.314766
 21
842.351527
 31
0.0
  0
LINE
  5
66E
100
AcDbEntity
  8
LAY-1
  6
CONTINUOUS
 62
     7
100
AcDbLine
 10
970.314766
 20
860.351527
 30
0.0
 11
970.314766
 21
844.351527
 31
0.0
  0
ARC
  5
66F
100
AcDbEntity
  8
LAY-1
  6
CONTINUOUS
 62
     7
100
AcDbCircle
 10
972.314766
 20
844.351527
 30
0.0
 40
2.0
100
AcDbArc
 50
180.0
 51
270.0
  0
TEXT
  5
670
100
AcDbEntity
  8
LAY-2
  6
CONTINUOUS
 62
     3
100
AcDbText
 10
1534.44
 20
211.96
 30
0.0
 40
20.0
  1
型式
 41
0.984714
  7
EXCADSTD
 72
     5
 11
1577.420406
 21
211.96
 31
0.0
100
AcDbText
  0
TEXT
  5
671
100
AcDbEntity
  8
LAY-2
  6
CONTINUOUS
 62
     3
100
AcDbText
 10
1533.96
 20
183.8
 30
0.0
 40
20.0
  1
品名
 41
0.984714
  7
EXCADSTD
 72
     5
 11
1576.940406
 21
183.8
 31
0.0
100
AcDbText
  0
LINE
  5
672
100
AcDbEntity
  8
LAY-2
  6
CONTINUOUS
 62
     4
100
AcDbLine
 10
1525.0
 20
155.4
 30
0.0
 11
1883.4
 21
155.4
 31
0.0
  0
LINE
  5
673
100
AcDbEntity
  8
LAY-2
  6
CONTINUOUS
 62
     1
100
AcDbLine
 10
1525.0
 20
179.8
 30
0.0
 11
1883.4
 21
179.8
 31
0.0
  0
TEXT
  5
674
100
AcDbEntity
  8
LAY-2
  6
CONTINUOUS
 62
     3
100
AcDbText
 10
1652.36
 20
158.04
 30
0.0
 40
20.0
  1
外観図
 41
1.47392
  7
EXCADSTD
 72
     5
 11
1757.639999
 21
158.04
 31
0.0
100
AcDbText
  0
LINE
  5
675
100
AcDbEntity
  8
LAY-2
  6
CONTINUOUS
 62
     4
100
AcDbLine
 10
1525.0
 20
263.8
 30
0.0
 11
1883.4
 21
263.8
 31
0.0
  0
LINE
  5
676
100
AcDbEntity
  8
LAY-2
  6
CONTINUOUS
 62
     1
100
AcDbLine
 10
1525.0
 20
207.8
 30
0.0
 11
1883.4
 21
207.8
 31
0.0
  0
LINE
  5
677
100
AcDbEntity
  8
LAY-2
  6
CONTINUOUS
 62
     1
100
AcDbLine
 10
1525.0
 20
235.8
 30
0.0
 11
1883.4
 21
235.8
 31
0.0
  0
LINE
  5
678
100
AcDbEntity
  8
LAY-2
  6
CONTINUOUS
 62
     1
100
AcDbLine
 10
1585.0
 20
263.8
 30
0.0
 11
1585.0
 21
179.8
 31
0.0
  0
LINE
  5
679
100
AcDbEntity
  8
LAY-2
  6
CONTINUOUS
 62
     4
100
AcDbLine
 10
1525.0
 20
131.0
 30
0.0
 11
1883.4
 21
131.0
 31
0.0
  0
LINE
  5
67A
100
AcDbEntity
  8
LAY-2
  6
CONTINUOUS
 62
     4
100
AcDbLine
 10
1883.4
 20
131.0
 30
0.0
 11
1883.4
 21
263.8
 31
0.0
  0
LINE
  5
67B
100
AcDbEntity
  8
LAY-2
  6
CONTINUOUS
 62
     4
100
AcDbLine
 10
1525.0
 20
131.0
 30
0.0
 11
1525.0
 21
263.8
 31
0.0
  0
TEXT
  5
67C
100
AcDbEntity
  8
LAY-2
  6
CONTINUOUS
 62
     3
100
AcDbText
 10
1527.56
 20
239.32
 30
0.0
 40
20.0
  1
作成日
 41
0.84
  7
EXCADSTD
 72
     5
 11
1587.56
 21
239.32
 31
0.0
100
AcDbText
  0
HATCH
  5
67D
100
AcDbEntity
  8
LAY-2
  6
CONTINUOUS
 62
     3
100
AcDbHatch
 10
0.0
 20
0.0
 30
0.0
210
0.0
220
0.0
230
1.0
  2
SOLID
 70
     1
 71
     1
 91
        1
 92
        1
 93
       16
 72
     1
 10
1777.2598993612442
 20
137.09585714285663
 11
1781.0463279326727
 21
137.09585714285663
 72
     1
 10
1781.0463279326727
 20
137.09585714285663
 11
1781.0463279326727
 21
134.65299999999948
 72
     1
 10
1781.0463279326727
 20
134.65299999999948
 11
1770.9084707898155
 21
134.65299999999948
 72
     1
 10
1770.9084707898155
 20
134.65299999999948
 11
1770.9084707898155
 21
137.09585714285663
 72
     1
 10
1770.9084707898155
 20
137.09585714285663
 11
1774.8170422183871
 21
137.09585714285663
 72
     1
 10
1774.8170422183871
 20
137.09585714285663
 11
1774.8170422183871
 21
144.18014285714239
 72
     1
 10
1774.8170422183871
 20
144.18014285714239
 11
1771.7634707898155
 21
144.18014285714239
 72
     1
 10
1771.7634707898155
 20
144.18014285714239
 11
1771.7634707898155
 21
146.62299999999954
 72
     1
 10
1771.7634707898155
 20
146.62299999999954
 11
1774.8170422183871
 21
146.62299999999954
 72
     1
 10
1774.8170422183871
 20
146.62299999999954
 11
1774.8170422183871
 21
151.75299999999953
 72
     1
 10
1774.8170422183871
 20
151.75299999999953
 11
1777.2598993612442
 21
151.75299999999953
 72
     1
 10
1777.2598993612442
 20
151.75299999999953
 11
1777.2598993612442
 21
146.62299999999954
 72
     1
 10
1777.2598993612442
 20
146.62299999999954
 11
1780.8020422183872
 21
146.62299999999954
 72
     1
 10
1780.8020422183872
 20
146.62299999999954
 11
1780.8020422183872
 21
144.18014285714239
 72
     1
 10
1780.8020422183872
 20
144.18014285714239
 11
1777.2598993612442
 21
144.18014285714239
 72
     1
 10
1777.2598993612442
 20
144.18014285714239
 11
1777.2598993612442
 21
137.09585714285663
 97
        0
 75
     0
 76
     1
 98
        1
 10
0.0
 20
0.0
  0
HATCH
  5
67E
100
AcDbEntity
  8
LAY-2
  6
CONTINUOUS
 62
     3
100
AcDbHatch
 10
0.0
 20
0.0
 30
0.0
210
0.0
220
0.0
230
1.0
  2
SOLID
 70
     1
 71
     1
 91
        1
 92
        1
 93
       17
 72
     2
 10
1751.595301383868
 20
156.49412679235957
 40
21.985714285714362
 50
44.165469
 51
51.472792
 73
     0
 72
     1
 10
1765.2898993612441
 20
139.29442857142817
 11
1764.0530772454983
 21
141.43666731582431
 72
     2
 10
1751.595301383868
 20
156.49412679235957
 40
19.542857142857208
 50
309.602625
 51
331.307968
 73
     1
 72
     1
 10
1768.7385484552826
 20
147.11157142857098
 11
1764.6791850755299
 21
147.11157142857098
 72
     1
 10
1764.6791850755299
 20
147.11157142857098
 11
1764.6791850755299
 21
149.31014285714235
 72
     1
 10
1764.6791850755299
 20
149.31014285714235
 11
1767.3663279326727
 21
149.31014285714235
 72
     1
 10
1767.3663279326727
 20
149.31014285714235
 11
1767.3663279326727
 21
151.75299999999953
 72
     1
 10
1767.3663279326727
 20
151.75299999999953
 11
1769.5648993612442
 21
151.75299999999953
 72
     1
 10
1769.5648993612442
 20
151.75299999999953
 11
1769.5648993612442
 21
149.31014285714235
 72
     1
 10
1769.5648993612442
 20
149.31014285714235
 11
1772.3741850755298
 21
149.31014285714235
 72
     2
 10
1751.595301383868
 20
156.49412679235957
 40
21.985714285714362
 50
19.072051
 51
32.871988
 73
     0
 72
     1
 10
1770.0607801007031
 20
144.5610748603865
 11
1772.9848993612441
 21
141.73728571428524
 72
     1
 10
1772.9848993612441
 20
141.73728571428524
 11
1771.2572753845602
 21
140.00966173760128
 72
     1
 10
1771.2572753845602
 20
140.00966173760128
 11
1769.5648993612442
 21
141.64397026607023
 72
     1
 10
1769.5648993612442
 20
141.64397026607023
 11
1769.5648993612442
 21
134.65299999999948
 72
     1
 10
1769.5648993612442
 20
134.65299999999948
 11
1767.3663279326727
 21
134.65299999999948
 72
     1
 10
1767.3663279326727
 20
134.65299999999948
 11
1767.3663279326727
 21
141.17595607095944
 97
        0
 75
     0
 76
     1
 98
        1
 10
0.0
 20
0.0
  0
HATCH
  5
67F
100
AcDbEntity
  8
LAY-2
  6
CONTINUOUS
 62
     3
100
AcDbHatch
 10
0.0
 20
0.0
 30
0.0
210
0.0
220
0.0
230
1.0
  2
SOLID
 70
     1
 71
     1
 91
        1
 92
        1
 93
       12
 72
     2
 10
1782.4904066385329
 20
123.52171127987697
 40
34.444285714285826
 50
150.903074
 51
156.790773
 73
     1
 72
     1
 10
1750.8336319693108
 20
137.09585714285646
 11
1758.3546247320739
 21
137.09585714285674
 72
     2
 10
1736.9904049675129
 20
130.9523228301382
 40
22.230000000000075
 50
16.043216
 51
21.362935
 73
     1
 72
     1
 10
1757.6930185901997
 20
139.05014285714236
 11
1760.037756504101
 21
139.05014285714236
 72
     2
 10
1736.9904049675129
 20
130.9523228301382
 40
24.428571428571512
 50
340.64078
 51
351.286733
 73
     0
 72
     1
 10
1761.1370422183868
 20
134.65299999999948
 11
1747.5791850755295
 21
134.65299999999948
 72
     2
 10
1782.4904066385329
 20
123.52171127987697
 40
36.64285714285726
 50
197.684652
 51
207.200855
 73
     0
 72
     1
 10
1749.8998993612438
 20
140.27157142857098
 11
1746.4798993612442
 21
140.27157142857098
 72
     1
 10
1746.4798993612442
 20
140.27157142857098
 11
1746.4798993612442
 21
142.71442857142813
 72
     1
 10
1746.4798993612442
 20
142.71442857142813
 11
1762.11418507553
 21
142.71442857142813
 72
     1
 10
1762.11418507553
 20
142.71442857142813
 11
1762.11418507553
 21
140.27157142857098
 72
     1
 10
1762.11418507553
 20
140.27157142857098
 11
1752.3930478945081
 21
140.27157142857098
 97
        0
 75
     0
 76
     1
 98
        1
 10
0.0
 20
0.0
  0
HATCH
  5
680
100
AcDbEntity
  8
LAY-2
  6
CONTINUOUS
 62
     3
100
AcDbHatch
 10
0.0
 20
0.0
 30
0.0
210
0.0
220
0.0
230
1.0
  2
SOLID
 70
     1
 71
     1
 91
        1
 92
        1
 93
       10
 72
     2
 10
1782.6369176962355
 20
176.39623065215923
 40
39.085714285714417
 50
129.545698
 51
136.474664
 73
     0
 72
     1
 10
1754.2970422183878
 20
149.47886601286768
 11
1754.2970422183878
 21
151.75299999999953
 72
     1
 10
1754.2970422183878
 20
151.75299999999953
 11
1755.5184707898159
 21
151.75299999999953
 72
     2
 10
1782.6369176962355
 20
176.39623065215923
 40
36.64285714285726
 50
222.262231
 51
237.763996
 73
     1
 72
     1
 10
1763.0913279326728
 20
145.401571428571
 11
1761.5074815306825
 21
143.51401678888163
 72
     2
 10
1782.6369176962355
 20
176.39623065215923
 40
39.085714285714417
 50
122.723968
 51
128.230009
 73
     0
 72
     1
 10
1758.4498993612442
 20
145.69311671745717
 11
1758.4498993612442
 21
143.81371428571379
 72
     1
 10
1758.4498993612442
 20
143.81371428571379
 11
1754.2970422183878
 21
143.81371428571379
 72
     1
 10
1754.2970422183878
 20
143.81371428571379
 11
1754.2970422183878
 21
146.25657142857096
 72
     1
 10
1754.2970422183878
 20
146.25657142857096
 11
1757.751299297038
 21
146.25657142857096
 97
        0
 75
     0
 76
     1
 98
        1
 10
0.0
 20
0.0
  0
HATCH
  5
681
100
AcDbEntity
  8
LAY-2
  6
CONTINUOUS
 62
     3
100
AcDbHatch
 10
0.0
 20
0.0
 30
0.0
210
0.0
220
0.0
230
1.0
  2
SOLID
 70
     1
 71
     1
 91
        1
 92
        1
 93
       10
 72
     2
 10
1725.9571667405387
 20
176.39623065215923
 40
39.085714285714417
 50
51.769991
 51
57.276032
 73
     0
 72
     1
 10
1747.0866029060915
 20
143.51401678888158
 11
1745.5027565041012
 21
145.40157142857095
 72
     2
 10
1725.9571667405387
 20
176.39623065215923
 40
36.64285714285726
 50
302.236004
 51
317.737769
 73
     1
 72
     1
 10
1753.0756136469583
 20
151.75299999999953
 11
1754.2970422183878
 21
151.75299999999953
 72
     1
 10
1754.2970422183878
 20
151.75299999999953
 11
1754.2970422183878
 21
149.47886601286913
 72
     2
 10
1725.9571667405387
 20
176.39623065215923
 40
39.085714285714417
 50
43.525336
 51
50.454302
 73
     0
 72
     1
 10
1750.842785139736
 20
146.25657142857096
 11
1754.2970422183878
 21
146.25657142857096
 72
     1
 10
1754.2970422183878
 20
146.25657142857096
 11
1754.2970422183878
 21
143.81371428571379
 72
     1
 10
1754.2970422183878
 20
143.81371428571379
 11
1750.14418507553
 21
143.81371428571379
 72
     1
 10
1750.14418507553
 20
143.81371428571379
 11
1750.14418507553
 21
145.69311671745714
 97
        0
 75
     0
 76
     1
 98
        1
 10
0.0
 20
0.0
  0
HATCH
  5
682
100
AcDbEntity
  8
LAY-2
  6
CONTINUOUS
 62
     3
100
AcDbHatch
 10
0.0
 20
0.0
 30
0.0
210
0.0
220
0.0
230
1.0
  2
SOLID
 70
     1
 71
     1
 91
        1
 92
        1
 93
       18
 72
     2
 10
1707.9780232092066
 20
140.77502078970363
 40
34.200000000000109
 50
14.02954
 51
18.723021
 73
     1
 72
     1
 10
1740.3682064822035
 20
151.75299999999953
 11
1742.9377565041011
 21
151.75299999999953
 72
     2
 10
1707.9780232092066
 20
140.77502078970363
 40
36.64285714285726
 50
342.566782
 51
346.922981
 73
     0
 72
     1
 10
1743.6706136469584
 20
149.06585714285671
 11
1744.6477565041012
 21
149.06585714285671
 72
     1
 10
1744.6477565041012
 20
149.06585714285671
 11
1744.6477565041012
 21
146.62299999999951
 72
     1
 10
1744.6477565041012
 20
146.62299999999951
 11
1740.0807208484516
 21
146.62299999999954
 72
     2
 10
1765.4120422183869
 20
150.65371428571385
 40
25.650000000000087
 50
189.041096
 51
204.65198
 73
     1
 72
     2
 10
1747.2086709975376
 20
142.29957573209651
 40
5.6211619214424813
 50
204.65198
 51
242.897449
 73
     1
 72
     1
 10
1744.6477565041012
 20
137.29565943539626
 11
1744.6477565041012
 21
134.65299999999948
 72
     2
 10
1747.2086709975376
 20
142.29957573209651
 40
8.0640190642996306
 50
108.516212
 51
155.34802
 73
     0
 72
     2
 10
1765.4120422183869
 20
150.65371428571385
 40
28.09285714285723
 50
155.34802
 51
171.750831
 73
     0
 72
     1
 10
1737.6098486934879
 20
146.62299999999954
 11
1728.2806136469585
 21
146.62299999999951
 72
     1
 10
1728.2806136469585
 20
146.62299999999951
 11
1728.2806136469585
 21
149.06585714285671
 72
     1
 10
1728.2806136469585
 20
149.06585714285671
 11
1737.3575104278921
 21
149.06585714285671
 72
     1
 10
1737.3575104278921
 20
149.06585714285671
 11
1737.2636733315865
 21
151.75299999999953
 72
     1
 10
1737.2636733315865
 20
151.75299999999953
 11
1739.7080195040878
 21
151.75299999999953
 72
     1
 10
1739.7080195040878
 20
151.75299999999953
 11
1739.8018566003934
 21
149.06585714285671
 72
     1
 10
1739.8018566003934
 20
149.06585714285671
 11
1741.1578669786586
 21
149.06585714285671
 97
        0
 75
     0
 76
     1
 98
        1
 10
0.0
 20
0.0
  0
HATCH
  5
683
100
AcDbEntity
  8
LAY-2
  6
CONTINUOUS
 62
     3
100
AcDbHatch
 10
0.0
 20
0.0
 30
0.0
210
0.0
220
0.0
230
1.0
  2
SOLID
 70
     1
 71
     1
 91
        1
 92
        1
 93
       12
 72
     2
 10
1720.591668736984
 20
257.28646287224547
 40
119.70000000000039
 50
276.500664
 51
278.269357
 73
     1
 72
     1
 10
1737.8077565041012
 20
138.83100152919451
 11
1737.8077565041012
 21
136.36299999999954
 72
     2
 10
1720.591668736984
 20
257.28646287224547
 40
122.14285714285755
 50
81.897153
 51
86.39082
 73
     0
 72
     1
 10
1728.2806136469585
 20
135.38585714285665
 11
1728.2806136469585
 21
137.83366832070936
 72
     2
 10
1720.591668736984
 20
257.28646287224547
 40
119.70000000000039
 50
273.682937
 51
275.325087
 73
     1
 72
     1
 10
1731.7006136469583
 20
138.10306913390929
 11
1731.7006136469583
 21
141.9815714285709
 72
     1
 10
1731.7006136469583
 20
141.9815714285709
 11
1728.2806136469585
 21
141.9815714285709
 72
     1
 10
1728.2806136469585
 20
141.9815714285709
 11
1728.2806136469585
 21
144.42442857142805
 72
     1
 10
1728.2806136469585
 20
144.42442857142805
 11
1737.0748993612442
 21
144.42442857142805
 72
     1
 10
1737.0748993612442
 20
144.42442857142805
 11
1737.0748993612442
 21
141.9815714285709
 72
     1
 10
1737.0748993612442
 20
141.9815714285709
 11
1734.1434707898156
 21
141.9815714285709
 72
     1
 10
1734.1434707898156
 20
141.9815714285709
 11
1734.1434707898154
 21
138.35606868673469
 97
        0
 75
     0
 76
     1
 98
        1
 10
0.0
 20
0.0
  0
HATCH
  5
684
100
AcDbEntity
  8
LAY-2
  6
CONTINUOUS
 62
     3
100
AcDbHatch
 10
0.0
 20
0.0
 30
0.0
210
0.0
220
0.0
230
1.0
  2
SOLID
 70
     1
 71
     1
 91
        1
 92
        1
 93
       30
 72
     2
 10
1698.5126658145275
 20
155.65873911757689
 40
26.749285714285801
 50
37.940537
 51
46.713808
 73
     0
 72
     1
 10
1716.8531249341049
 20
136.18691728428144
 11
1715.2113279326725
 21
137.82871428571389
 72
     2
 10
1698.5126658145275
 20
155.65873911757689
 40
24.428571428571523
 50
313.123325
 51
325.95222
 73
     1
 72
     1
 10
1718.7534707898153
 20
141.98157142857099
 11
1715.822042218387
 21
141.98157142857099
 72
     1
 10
1715.822042218387
 20
141.98157142857099
 11
1715.822042218387
 21
144.42442857142811
 72
     1
 10
1715.822042218387
 20
144.42442857142811
 11
1719.6084707898156
 21
144.42442857142811
 72
     1
 10
1719.6084707898156
 20
144.42442857142811
 11
1719.6084707898156
 21
146.86728571428523
 72
     1
 10
1719.6084707898156
 20
146.86728571428523
 11
1718.3905136068736
 21
146.86728571428523
 72
     2
 10
1692.2695363552207
 20
152.03442071865095
 40
26.627142857142957
 50
11.189535
 51
14.746058
 73
     0
 72
     1
 10
1718.0196730753189
 20
145.2568698607852
 11
1715.9441850755295
 21
146.01228571428521
 72
     2
 10
1692.2695363552207
 20
152.03442071865095
 40
24.428571428571523
 50
345.728313
 51
357.620387
 73
     1
 72
     1
 10
1716.677042218387
 20
151.02014285714966
 11
1718.8598927052053
 21
150.63524742147104
 72
     2
 10
1692.2695363552207
 20
152.03442071865095
 40
26.627142857142957
 50
3.012102
 51
6.401006
 73
     0
 72
     1
 10
1718.7306846113183
 20
149.06585714285671
 11
1719.6084707898156
 21
149.06585714285671
 72
     1
 10
1719.6084707898156
 20
149.06585714285671
 11
1719.6084707898156
 21
151.75299999999953
 72
     1
 10
1719.6084707898156
 20
151.75299999999953
 11
1722.0513279326726
 21
151.75299999999953
 72
     1
 10
1722.0513279326726
 20
151.75299999999953
 11
1722.0513279326726
 21
149.06585714285671
 72
     1
 10
1722.0513279326726
 20
149.06585714285671
 11
1725.3491850755299
 21
149.06585714285671
 72
     1
 10
1725.3491850755299
 20
149.06585714285671
 11
1725.3491850755299
 21
146.86728571428523
 72
     1
 10
1725.3491850755299
 20
146.86728571428523
 11
1722.0513279326726
 21
146.86728571428523
 72
     1
 10
1722.0513279326726
 20
146.86728571428523
 11
1722.0513279326726
 21
144.42442857142811
 72
     1
 10
1722.0513279326726
 20
144.42442857142811
 11
1725.8377565041012
 21
144.42442857142811
 72
     1
 10
1725.8377565041012
 20
144.42442857142811
 11
1725.8377565041012
 21
141.98157142857099
 72
     1
 10
1725.8377565041012
 20
141.98157142857099
 11
1722.9063279326724
 21
141.98157142857099
 72
     2
 10
1743.1471329079602
 20
155.65873911757686
 40
24.428571428571523
 50
214.04778
 51
226.876675
 73
     1
 72
     1
 10
1726.448470789815
 20
137.82871428571389
 11
1724.8066737883826
 21
136.18691728428144
 72
     2
 10
1743.1471329079602
 20
155.65873911757686
 40
26.749285714285801
 50
133.286192
 51
142.059463
 73
     0
 72
     1
 10
1722.0513279326726
 20
139.21211944455206
 11
1722.0513279326726
 21
134.65299999999948
 72
     1
 10
1722.0513279326726
 20
134.65299999999948
 11
1719.6084707898156
 21
134.65299999999948
 72
     1
 10
1719.6084707898156
 20
134.65299999999948
 11
1719.6084707898156
 21
139.21211944455274
 97
        0
 75
     0
 76
     1
 98
        1
 10
0.0
 20
0.0
  0
HATCH
  5
685
100
AcDbEntity
  8
LAY-2
  6
CONTINUOUS
 62
     3
100
AcDbHatch
 10
0.0
 20
0.0
 30
0.0
210
0.0
220
0.0
230
1.0
  2
SOLID
 70
     1
 71
     1
 91
        1
 92
        1
 93
       19
 72
     2
 10
1688.4565330906771
 20
152.39836919019078
 40
26.627142857142946
 50
27.683433
 51
32.280505
 73
     0
 72
     1
 10
1710.9682805872385
 20
138.17775171464621
 11
1709.2263279326726
 21
139.53871428571378
 72
     2
 10
1688.4565330906771
 20
152.39836919019078
 40
24.428571428571512
 50
328.236207
 51
344.845745
 73
     1
 72
     1
 10
1712.0356136469579
 20
146.01228571428524
 11
1709.8370422183868
 21
146.01228571428524
 72
     1
 10
1709.8370422183868
 20
146.01228571428524
 11
1709.8370422183868
 21
148.45514285714239
 72
     1
 10
1709.8370422183868
 20
148.45514285714239
 11
1712.0356136469584
 21
148.45514285714239
 72
     1
 10
1712.0356136469584
 20
148.45514285714239
 11
1712.0356136469584
 21
151.75299999999953
 72
     1
 10
1712.0356136469584
 20
151.75299999999953
 11
1714.4784707898154
 21
151.75299999999953
 72
     1
 10
1714.4784707898154
 20
151.75299999999953
 11
1714.4784707898154
 21
148.45514285714239
 72
     1
 10
1714.4784707898154
 20
148.45514285714239
 11
1715.5777565041012
 21
148.45514285714239
 72
     1
 10
1715.5777565041012
 20
148.45514285714239
 11
1715.5777565041012
 21
146.01228571428524
 72
     1
 10
1715.5777565041012
 20
146.01228571428524
 11
1714.4784707898154
 21
146.01228571428524
 72
     1
 10
1714.4784707898154
 20
146.01228571428524
 11
1715.822042218387
 21
144.093466856655
 72
     1
 10
1715.822042218387
 20
144.093466856655
 11
1715.822042218387
 21
142.60628729101231
 72
     1
 10
1715.822042218387
 20
142.60628729101231
 11
1715.0891850755297
 21
141.73290215815379
 72
     1
 10
1715.0891850755297
 20
141.73290215815379
 11
1714.4784707898154
 21
142.60509254798544
 72
     1
 10
1714.4784707898154
 20
142.60509254798544
 11
1714.4784707898154
 21
134.65299999999948
 72
     1
 10
1714.4784707898154
 20
134.65299999999948
 11
1712.0356136469584
 21
134.65299999999948
 72
     1
 10
1712.0356136469584
 20
134.65299999999948
 11
1712.0356136469584
 21
140.02777111026376
 97
        0
 75
     0
 76
     1
 98
        1
 10
0.0
 20
0.0
  0
HATCH
  5
686
100
AcDbEntity
  8
LAY-2
  6
CONTINUOUS
 62
     3
100
AcDbHatch
 10
0.0
 20
0.0
 30
0.0
210
0.0
220
0.0
230
1.0
  2
SOLID
 70
     1
 71
     1
 91
        1
 92
        1
 93
        8
 72
     2
 10
1698.7167999452583
 20
141.83499999999916
 40
4.7880000000000384
 50
270.0
 51
330.0
 73
     1
 72
     2
 10
1696.347354440504
 20
143.20299999999918
 40
7.5240000000000364
 50
330.0
 51
30.0
 73
     1
 72
     2
 10
1698.7167999452583
 20
144.57099999999917
 40
4.7880000000000367
 50
30.0
 51
90.0
 73
     1
 72
     1
 10
1698.7167999452597
 20
149.35899999999921
 11
1698.7167999452597
 21
152.09499999999974
 72
     2
 10
1698.7167999452581
 20
144.57099999999974
 40
7.5240000000000231
 50
270.0
 51
330.0
 73
     0
 72
     2
 10
1696.3473544405044
 20
143.20299999999963
 40
10.260000000000046
 50
330.0
 51
30.0
 73
     0
 72
     2
 10
1698.7167999452586
 20
141.83499999999887
 40
7.5240000000000151
 50
30.0
 51
90.0
 73
     0
 72
     1
 10
1698.7167999452597
 20
134.31099999999884
 11
1698.7167999452597
 21
137.04699999999912
 97
        0
 75
     0
 76
     1
 98
        1
 10
0.0
 20
0.0
  0
HATCH
  5
687
100
AcDbEntity
  8
LAY-2
  6
CONTINUOUS
 62
     3
100
AcDbHatch
 10
0.0
 20
0.0
 30
0.0
210
0.0
220
0.0
230
1.0
  2
SOLID
 70
     1
 71
     1
 91
        1
 92
        1
 93
        8
 72
     2
 10
1698.7167999452586
 20
141.83499999999887
 40
7.5240000000000151
 50
90.0
 51
150.0
 73
     0
 72
     2
 10
1701.0862454500123
 20
143.20299999999907
 40
10.260000000000057
 50
150.0
 51
210.0
 73
     0
 72
     2
 10
1698.7167999452581
 20
144.57099999999974
 40
7.5240000000000231
 50
210.0
 51
270.0
 73
     0
 72
     1
 10
1698.7167999452597
 20
152.09499999999974
 11
1698.7167999452597
 21
149.35899999999921
 72
     2
 10
1698.7167999452583
 20
144.57099999999917
 40
4.7880000000000367
 50
90.0
 51
150.0
 73
     1
 72
     2
 10
1701.0862454500127
 20
143.20299999999918
 40
7.52400000000004
 50
150.0
 51
210.0
 73
     1
 72
     2
 10
1698.7167999452583
 20
141.83499999999916
 40
4.7880000000000384
 50
210.0
 51
270.0
 73
     1
 72
     1
 10
1698.7167999452597
 20
137.04699999999912
 11
1698.7167999452597
 21
134.31099999999884
 97
        0
 75
     0
 76
     1
 98
        1
 10
0.0
 20
0.0
  0
HATCH
  5
688
100
AcDbEntity
  8
LAY-2
  6
CONTINUOUS
 62
     3
100
AcDbHatch
 10
0.0
 20
0.0
 30
0.0
210
0.0
220
0.0
230
1.0
  2
SOLID
 70
     1
 71
     1
 91
        1
 92
        1
 93
        4
 72
     1
 10
1688.1147999452585
 20
140.12499999999915
 11
1685.3787999452584
 21
140.12499999999915
 72
     1
 10
1685.3787999452584
 20
140.12499999999915
 11
1685.3787999452584
 21
142.86099999999914
 72
     1
 10
1685.3787999452584
 20
142.86099999999914
 11
1688.1147999452585
 21
142.86099999999914
 72
     1
 10
1688.1147999452585
 20
142.86099999999914
 11
1688.1147999452585
 21
140.12499999999898
 97
        0
 75
     0
 76
     1
 98
        1
 10
0.0
 20
0.0
  0
HATCH
  5
689
100
AcDbEntity
  8
LAY-2
  6
CONTINUOUS
 62
     3
100
AcDbHatch
 10
0.0
 20
0.0
 30
0.0
210
0.0
220
0.0
230
1.0
  2
SOLID
 70
     1
 71
     1
 91
        1
 92
        1
 93
       16
 72
     1
 10
1675.1187999452582
 20
149.0169999999992
 11
1671.3567999452582
 21
149.0169999999992
 72
     1
 10
1671.3567999452582
 20
149.0169999999992
 11
1670.6727999452582
 21
145.25499999999917
 72
     1
 10
1670.6727999452582
 20
145.25499999999917
 11
1668.6207999452583
 21
145.25499999999917
 72
     1
 10
1668.6207999452583
 20
145.25499999999917
 11
1668.6207999452583
 21
151.75299999999919
 72
     1
 10
1668.6207999452583
 20
151.75299999999919
 11
1684.3527999452585
 21
151.75299999999919
 72
     1
 10
1684.3527999452585
 20
151.75299999999919
 11
1684.3527999452585
 21
145.25499999999917
 72
     1
 10
1684.3527999452585
 20
145.25499999999917
 11
1682.3007999452584
 21
145.25499999999917
 72
     1
 10
1682.3007999452584
 20
145.25499999999917
 11
1681.6167999452584
 21
149.0169999999992
 72
     1
 10
1681.6167999452584
 20
149.0169999999992
 11
1677.8547999452583
 21
149.0169999999992
 72
     1
 10
1677.8547999452583
 20
149.0169999999992
 11
1677.8547999452585
 21
137.38899999999916
 72
     1
 10
1677.8547999452585
 20
137.38899999999916
 11
1680.5907999452584
 21
136.70499999999913
 72
     1
 10
1680.5907999452584
 20
136.70499999999913
 11
1680.5907999452584
 21
134.65299999999911
 72
     1
 10
1680.5907999452584
 20
134.65299999999911
 11
1672.3827999452583
 21
134.65299999999911
 72
     1
 10
1672.3827999452583
 20
134.65299999999911
 11
1672.3827999452583
 21
136.70499999999913
 72
     1
 10
1672.3827999452583
 20
136.70499999999913
 11
1675.1187999452582
 21
137.38899999999916
 72
     1
 10
1675.1187999452582
 20
137.38899999999916
 11
1675.1187999452582
 21
149.0169999999992
 97
        0
 75
     0
 76
     1
 98
        1
 10
0.0
 20
0.0
  0
HATCH
  5
68A
100
AcDbEntity
  8
LAY-2
  6
CONTINUOUS
 62
     3
100
AcDbHatch
 10
0.0
 20
0.0
 30
0.0
210
0.0
220
0.0
230
1.0
  2
SOLID
 70
     1
 71
     1
 91
        1
 92
        1
 93
        4
 72
     1
 10
1664.8587999452584
 20
140.12499999999915
 11
1664.8587999452584
 21
142.86099999999931
 72
     1
 10
1664.8587999452584
 20
142.86099999999931
 11
1667.5947999452583
 21
142.86099999999914
 72
     1
 10
1667.5947999452583
 20
142.86099999999914
 11
1667.5947999452583
 21
140.12499999999915
 72
     1
 10
1667.5947999452583
 20
140.12499999999915
 11
1664.8587999452584
 21
140.12499999999915
 97
        0
 75
     0
 76
     1
 98
        1
 10
0.0
 20
0.0
  0
HATCH
  5
68B
100
AcDbEntity
  8
LAY-2
  6
CONTINUOUS
 62
     3
100
AcDbHatch
 10
0.0
 20
0.0
 30
0.0
210
0.0
220
0.0
230
1.0
  2
SOLID
 70
     1
 71
     1
 91
        1
 92
        1
 93
       12
 72
     1
 10
1661.7807999452584
 20
151.75299999999919
 11
1661.7807999452584
 21
149.7009999999992
 72
     1
 10
1661.7807999452584
 20
149.7009999999992
 11
1659.0447999452585
 21
149.0169999999992
 72
     1
 10
1659.0447999452585
 20
149.0169999999992
 11
1659.0447999452585
 21
137.38899999999916
 72
     1
 10
1659.0447999452585
 20
137.38899999999916
 11
1661.7807999452584
 21
136.70499999999913
 72
     1
 10
1661.7807999452584
 20
136.70499999999913
 11
1661.7807999452584
 21
134.65299999999911
 72
     1
 10
1661.7807999452584
 20
134.65299999999911
 11
1653.5727999452583
 21
134.65299999999911
 72
     1
 10
1653.5727999452583
 20
134.65299999999911
 11
1653.5727999452583
 21
136.70499999999913
 72
     1
 10
1653.5727999452583
 20
136.70499999999913
 11
1656.3087999452582
 21
137.38899999999916
 72
     1
 10
1656.3087999452582
 20
137.38899999999916
 11
1656.3087999452582
 21
149.0169999999992
 72
     1
 10
1656.3087999452582
 20
149.0169999999992
 11
1653.5727999452583
 21
149.7009999999992
 72
     1
 10
1653.5727999452583
 20
149.7009999999992
 11
1653.5727999452583
 21
151.75299999999919
 72
     1
 10
1653.5727999452583
 20
151.75299999999919
 11
1661.7807999452584
 21
151.75299999999919
 97
        0
 75
     0
 76
     1
 98
        1
 10
0.0
 20
0.0
  0
HATCH
  5
68C
100
AcDbEntity
  8
LAY-2
  6
CONTINUOUS
 62
     3
100
AcDbHatch
 10
0.0
 20
0.0
 30
0.0
210
0.0
220
0.0
230
1.0
  2
SOLID
 70
     1
 71
     1
 91
        1
 92
        1
 93
       15
 72
     2
 10
1634.9597166716806
 20
143.20299999999952
 40
7.5931593159316035
 50
124.301153
 51
180.0
 73
     0
 72
     1
 10
1627.3665573557489
 20
143.20299999999997
 11
1630.2317398566249
 21
143.20299999999997
 72
     2
 10
1637.6196786505043
 20
143.20299999999958
 40
7.3879387938794103
 50
180.0
 51
199.464384
 73
     1
 72
     2
 10
1630.5344128641284
 20
144.0225359444984
 40
3.2835283528353623
 50
272.086657
 51
294.619977
 73
     1
 72
     2
 10
1631.4748514405908
 20
141.9703307239763
 40
1.026102610261032
 50
294.619977
 51
0.0
 73
     1
 72
     1
 10
1632.500954050852
 20
141.9703307239763
 11
1632.500954050852
 21
143.20299999999997
 72
     1
 10
1632.500954050852
 20
143.20299999999997
 11
1634.9636003154783
 21
143.20299999999997
 72
     1
 10
1634.9636003154783
 20
143.20299999999997
 11
1634.9636003154783
 21
141.96815341758349
 72
     2
 10
1635.9897029257395
 20
141.96815341758349
 40
1.02610261026099
 50
180.0
 51
245.380023
 73
     1
 72
     2
 10
1636.9301415022019
 20
144.02035863810599
 40
3.2835283528357233
 50
245.380023
 51
267.913343
 73
     1
 72
     1
 10
1636.8105850139482
 20
140.73900759166298
 11
1636.8105850139482
 21
140.12334602550644
 72
     1
 10
1636.8105850139482
 20
140.12334602550644
 11
1630.9042210324792
 21
140.12334602550641
 72
     2
 10
1637.6196786505047
 20
143.20299999999958
 40
7.3879387938794006
 50
204.635803
 51
268.19864
 73
     1
 72
     1
 10
1637.3874426442128
 20
135.81871221718058
 11
1637.3874426442128
 21
134.79114885601308
 72
     2
 10
1637.6196786505043
 20
147.10218991899185
 40
12.313231323132369
 50
91.080702
 51
124.301153
 73
     0
 97
        0
 75
     0
 76
     1
 98
        1
 10
0.0
 20
0.0
  0
HATCH
  5
68D
100
AcDbEntity
  8
LAY-2
  6
CONTINUOUS
 62
     3
100
AcDbHatch
 10
0.0
 20
0.0
 30
0.0
210
0.0
220
0.0
230
1.0
  2
SOLID
 70
     1
 71
     1
 91
        1
 92
        1
 93
       24
 72
     2
 10
1636.1947742783016
 20
144.22910261026061
 40
1.0261026102610411
 50
90.0
 51
157.380135
 73
     1
 72
     2
 10
1638.6574205429279
 20
143.20299999999966
 40
3.6939693969397109
 50
157.380135
 51
180.0
 73
     1
 72
     1
 10
1634.9634511459883
 20
143.20299999999997
 11
1632.500954050852
 21
143.20299999999997
 72
     1
 10
1632.500954050852
 20
143.20299999999997
 11
1632.500954050852
 21
148.53031621879305
 72
     2
 10
1637.6196786505043
 20
143.20299999999958
 40
7.3879387938794103
 50
133.856042
 51
180.0
 73
     1
 72
     1
 10
1630.2317398566249
 20
143.20299999999997
 11
1627.3665573557489
 21
143.20299999999997
 72
     2
 10
1634.9597166716806
 20
143.20299999999952
 40
7.5931593159316035
 50
180.0
 51
235.698847
 73
     0
 72
     2
 10
1637.6196786505047
 20
139.30381008100721
 40
12.313231323132396
 50
235.698847
 51
245.436008
 73
     0
 72
     1
 10
1632.500954050852
 20
150.50266377635836
 11
1632.500954050852
 21
151.61787256682271
 72
     2
 10
1631.4748514405908
 20
151.61787256682271
 40
1.0261026102610264
 50
0.0
 51
65.380023
 73
     1
 72
     2
 10
1630.5344128641284
 20
149.56566734630064
 40
3.2835283528352881
 50
65.380023
 51
87.913343
 73
     1
 72
     1
 10
1630.6539693523819
 20
152.84701839274322
 11
1630.6539693523819
 21
153.4626799588998
 72
     1
 10
1630.6539693523819
 20
153.4626799588998
 11
1636.8105850139482
 21
153.4626799588998
 72
     1
 10
1636.8105850139482
 20
153.4626799588998
 11
1636.8105850139482
 21
152.84701839274322
 72
     2
 10
1636.9301415022019
 20
149.56566734630064
 40
3.2835283528353032
 50
92.086657
 51
114.619977
 73
     1
 72
     2
 10
1635.9897029257395
 20
151.61787256682277
 40
1.0261026102610411
 50
114.619977
 51
180.0
 73
     1
 72
     1
 10
1634.9636003154783
 20
151.61787256682271
 11
1634.9636003154783
 21
151.32715876160256
 72
     2
 10
1637.6196786505043
 20
139.30381008100721
 40
12.313231323132365
 50
257.542857
 51
268.919298
 73
     0
 72
     1
 10
1637.3874426442128
 20
151.61485114398602
 11
1637.3874426442128
 21
150.58728778281858
 72
     2
 10
1637.6196786505047
 20
143.20299999999958
 40
7.3879387938794103
 50
91.80136
 51
111.070443
 73
     1
 72
     1
 10
1634.9636003154783
 20
150.09697472437389
 11
1634.9636003154783
 21
146.28130783078265
 72
     1
 10
1634.9636003154783
 20
146.28130783078265
 11
1637.3874426442128
 21
146.28130783078265
 72
     1
 10
1637.3874426442128
 20
146.28130783078265
 11
1637.3874426442128
 21
145.25520522052159
 72
     1
 10
1637.3874426442128
 20
145.25520522052159
 11
1636.1947742783016
 21
145.25520522052159
 97
        0
 75
     0
 76
     1
 98
        1
 10
0.0
 20
0.0
  0
HATCH
  5
68E
100
AcDbEntity
  8
LAY-2
  6
CONTINUOUS
 62
     3
100
AcDbHatch
 10
0.0
 20
0.0
 30
0.0
210
0.0
220
0.0
230
1.0
  2
SOLID
 70
     1
 71
     1
 91
        1
 92
        1
 93
       14
 72
     2
 10
1637.6196786505043
 20
143.20299999999958
 40
7.3879387938794245
 50
0.0
 51
9.281799
 73
     1
 72
     2
 10
1643.8982193297077
 20
144.22910261026061
 40
1.02610261026102
 50
9.281799
 51
90.0
 73
     1
 72
     1
 10
1643.8982193297077
 20
145.25520522052159
 11
1641.7240890915486
 21
145.25520522052159
 72
     1
 10
1641.7240890915486
 20
145.25520522052159
 11
1641.7240890915486
 21
143.20299999999997
 72
     1
 10
1641.7240890915486
 20
143.20299999999997
 11
1639.2614428269221
 21
143.20299999999997
 72
     1
 10
1639.2614428269221
 20
143.20299999999997
 11
1639.2614428269221
 21
145.25520522052159
 72
     1
 10
1639.2614428269221
 20
145.25520522052159
 11
1637.3874426442128
 21
145.25520522052159
 72
     1
 10
1637.3874426442128
 20
145.25520522052159
 11
1637.3874426442128
 21
146.28130783078265
 72
     1
 10
1637.3874426442128
 20
146.28130783078265
 11
1644.3357534357528
 21
146.28130783078257
 72
     2
 10
1637.6196786505047
 20
143.20299999999958
 40
7.3879387938794103
 50
24.624318
 51
91.80136
 73
     1
 72
     1
 10
1637.3874426442128
 20
150.58728778281858
 11
1637.3874426442128
 21
151.61485114398602
 72
     2
 10
1637.6196786505043
 20
139.30381008100721
 40
12.313231323132365
 50
268.919298
 51
304.301153
 73
     0
 72
     2
 10
1640.2796406293285
 20
143.20299999999952
 40
7.5931593159316115
 50
304.301153
 51
0.0
 73
     0
 72
     1
 10
1647.8727999452601
 20
143.20299999999997
 11
1645.0076174443839
 21
143.20299999999997
 97
        0
 75
     0
 76
     1
 98
        1
 10
0.0
 20
0.0
  0
HATCH
  5
68F
100
AcDbEntity
  8
LAY-2
  6
CONTINUOUS
 62
     3
100
AcDbHatch
 10
0.0
 20
0.0
 30
0.0
210
0.0
220
0.0
230
1.0
  2
SOLID
 70
     1
 71
     1
 91
        1
 92
        1
 93
       19
 72
     2
 10
1637.6196786505043
 20
143.20299999999958
 40
7.3879387938794245
 50
303.748989
 51
0.0
 73
     1
 72
     1
 10
1645.0076174443839
 20
143.20299999999997
 11
1647.8727999452601
 21
143.20299999999997
 72
     2
 10
1640.2796406293285
 20
143.20299999999952
 40
7.5931593159316115
 50
0.0
 51
55.698847
 73
     0
 72
     2
 10
1637.6196786505047
 20
147.10218991899188
 40
12.313231323132388
 50
55.698847
 51
70.528779
 73
     0
 72
     1
 10
1641.7240890915486
 20
135.49316409645115
 11
1641.7240890915486
 21
134.78678128946635
 72
     2
 10
1642.7501917018096
 20
134.78678128946635
 40
1.026102610261032
 50
180.0
 51
245.380023
 73
     1
 72
     2
 10
1643.690630278272
 20
136.83898650998844
 40
3.283528352835297
 50
245.380023
 51
267.913343
 73
     1
 72
     1
 10
1643.5710737900185
 20
133.55763546354586
 11
1643.5710737900185
 21
132.94197389738923
 72
     1
 10
1643.5710737900185
 20
132.94197389738923
 11
1637.4144581284522
 21
132.94197389738923
 72
     1
 10
1637.4144581284522
 20
132.94197389738923
 11
1637.4144581284522
 21
133.55763546354586
 72
     2
 10
1637.2949016401985
 20
136.83898650998844
 40
3.283528352835297
 50
272.086657
 51
294.619977
 73
     1
 72
     2
 10
1638.2353402166609
 20
134.78678128946635
 40
1.026102610261032
 50
294.619977
 51
0.0
 73
     1
 72
     1
 10
1639.2614428269221
 20
134.78678128946635
 11
1639.2614428269221
 21
134.89890036223707
 72
     2
 10
1637.6196786505043
 20
147.10218991899185
 40
12.313231323132369
 50
82.337744
 51
91.080702
 73
     0
 72
     1
 10
1637.3874426442128
 20
134.79114885601308
 11
1637.3874426442128
 21
135.81871221718058
 72
     2
 10
1637.6196786505047
 20
143.20299999999958
 40
7.3879387938794006
 50
268.19864
 51
282.839588
 73
     1
 72
     1
 10
1639.2614428269221
 20
135.99978890971906
 11
1639.2614428269221
 21
143.20299999999997
 72
     1
 10
1639.2614428269221
 20
143.20299999999997
 11
1641.7240890915486
 21
143.20299999999997
 72
     1
 10
1641.7240890915486
 20
143.20299999999997
 11
1641.7240890915486
 21
137.06008094196565
 97
        0
 75
     0
 76
     1
 98
        1
 10
0.0
 20
0.0
  0
TEXT
  5
690
100
AcDbEntity
  8
LAY-2
  6
CONTINUOUS
 62
     3
100
AcDbText
 10
1594.904
 20
183.816
 30
0.0
 40
20.0
  1
温水循環式蒸発器
 41
0.84
  7
EXCADSTD
 72
     5
 11
1754.904
 21
183.816
 31
0.0
100
AcDbText
  0
TEXT
  5
691
100
AcDbEntity
  8
LAY-2
  6
CONTINUOUS
 62
     3
100
AcDbText
 10
1605.48
 20
239.32
 30
0.0
 40
20.0
  1
’１４年　６月１０日
 41
0.84
  7
EXCADSTD
 72
     5
 11
1805.48
 21
239.32
 31
0.0
100
AcDbText
  0
TEXT
  5
692
100
AcDbEntity
  8
LAY-2
  6
CONTINUOUS
 62
     3
100
AcDbText
 10
1594.936
 20
211.72
 30
0.0
 40
20.0
  1
ＳＭＶ－５０Ｃ
 41
0.84
  7
EXCADSTD
 72
     5
 11
1734.936
 21
211.72
 31
0.0
100
AcDbText
  0
TEXT
  5
693
100
AcDbEntity
  8
LAY-5
  6
CONTINUOUS
 62
     3
100
AcDbText
 10
381.419387
 20
1197.780016
 30
0.0
 40
25.0
  1
ＪＩＳ ２０Ｋ １５Ａ フランジ
 41
0.788438
  7
EXCADSTD
 72
     5
 11
743.919387
 21
1197.780016
 31
0.0
100
AcDbText
  0
POLYLINE
  5
694
100
AcDbEntity
  8
LAY-5
  6
CONTINUOUS
 62
     1
100
AcDb2dPolyline
 66
     1
 10
0.0
 20
0.0
 30
0.0
 70
   128
  0
VERTEX
  5
695
100
AcDbEntity
  8
LAY-5
  6
CONTINUOUS
 62
     1
100
AcDbVertex
100
AcDb2dVertex
 10
834.505097
 20
1030.310059
 30
0.0
  0
VERTEX
  5
696
100
AcDbEntity
  8
LAY-5
  6
CONTINUOUS
 62
     1
100
AcDbVertex
100
AcDb2dVertex
 10
745.169387
 20
1197.480015
 30
0.0
  0
VERTEX
  5
697
100
AcDbEntity
  8
LAY-5
  6
CONTINUOUS
 62
     1
100
AcDbVertex
100
AcDb2dVertex
 10
378.0
 20
1197.480015
 30
0.0
  0
SEQEND
  5
698
100
AcDbEntity
  8
LAY-5
  6
CONTINUOUS
 62
     1
  0
LINE
  5
699
100
AcDbEntity
  8
LAY-5
  6
CONTINUOUS
 62
     1
100
AcDbLine
 10
828.321952
 20
1038.344142
 30
0.0
 11
834.505097
 21
1030.310059
 31
0.0
  0
LINE
  5
69A
100
AcDbEntity
  8
LAY-5
  6
CONTINUOUS
 62
     1
100
AcDbLine
 10
834.505097
 20
1030.310059
 30
0.0
 11
831.261825
 21
1039.915212
 31
0.0
  0
TEXT
  5
69B
100
AcDbEntity
  8
LAY-5
  6
CONTINUOUS
 62
     3
100
AcDbText
 10
379.614766
 20
1110.0
 30
0.0
 40
25.0
  1
２０８
 41
0.84
  7
EXCADSTD
 72
     5
 11
454.614766
 21
1110.0
 31
0.0
100
AcDbText
  0
LINE
  5
69C
100
AcDbEntity
  8
LAY-5
  6
CONTINUOUS
 62
     1
100
AcDbLine
 10
313.114766
 20
1069.681315
 30
0.0
 11
313.114766
 21
1109.5
 31
0.0
  0
LINE
  5
69D
100
AcDbEntity
  8
LAY-5
  6
CONTINUOUS
 62
     1
100
AcDbLine
 10
521.114766
 20
1069.681315
 30
0.0
 11
521.114766
 21
1109.5
 31
0.0
  0
LINE
  5
69E
100
AcDbEntity
  8
LAY-5
  6
CONTINUOUS
 62
     1
100
AcDbLine
 10
313.114766
 20
1109.0
 30
0.0
 11
521.114766
 21
1109.0
 31
0.0
  0
LINE
  5
69F
100
AcDbEntity
  8
LAY-5
  6
CONTINUOUS
 62
     1
100
AcDbLine
 10
323.114766
 20
1110.666667
 30
0.0
 11
313.114766
 21
1109.0
 31
0.0
  0
LINE
  5
6A0
100
AcDbEntity
  8
LAY-5
  6
CONTINUOUS
 62
     1
100
AcDbLine
 10
313.114766
 20
1109.0
 30
0.0
 11
323.114766
 21
1107.333333
 31
0.0
  0
LINE
  5
6A1
100
AcDbEntity
  8
LAY-5
  6
CONTINUOUS
 62
     1
100
AcDbLine
 10
511.114766
 20
1107.333333
 30
0.0
 11
521.114766
 21
1109.0
 31
0.0
  0
LINE
  5
6A2
100
AcDbEntity
  8
LAY-5
  6
CONTINUOUS
 62
     1
100
AcDbLine
 10
521.114766
 20
1109.0
 30
0.0
 11
511.114766
 21
1110.666667
 31
0.0
  0
TEXT
  5
6A3
100
AcDbEntity
  8
LAY-5
  6
CONTINUOUS
 62
     3
100
AcDbText
 10
267.0
 20
1002.181315
 30
0.0
 40
25.0
  1
８５
 50
90.0
 41
0.84
  7
EXCADSTD
 72
     5
 11
267.0
 21
1048.011315
 31
0.0
100
AcDbText
  0
LINE
  5
6A4
100
AcDbEntity
  8
LAY-5
  6
CONTINUOUS
 62
     1
100
AcDbLine
 10
313.114766
 20
1069.681315
 30
0.0
 11
267.5
 21
1069.681315
 31
0.0
  0
LINE
  5
6A5
100
AcDbEntity
  8
LAY-5
  6
CONTINUOUS
 62
     1
100
AcDbLine
 10
313.114766
 20
984.681315
 30
0.0
 11
267.5
 21
984.681315
 31
0.0
  0
LINE
  5
6A6
100
AcDbEntity
  8
LAY-5
  6
CONTINUOUS
 62
     1
100
AcDbLine
 10
268.0
 20
1069.681315
 30
0.0
 11
268.0
 21
984.681315
 31
0.0
  0
LINE
  5
6A7
100
AcDbEntity
  8
LAY-5
  6
CONTINUOUS
 62
     1
100
AcDbLine
 10
269.666667
 20
1059.681315
 30
0.0
 11
268.0
 21
1069.681315
 31
0.0
  0
LINE
  5
6A8
100
AcDbEntity
  8
LAY-5
  6
CONTINUOUS
 62
     1
100
AcDbLine
 10
268.0
 20
1069.681315
 30
0.0
 11
266.333333
 21
1059.681315
 31
0.0
  0
LINE
  5
6A9
100
AcDbEntity
  8
LAY-5
  6
CONTINUOUS
 62
     1
100
AcDbLine
 10
266.333333
 20
994.681315
 30
0.0
 11
268.0
 21
984.681315
 31
0.0
  0
LINE
  5
6AA
100
AcDbEntity
  8
LAY-5
  6
CONTINUOUS
 62
     1
100
AcDbLine
 10
268.0
 20
984.681315
 30
0.0
 11
269.666667
 21
994.681315
 31
0.0
  0
TEXT
  5
6AB
100
AcDbEntity
  8
LAY-5
  6
CONTINUOUS
 62
     3
100
AcDbText
 10
266.5
 20
677.681315
 30
0.0
 40
25.0
  1
５３９
 50
90.0
 41
0.84
  7
EXCADSTD
 72
     5
 11
266.5
 21
752.681315
 31
0.0
100
AcDbText
  0
LINE
  5
6AC
100
AcDbEntity
  8
LAY-5
  6
CONTINUOUS
 62
     1
100
AcDbLine
 10
268.0
 20
984.681315
 30
0.0
 11
267.0
 21
984.681315
 31
0.0
  0
LINE
  5
6AD
100
AcDbEntity
  8
LAY-5
  6
CONTINUOUS
 62
     1
100
AcDbLine
 10
404.614766
 20
445.681315
 30
0.0
 11
267.0
 21
445.681315
 31
0.0
  0
LINE
  5
6AE
100
AcDbEntity
  8
LAY-5
  6
CONTINUOUS
 62
     1
100
AcDbLine
 10
267.5
 20
984.681315
 30
0.0
 11
267.5
 21
445.681315
 31
0.0
  0
LINE
  5
6AF
100
AcDbEntity
  8
LAY-5
  6
CONTINUOUS
 62
     1
100
AcDbLine
 10
269.166667
 20
974.681315
 30
0.0
 11
267.5
 21
984.681315
 31
0.0
  0
LINE
  5
6B0
100
AcDbEntity
  8
LAY-5
  6
CONTINUOUS
 62
     1
100
AcDbLine
 10
267.5
 20
984.681315
 30
0.0
 11
265.833333
 21
974.681315
 31
0.0
  0
LINE
  5
6B1
100
AcDbEntity
  8
LAY-5
  6
CONTINUOUS
 62
     1
100
AcDbLine
 10
265.833333
 20
455.681315
 30
0.0
 11
267.5
 21
445.681315
 31
0.0
  0
LINE
  5
6B2
100
AcDbEntity
  8
LAY-5
  6
CONTINUOUS
 62
     1
100
AcDbLine
 10
267.5
 20
445.681315
 30
0.0
 11
269.166667
 21
455.681315
 31
0.0
  0
TEXT
  5
6B3
100
AcDbEntity
  8
LAY-5
  6
CONTINUOUS
 62
     3
100
AcDbText
 10
222.0
 20
720.181315
 30
0.0
 40
25.0
  1
６２４
 50
90.0
 41
0.84
  7
EXCADSTD
 72
     5
 11
222.0
 21
795.181315
 31
0.0
100
AcDbText
  0
LINE
  5
6B4
100
AcDbEntity
  8
LAY-5
  6
CONTINUOUS
 62
     1
100
AcDbLine
 10
313.114766
 20
1069.681315
 30
0.0
 11
222.5
 21
1069.681315
 31
0.0
  0
LINE
  5
6B5
100
AcDbEntity
  8
LAY-5
  6
CONTINUOUS
 62
     1
100
AcDbLine
 10
384.0
 20
445.681315
 30
0.0
 11
222.5
 21
445.681315
 31
0.0
  0
LINE
  5
6B6
100
AcDbEntity
  8
LAY-5
  6
CONTINUOUS
 62
     1
100
AcDbLine
 10
223.0
 20
1069.681315
 30
0.0
 11
223.0
 21
445.681315
 31
0.0
  0
LINE
  5
6B7
100
AcDbEntity
  8
LAY-5
  6
CONTINUOUS
 62
     1
100
AcDbLine
 10
224.666667
 20
1059.681315
 30
0.0
 11
223.0
 21
1069.681315
 31
0.0
  0
LINE
  5
6B8
100
AcDbEntity
  8
LAY-5
  6
CONTINUOUS
 62
     1
100
AcDbLine
 10
223.0
 20
1069.681315
 30
0.0
 11
221.333333
 21
1059.681315
 31
0.0
  0
LINE
  5
6B9
100
AcDbEntity
  8
LAY-5
  6
CONTINUOUS
 62
     1
100
AcDbLine
 10
221.333333
 20
455.681315
 30
0.0
 11
223.0
 21
445.681315
 31
0.0
  0
LINE
  5
6BA
100
AcDbEntity
  8
LAY-5
  6
CONTINUOUS
 62
     1
100
AcDbLine
 10
223.0
 20
445.681315
 30
0.0
 11
224.666667
 21
455.681315
 31
0.0
  0
TEXT
  5
6BB
100
AcDbEntity
  8
LAY-5
  6
CONTINUOUS
 62
     3
100
AcDbText
 10
965.005097
 20
1106.0
 30
0.0
 40
25.0
  1
２７６
 41
0.84
  7
EXCADSTD
 72
     5
 11
1040.005097
 21
1106.0
 31
0.0
100
AcDbText
  0
LINE
  5
6BC
100
AcDbEntity
  8
LAY-5
  6
CONTINUOUS
 62
     1
100
AcDbLine
 10
864.505097
 20
1070.681315
 30
0.0
 11
864.505097
 21
1105.5
 31
0.0
  0
LINE
  5
6BD
100
AcDbEntity
  8
LAY-5
  6
CONTINUOUS
 62
     1
100
AcDbLine
 10
1140.505097
 20
1070.681315
 30
0.0
 11
1140.505097
 21
1105.5
 31
0.0
  0
LINE
  5
6BE
100
AcDbEntity
  8
LAY-5
  6
CONTINUOUS
 62
     1
100
AcDbLine
 10
864.505097
 20
1105.0
 30
0.0
 11
1140.505097
 21
1105.0
 31
0.0
  0
LINE
  5
6BF
100
AcDbEntity
  8
LAY-5
  6
CONTINUOUS
 62
     1
100
AcDbLine
 10
874.505097
 20
1106.666667
 30
0.0
 11
864.505097
 21
1105.0
 31
0.0
  0
LINE
  5
6C0
100
AcDbEntity
  8
LAY-5
  6
CONTINUOUS
 62
     1
100
AcDbLine
 10
864.505097
 20
1105.0
 30
0.0
 11
874.505097
 21
1103.333333
 31
0.0
  0
LINE
  5
6C1
100
AcDbEntity
  8
LAY-5
  6
CONTINUOUS
 62
     1
100
AcDbLine
 10
1130.505097
 20
1103.333333
 30
0.0
 11
1140.505097
 21
1105.0
 31
0.0
  0
LINE
  5
6C2
100
AcDbEntity
  8
LAY-5
  6
CONTINUOUS
 62
     1
100
AcDbLine
 10
1140.505097
 20
1105.0
 30
0.0
 11
1130.505097
 21
1106.666667
 31
0.0
  0
LINE
  5
6C3
100
AcDbEntity
  8
LAY-5
  6
CONTINUOUS
 62
     1
100
AcDbLine
 10
832.505097
 20
1146.0
 30
0.0
 11
1172.505097
 21
1146.0
 31
0.0
  0
LINE
  5
6C4
100
AcDbEntity
  8
LAY-5
  6
CONTINUOUS
 62
     1
100
AcDbLine
 10
842.505097
 20
1147.666667
 30
0.0
 11
832.505097
 21
1146.0
 31
0.0
  0
LINE
  5
6C5
100
AcDbEntity
  8
LAY-5
  6
CONTINUOUS
 62
     1
100
AcDbLine
 10
832.505097
 20
1146.0
 30
0.0
 11
842.505097
 21
1144.333333
 31
0.0
  0
LINE
  5
6C6
100
AcDbEntity
  8
LAY-5
  6
CONTINUOUS
 62
     1
100
AcDbLine
 10
1162.505097
 20
1144.333333
 30
0.0
 11
1172.505097
 21
1146.0
 31
0.0
  0
LINE
  5
6C7
100
AcDbEntity
  8
LAY-5
  6
CONTINUOUS
 62
     1
100
AcDbLine
 10
1172.505097
 20
1146.0
 30
0.0
 11
1162.505097
 21
1147.666667
 31
0.0
  0
TEXT
  5
6C8
100
AcDbEntity
  8
LAY-5
  6
CONTINUOUS
 62
     3
100
AcDbText
 10
965.005097
 20
1147.0
 30
0.0
 40
25.0
  1
３４０
 41
0.84
  7
EXCADSTD
 72
     5
 11
1040.005097
 21
1147.0
 31
0.0
100
AcDbText
  0
LINE
  5
6C9
100
AcDbEntity
  8
LAY-5
  6
CONTINUOUS
 62
     1
100
AcDbLine
 10
832.505097
 20
1010.181315
 30
0.0
 11
832.505097
 21
1146.5
 31
0.0
  0
LINE
  5
6CA
100
AcDbEntity
  8
LAY-5
  6
CONTINUOUS
 62
     1
100
AcDbLine
 10
1172.505097
 20
1010.181315
 30
0.0
 11
1172.505097
 21
1146.5
 31
0.0
  0
TEXT
  5
6CB
100
AcDbEntity
  8
LAY-5
  6
CONTINUOUS
 62
     3
100
AcDbText
 10
1262.419387
 20
1199.651271
 30
0.0
 40
25.0
  1
ＪＩＳ ２０Ｋ １５Ａ フランジ
 41
0.788438
  7
EXCADSTD
 72
     5
 11
1624.919387
 21
1199.651271
 31
0.0
100
AcDbText
  0
POLYLINE
  5
6CC
100
AcDbEntity
  8
LAY-5
  6
CONTINUOUS
 62
     1
100
AcDb2dPolyline
 66
     1
 10
0.0
 20
0.0
 30
0.0
 70
   128
  0
VERTEX
  5
6CD
100
AcDbEntity
  8
LAY-5
  6
CONTINUOUS
 62
     1
100
AcDbVertex
100
AcDb2dVertex
 10
1171.505097
 20
1032.181315
 30
0.0
  0
VERTEX
  5
6CE
100
AcDbEntity
  8
LAY-5
  6
CONTINUOUS
 62
     1
100
AcDbVertex
100
AcDb2dVertex
 10
1260.840807
 20
1199.351271
 30
0.0
  0
VERTEX
  5
6CF
100
AcDbEntity
  8
LAY-5
  6
CONTINUOUS
 62
     1
100
AcDbVertex
100
AcDb2dVertex
 10
1632.0
 20
1199.351271
 30
0.0
  0
SEQEND
  5
6D0
100
AcDbEntity
  8
LAY-5
  6
CONTINUOUS
 62
     1
  0
LINE
  5
6D1
100
AcDbEntity
  8
LAY-5
  6
CONTINUOUS
 62
     1
100
AcDbLine
 10
1174.748369
 20
1041.786468
 30
0.0
 11
1171.505097
 21
1032.181315
 31
0.0
  0
LINE
  5
6D2
100
AcDbEntity
  8
LAY-5
  6
CONTINUOUS
 62
     1
100
AcDbLine
 10
1171.505097
 20
1032.181315
 30
0.0
 11
1177.688242
 21
1040.215398
 31
0.0
  0
TEXT
  5
6D3
100
AcDbEntity
  8
LAY-5
  6
CONTINUOUS
 62
     3
100
AcDbText
 10
1095.590807
 20
491.651271
 30
0.0
 40
25.0
  1
Ｒｃ １／ ２
 41
0.794444
  7
EXCADSTD
 72
     5
 11
1233.090807
 21
491.651271
 31
0.0
100
AcDbText
  0
TEXT
  5
6D4
100
AcDbEntity
  8
LAY-5
  6
CONTINUOUS
 62
     3
100
AcDbText
 10
1098.840807
 20
457.351271
 30
0.0
 40
25.0
  1
循環水接続
 41
0.84
  7
EXCADSTD
 72
     5
 11
1223.840807
 21
457.351271
 31
0.0
100
AcDbText
  0
POLYLINE
  5
6D5
100
AcDbEntity
  8
LAY-5
  6
CONTINUOUS
 62
     1
100
AcDb2dPolyline
 66
     1
 10
0.0
 20
0.0
 30
0.0
 70
   128
  0
VERTEX
  5
6D6
100
AcDbEntity
  8
LAY-5
  6
CONTINUOUS
 62
     1
100
AcDbVertex
100
AcDb2dVertex
 10
1070.169387
 20
563.681315
 30
0.0
  0
VERTEX
  5
6D7
100
AcDbEntity
  8
LAY-5
  6
CONTINUOUS
 62
     1
100
AcDbVertex
100
AcDb2dVertex
 10
1084.505097
 20
487.351271
 30
0.0
  0
VERTEX
  5
6D8
100
AcDbEntity
  8
LAY-5
  6
CONTINUOUS
 62
     1
100
AcDbVertex
100
AcDb2dVertex
 10
1231.169387
 20
487.351271
 30
0.0
  0
SEQEND
  5
6D9
100
AcDbEntity
  8
LAY-5
  6
CONTINUOUS
 62
     1
  0
LINE
  5
6DA
100
AcDbEntity
  8
LAY-5
  6
CONTINUOUS
 62
     1
100
AcDbLine
 10
1073.653264
 20
554.16079
 30
0.0
 11
1070.169387
 21
563.681315
 31
0.0
  0
LINE
  5
6DB
100
AcDbEntity
  8
LAY-5
  6
CONTINUOUS
 62
     1
100
AcDbLine
 10
1070.169387
 20
563.681315
 30
0.0
 11
1070.377209
 21
553.545507
 31
0.0
  0
TEXT
  5
6DC
100
AcDbEntity
  8
LAY-5
  6
CONTINUOUS
 62
     3
100
AcDbText
 10
559.419387
 20
369.651271
 30
0.0
 40
25.0
  1
ＪＩＳ １０Ｋ ２０Ａ フランジ
 41
0.788438
  7
EXCADSTD
 72
     5
 11
921.919387
 21
369.651271
 31
0.0
100
AcDbText
  0
POLYLINE
  5
6DD
100
AcDbEntity
  8
LAY-5
  6
CONTINUOUS
 62
     1
100
AcDb2dPolyline
 66
     1
 10
0.0
 20
0.0
 30
0.0
 70
   128
  0
VERTEX
  5
6DE
100
AcDbEntity
  8
LAY-5
  6
CONTINUOUS
 62
     1
100
AcDbVertex
100
AcDb2dVertex
 10
937.505097
 20
445.681315
 30
0.0
  0
VERTEX
  5
6DF
100
AcDbEntity
  8
LAY-5
  6
CONTINUOUS
 62
     1
100
AcDbVertex
100
AcDb2dVertex
 10
923.169387
 20
369.351271
 30
0.0
  0
VERTEX
  5
6E0
100
AcDbEntity
  8
LAY-5
  6
CONTINUOUS
 62
     1
100
AcDbVertex
100
AcDb2dVertex
 10
560.0
 20
369.351271
 30
0.0
  0
SEQEND
  5
6E1
100
AcDbEntity
  8
LAY-5
  6
CONTINUOUS
 62
     1
  0
LINE
  5
6E2
100
AcDbEntity
  8
LAY-5
  6
CONTINUOUS
 62
     1
100
AcDbLine
 10
937.297276
 20
435.545507
 30
0.0
 11
937.505097
 21
445.681315
 31
0.0
  0
LINE
  5
6E3
100
AcDbEntity
  8
LAY-5
  6
CONTINUOUS
 62
     1
100
AcDbLine
 10
937.505097
 20
445.681315
 30
0.0
 11
934.021221
 21
436.16079
 31
0.0
  0
TEXT
  5
6E4
100
AcDbEntity
  8
LAY-5
  6
CONTINUOUS
 62
     3
100
AcDbText
 10
663.919387
 20
1474.313558
 30
0.0
 40
25.0
  1
Ｒｃ １／ ２
 41
0.794444
  7
EXCADSTD
 72
     5
 11
801.419387
 21
1474.313558
 31
0.0
100
AcDbText
  0
POLYLINE
  5
6E5
100
AcDbEntity
  8
LAY-5
  6
CONTINUOUS
 62
     1
100
AcDb2dPolyline
 66
     1
 10
0.0
 20
0.0
 30
0.0
 70
   128
  0
VERTEX
  5
6E6
100
AcDbEntity
  8
LAY-5
  6
CONTINUOUS
 62
     1
100
AcDbVertex
100
AcDb2dVertex
 10
917.046967
 20
1299.958369
 30
0.0
  0
VERTEX
  5
6E7
100
AcDbEntity
  8
LAY-5
  6
CONTINUOUS
 62
     1
100
AcDbVertex
100
AcDb2dVertex
 10
826.169387
 20
1470.013558
 30
0.0
  0
VERTEX
  5
6E8
100
AcDbEntity
  8
LAY-5
  6
CONTINUOUS
 62
     1
100
AcDbVertex
100
AcDb2dVertex
 10
660.169387
 20
1470.013558
 30
0.0
  0
SEQEND
  5
6E9
100
AcDbEntity
  8
LAY-5
  6
CONTINUOUS
 62
     1
  0
LINE
  5
6EA
100
AcDbEntity
  8
LAY-5
  6
CONTINUOUS
 62
     1
100
AcDbLine
 10
910.863822
 20
1307.992453
 30
0.0
 11
917.046967
 21
1299.958369
 31
0.0
  0
LINE
  5
6EB
100
AcDbEntity
  8
LAY-5
  6
CONTINUOUS
 62
     1
100
AcDbLine
 10
917.046967
 20
1299.958369
 30
0.0
 11
913.803695
 21
1309.563522
 31
0.0
  0
TEXT
  5
6EC
100
AcDbEntity
  8
LAY-5
  6
CONTINUOUS
 62
     3
100
AcDbText
 10
679.169387
 20
1437.013558
 30
0.0
 40
25.0
  1
安全弁
 41
0.84
  7
EXCADSTD
 72
     5
 11
754.169387
 21
1437.013558
 31
0.0
100
AcDbText
  0
TEXT
  5
6ED
100
AcDbEntity
  8
LAY-5
  6
CONTINUOUS
 62
     3
100
AcDbText
 10
679.169387
 20
1412.013558
 30
0.0
 40
25.0
  1
放出管
 41
0.84
  7
EXCADSTD
 72
     5
 11
754.169387
 21
1412.013558
 31
0.0
100
AcDbText
  0
TEXT
  5
6EE
100
AcDbEntity
  8
LAY-5
  6
CONTINUOUS
 62
     3
100
AcDbText
 10
1400.169387
 20
1162.351271
 30
0.0
 40
25.0
  1
液入口
 41
0.84
  7
EXCADSTD
 72
     5
 11
1475.169387
 21
1162.351271
 31
0.0
100
AcDbText
  0
TEXT
  5
6EF
100
AcDbEntity
  8
LAY-5
  6
CONTINUOUS
 62
     3
100
AcDbText
 10
527.169387
 20
1163.480015
 30
0.0
 40
25.0
  1
液入口
 41
0.84
  7
EXCADSTD
 72
     5
 11
602.169387
 21
1163.480015
 31
0.0
100
AcDbText
  0
TEXT
  5
6F0
100
AcDbEntity
  8
LAY-5
  6
CONTINUOUS
 62
     3
100
AcDbText
 10
693.169387
 20
334.351271
 30
0.0
 40
25.0
  1
ガス出口
 41
0.84
  7
EXCADSTD
 72
     5
 11
793.169387
 21
334.351271
 31
0.0
100
AcDbText
  0
ENDSEC
  0
SECTION
  2
OBJECTS
  0
DICTIONARY
  5
19
100
AcDbDictionary
  3
ACAD_GROUP
350
1A
  3
ACAD_MLINESTYLE
350
1B
  0
DICTIONARY
  5
1A
102
{ACAD_REACTORS
330
19
102
}
100
AcDbDictionary
  0
DICTIONARY
  5
1B
102
{ACAD_REACTORS
330
19
102
}
100
AcDbDictionary
  3
STANDARD
350
1C
  0
MLINESTYLE
  5
1C
102
{ACAD_REACTORS
330
1B
102
}
100
AcDbMlineStyle
  2
Standard
 70
     0
  3

 62
     0
 51
90.0
 52
90.0
 71
     2
 49
0.5
 62
   256
  6
ByLayer
 49
-0.5
 62
   256
  6
ByLayer
  0
ENDSEC
  0
EOF
