  0
SECTION
  2
HEADER
  9
$ACADVER
  1
AC1014
  9
$ACADMAINTVER
 70
     0
  9
$DWGCODEPAGE
  3
ANSI_932
  9
$INSBASE
 10
0.0
 20
0.0
 30
0.0
  9
$EXTMIN
 10
-11.928575
 20
-225.6
 30
0.0
  9
$EXTMAX
 10
517.06
 20
295.3
 30
0.0
  9
$LIMMIN
 10
0.0
 20
0.0
  9
$LIMMAX
 10
420.0
 20
297.0
  9
$ORTHOMODE
 70
     0
  9
$REGENMODE
 70
     1
  9
$FILLMODE
 70
     1
  9
$QTEXTMODE
 70
     0
  9
$MIRRTEXT
 70
     1
  9
$DRAGMODE
 70
     2
  9
$LTSCALE
 40
1.0
  9
$OSMODE
 70
     0
  9
$ATTMODE
 70
     1
  9
$TEXTSIZE
 40
0.2
  9
$TRACEWID
 40
0.05
  9
$TEXTSTYLE
  7
STANDARD
  9
$CLAYER
  8
LAY-1
  9
$CELTYPE
  6
CONTINUOUS
  9
$CECOLOR
 62
   256
  9
$CELTSCALE
 40
1.0
  9
$DELOBJ
 70
     1
  9
$DISPSILH
 70
     0
  9
$DIMSCALE
 40
1.0
  9
$DIMASZ
 40
0.18
  9
$DIMEXO
 40
0.0625
  9
$DIMDLI
 40
0.38
  9
$DIMRND
 40
0.0
  9
$DIMDLE
 40
0.0
  9
$DIMEXE
 40
0.18
  9
$DIMTP
 40
0.0
  9
$DIMTM
 40
0.0
  9
$DIMTXT
 40
0.18
  9
$DIMCEN
 40
0.09
  9
$DIMTSZ
 40
0.0
  9
$DIMTOL
 70
     0
  9
$DIMLIM
 70
     0
  9
$DIMTIH
 70
     1
  9
$DIMTOH
 70
     1
  9
$DIMSE1
 70
     0
  9
$DIMSE2
 70
     0
  9
$DIMTAD
 70
     0
  9
$DIMZIN
 70
     0
  9
$DIMBLK
  1

  9
$DIMASO
 70
     1
  9
$DIMSHO
 70
     1
  9
$DIMPOST
  1

  9
$DIMAPOST
  1

  9
$DIMALT
 70
     0
  9
$DIMALTD
 70
     2
  9
$DIMALTF
 40
25.4
  9
$DIMLFAC
 40
1.0
  9
$DIMTOFL
 70
     0
  9
$DIMTVP
 40
0.0
  9
$DIMTIX
 70
     0
  9
$DIMSOXD
 70
     0
  9
$DIMSAH
 70
     0
  9
$DIMBLK1
  1

  9
$DIMBLK2
  1

  9
$DIMSTYLE
  2
STANDARD
  9
$DIMCLRD
 70
     0
  9
$DIMCLRE
 70
     0
  9
$DIMCLRT
 70
     0
  9
$DIMTFAC
 40
1.0
  9
$DIMGAP
 40
0.09
  9
$DIMJUST
 70
     0
  9
$DIMSD1
 70
     0
  9
$DIMSD2
 70
     0
  9
$DIMTOLJ
 70
     1
  9
$DIMTZIN
 70
     0
  9
$DIMALTZ
 70
     0
  9
$DIMALTTZ
 70
     0
  9
$DIMFIT
 70
     3
  9
$DIMUPT
 70
     0
  9
$DIMUNIT
 70
     2
  9
$DIMDEC
 70
     4
  9
$DIMTDEC
 70
     4
  9
$DIMALTU
 70
     2
  9
$DIMALTTD
 70
     2
  9
$DIMTXSTY
  7
STANDARD
  9
$DIMAUNIT
 70
     0
  9
$LUNITS
 70
     2
  9
$LUPREC
 70
     4
  9
$SKETCHINC
 40
0.1
  9
$FILLETRAD
 40
0.0
  9
$AUNITS
 70
     0
  9
$AUPREC
 70
     0
  9
$MENU
  1
acad
  9
$ELEVATION
 40
0.0
  9
$PELEVATION
 40
0.0
  9
$THICKNESS
 40
0.0
  9
$LIMCHECK
 70
     0
  9
$BLIPMODE
 70
     1
  9
$CHAMFERA
 40
0.0
  9
$CHAMFERB
 40
0.0
  9
$CHAMFERC
 40
0.0
  9
$CHAMFERD
 40
0.0
  9
$SKPOLY
 70
     0
  9
$TDCREATE
 40
2456878.144865185
  9
$TDUPDATE
 40
2456878.144865185
  9
$TDINDWG
 40
0.0000000000
  9
$TDUSRTIMER
 40
0.0000000000
  9
$USRTIMER
 70
     1
  9
$ANGBASE
 50
0.0
  9
$ANGDIR
 70
     0
  9
$PDMODE
 70
     0
  9
$PDSIZE
 40
0.0
  9
$PLINEWID
 40
0.0
  9
$COORDS
 70
     1
  9
$SPLFRAME
 70
     0
  9
$SPLINETYPE
 70
     6
  9
$SPLINESEGS
 70
     8
  9
$ATTDIA
 70
     0
  9
$ATTREQ
 70
     1
  9
$HANDLING
 70
     1
  9
$HANDSEED
  5
5F5
  9
$SURFTAB1
 70
     6
  9
$SURFTAB2
 70
     6
  9
$SURFTYPE
 70
     6
  9
$SURFU
 70
     6
  9
$SURFV
 70
     6
  9
$UCSNAME
  2

  9
$UCSORG
 10
0.0
 20
0.0
 30
0.0
  9
$UCSXDIR
 10
1.0
 20
0.0
 30
0.0
  9
$UCSYDIR
 10
0.0
 20
1.0
 30
0.0
  9
$PUCSNAME
  2

  9
$PUCSORG
 10
0.0
 20
0.0
 30
0.0
  9
$PUCSXDIR
 10
1.0
 20
0.0
 30
0.0
  9
$PUCSYDIR
 10
0.0
 20
1.0
 30
0.0
  9
$USERI1
 70
     0
  9
$USERI2
 70
     0
  9
$USERI3
 70
     0
  9
$USERI4
 70
     0
  9
$USERI5
 70
     0
  9
$USERR1
 40
0.0
  9
$USERR2
 40
0.0
  9
$USERR3
 40
0.0
  9
$USERR4
 40
0.0
  9
$USERR5
 40
0.0
  9
$WORLDVIEW
 70
     1
  9
$SHADEDGE
 70
     3
  9
$SHADEDIF
 70
    70
  9
$TILEMODE
 70
     1
  9
$MAXACTVP
 70
    16
  9
$PINSBASE
 10
0.0
 20
0.0
 30
0.0
  9
$PLIMCHECK
 70
     0
  9
$PEXTMIN
 10
1.000000E+20
 20
1.000000E+20
 30
1.000000E+20
  9
$PEXTMAX
 10
-1.000000E+20
 20
-1.000000E+20
 30
-1.000000E+20
  9
$PLIMMIN
 10
0.0
 20
0.0
  9
$PLIMMAX
 10
12.0
 20
9.0
  9
$UNITMODE
 70
     0
  9
$VISRETAIN
 70
     0
  9
$PLINEGEN
 70
     1
  9
$PSLTSCALE
 70
     0
  9
$TREEDEPTH
 70
  3020
  9
$PICKSTYLE
 70
     1
  9
$CMLSTYLE
  2
Standard
  9
$CMLJUST
 70
     0
  9
$CMLSCALE
 40
1.0
  9
$PROXYGRAPHICS
 70
     0
  9
$MEASUREMENT
 70
     0
  0
ENDSEC
  0
SECTION
  2
CLASSES
  0
CLASS
  1
LWPOLYLINE
  2
AcDbPolyline
  3
"AutoCAD"
 90
        0
280
     0
281
     1
  0
CLASS
  1
IMAGE
  2
AcDbRasterImage
  3
ISM
 90
      127
280
     0
281
     1
  0
CLASS
  1
OLE2FRAME
  2
AcDbOle2Frame
  3
""
 90
        0
280
     0
281
     1
  0
CLASS
  1
HATCH
  2
AcDbHatch
  3
"ACAD_SEDONA"
 90
        0
280
     0
281
     1
  0
CLASS
  1
DICTIONARYVAR
  2
AcDbDictionaryVar
  3
"AutoCAD"
 90
        0
280
     0
281
     0
  0
CLASS
  1
RASTERVARIABLES
  2
AcDbRasterVariables
  3
ISM
 90
        0
280
     0
281
     0
  0
CLASS
  1
IMAGEDEF
  2
AcDbRasterImageDef
  3
ISM
 90
        0
280
     0
281
     0
  0
CLASS
  1
IMAGEDEF_REACTOR
  2
AcDbRasterImageDefReactor
  3
ISM
 90
        1
280
     0
281
     0
  0
CLASS
  1
IDBUFFER
  2
AcDbIdBuffer
  3
"Acad"
 90
        0
280
     0
281
     0
  0
CLASS
  1
SPATIAL_FILTER
  2
AcDbSpatialFilter
  3
"Acad"
 90
        0
280
     0
281
     0
  0
CLASS
  1
XRECORD
  2
AcDbXrecord
  3
"<Built In>"
 90
        0
280
     0
281
     0
  0
CLASS
  1
SORTENTSTABLE
  2
AcDbSortentsTable
  3
"AutoCAD"
 90
        0
280
     0
281
     0
  0
CLASS
  1
LAYER_INDEX
  2
AcDbLayerIndex
  3
"Acad"
 90
        0
280
     0
281
     0
  0
CLASS
  1
SPATIAL_INDEX
  2
AcDbSpatialIndex
  3
"Acad"
 90
        0
280
     0
281
     0
  0
CLASS
  1
OBJECT_PTR
  2
CAseDLPNTableRecord
  3
"ASE-LPNTableRecord"
 90
        1
280
     0
281
     0
  0
CLASS
  1
LAYOUT
  2
AcDbLayout
  3
"AutoCAD 2000"
 90
        0
280
     0
281
     0
  0
CLASS
  1
PLOTSETTINGS
  2
AcDbPlotSettings
  3
"AutoCAD 2000"
 90
        0
280
     0
281
     0
  0
CLASS
  1
ACDBDICTIONARYWDFLT
  2
AcDbDictionaryWithDefault
  3
"AutoCAD 2000"
 90
        0
280
     0
281
     0
  0
CLASS
  1
ACDBPLACEHOLDER
  2
AcDbPlaceHolder
  3
"AutoCAD 2000"
 90
        0
280
     0
281
     0
  0
CLASS
  1
VBA_PROJECT
  2
AcDbVbaProject
  3
"acadvba"
 90
        0
280
     0
281
     0
  0
CLASS
  1
WIPEOUT
  2
AcDbWipeout
  3
WipeOut|AutoCAD Express Tool|expresstools@autodesk.com
 90
      127
280
     0
281
     1
  0
CLASS
  1
WIPEOUTVARIABLES
  2
AcDbWipeoutVariables
  3
WipeOut|AutoCAD Express Tool|expresstools@autodesk.com
 90
        0
280
     0
281
     0
  0
CLASS
  1
RTEXT
  2
RText
  3
RText|AutoCAD Express Tool|expresstools@autodesk.com
 90
        0
280
     0
281
     1
  0
CLASS
  1
ARCALIGNEDTEXT
  2
AcDbArcAlignedText
  3
ATEXT|AutoCAD Express Tool|expresstools@autodesk.com
 90
        0
280
     0
281
     1
  0
ENDSEC
  0
SECTION
  2
TABLES
  0
TABLE
  2
VPORT
  5
7
100
AcDbSymbolTable
 70
     1
  0
VPORT
  5
15
100
AcDbSymbolTableRecord
100
AcDbViewportTableRecord
  2
*ACTIVE
 70
     0
 10
0.0
 20
0.0
 11
1.0
 21
1.0
 12
252.565713
 22
34.85
 13
0.0
 23
0.0
 14
1.0
 24
1.0
 15
0.0
 25
0.0
 16
0.0
 26
0.0
 36
1.0
 17
0.0
 27
0.0
 37
0.0
 40
520.9
 41
1.722533
 42
50.0
 43
0.0
 44
0.0
 50
0.0
 51
0.0
 71
     0
 72
  1000
 73
     1
 74
     1
 75
     0
 76
     0
 77
     0
 78
     0
  0
ENDTAB
  0
TABLE
  2
LTYPE
  5
4
100
AcDbSymbolTable
 70
     9
  0
LTYPE
  5
11
100
AcDbSymbolTableRecord
100
AcDbLinetypeTableRecord
  2
BYBLOCK
 70
    64
  3

 72
    65
 73
     0
 40
0.0
  0
LTYPE
  5
12
100
AcDbSymbolTableRecord
100
AcDbLinetypeTableRecord
  2
BYLAYER
 70
    64
  3

 72
    65
 73
     0
 40
0.0
  0
LTYPE
  5
13
100
AcDbSymbolTableRecord
100
AcDbLinetypeTableRecord
  2
CONTINUOUS
 70
    64
  3
実線
 72
    65
 73
     0
 40
0.0
  0
LTYPE
  5
1D
100
AcDbSymbolTableRecord
100
AcDbLinetypeTableRecord
  2
EXLTYPE1
 70
    64
  3
破線
 72
    65
 73
     2
 40
4.0
 49
3.0
 74
     0
 49
-1.0
 74
     0
  0
LTYPE
  5
1E
100
AcDbSymbolTableRecord
100
AcDbLinetypeTableRecord
  2
EXLTYPE2
 70
    64
  3
点線
 72
    65
 73
     2
 40
2.0
 49
1.0
 74
     0
 49
-1.0
 74
     0
  0
LTYPE
  5
1F
100
AcDbSymbolTableRecord
100
AcDbLinetypeTableRecord
  2
EXLTYPE3
 70
    64
  3
一点鎖線
 72
    65
 73
     4
 40
13.0
 49
10.0
 74
     0
 49
-1.0
 74
     0
 49
1.0
 74
     0
 49
-1.0
 74
     0
  0
LTYPE
  5
20
100
AcDbSymbolTableRecord
100
AcDbLinetypeTableRecord
  2
EXLTYPE4
 70
    64
  3
二点鎖線
 72
    65
 73
     6
 40
15.0
 49
10.0
 74
     0
 49
-1.0
 74
     0
 49
1.0
 74
     0
 49
-1.0
 74
     0
 49
1.0
 74
     0
 49
-1.0
 74
     0
  0
LTYPE
  5
21
100
AcDbSymbolTableRecord
100
AcDbLinetypeTableRecord
  2
EXLTYPE5
 70
    64
  3
三点鎖線
 72
    65
 73
     8
 40
37.0
 49
30.0
 74
     0
 49
-1.0
 74
     0
 49
1.0
 74
     0
 49
-1.0
 74
     0
 49
1.0
 74
     0
 49
-1.0
 74
     0
 49
1.0
 74
     0
 49
-1.0
 74
     0
  0
LTYPE
  5
22
100
AcDbSymbolTableRecord
100
AcDbLinetypeTableRecord
  2
EXLTYPE6
 70
    64
  3
四点鎖線
 72
    65
 73
    10
 40
39.0
 49
30.0
 74
     0
 49
-1.0
 74
     0
 49
1.0
 74
     0
 49
-1.0
 74
     0
 49
1.0
 74
     0
 49
-1.0
 74
     0
 49
1.0
 74
     0
 49
-1.0
 74
     0
 49
1.0
 74
     0
 49
-1.0
 74
     0
  0
ENDTAB
  0
TABLE
  2
LAYER
  5
2
100
AcDbSymbolTable
 70
     2
  0
LAYER
  5
14
100
AcDbSymbolTableRecord
100
AcDbLayerTableRecord
  2
0
 70
     0
 62
     7
  6
CONTINUOUS
  0
LAYER
  5
25
100
AcDbSymbolTableRecord
100
AcDbLayerTableRecord
  2
LAY-1
 70
    64
 62
     7
  6
CONTINUOUS
  0
ENDTAB
  0
TABLE
  2
STYLE
  5
3
100
AcDbSymbolTable
 70
     3
  0
STYLE
  5
17
100
AcDbSymbolTableRecord
100
AcDbTextStyleTableRecord
  2
STANDARD
 70
     0
 40
0.0
 41
1.0
 50
0.0
 71
     0
 42
0.0
  3
monotxt
  4
extfont
  0
STYLE
  5
23
100
AcDbSymbolTableRecord
100
AcDbTextStyleTableRecord
  2
EXCADSTD
 70
    64
 40
0.0
 41
1.0
 50
0.0
 71
     0
 42
0.2
  3
monotxt
  4
extfont
  0
STYLE
  5
24
100
AcDbSymbolTableRecord
100
AcDbTextStyleTableRecord
  2
EXCADVERT
 70
    68
 40
0.0
 41
1.0
 50
0.0
 71
     0
 42
0.286885
  3
monotxt
  4
extfont
  0
ENDTAB
  0
TABLE
  2
VIEW
  5
5
100
AcDbSymbolTable
 70
     0
  0
ENDTAB
  0
TABLE
  2
UCS
  5
6
100
AcDbSymbolTable
 70
     0
  0
ENDTAB
  0
TABLE
  2
APPID
  5
8
100
AcDbSymbolTable
 70
     1
  0
APPID
  5
16
100
AcDbSymbolTableRecord
100
AcDbRegAppTableRecord
  2
ACAD
 70
     0
  0
ENDTAB
  0
TABLE
  2
DIMSTYLE
  5
9
100
AcDbSymbolTable
 70
     1
  0
DIMSTYLE
105
18
100
AcDbSymbolTableRecord
100
AcDbDimStyleTableRecord
  2
STANDARD
 70
     0
  3

  4

  5

  6

  7

 40
1.0
 41
0.18
 42
0.0625
 43
0.38
 44
0.18
 45
0.0
 46
0.0
 47
0.0
 48
0.0
 71
     0
 72
     0
 73
     1
 74
     1
 75
     0
 76
     0
 77
     0
 78
     0
140
0.18
141
0.09
142
0.0
143
25.4
144
1.0
145
0.0
146
1.0
147
0.09
170
     0
171
     2
172
     1
173
     0
174
     0
175
     0
176
     0
177
     0
178
     0
270
     2
271
     4
272
     4
273
     2
274
     2
275
     0
280
     0
281
     0
282
     0
283
     1
284
     0
285
     0
286
     0
287
     3
288
     0
340
17
  0
ENDTAB
  0
TABLE
  2
BLOCK_RECORD
  5
1
100
AcDbSymbolTable
 70
    15
  0
BLOCK_RECORD
  5
A
100
AcDbSymbolTableRecord
100
AcDbBlockTableRecord
  2
*MODEL_SPACE
  0
BLOCK_RECORD
  5
B
100
AcDbSymbolTableRecord
100
AcDbBlockTableRecord
  2
*PAPER_SPACE
  0
BLOCK_RECORD
  5
26
100
AcDbSymbolTableRecord
100
AcDbBlockTableRecord
  2
_EX_NORM
  0
BLOCK_RECORD
  5
27
100
AcDbSymbolTableRecord
100
AcDbBlockTableRecord
  2
_EX_BNORM
  0
BLOCK_RECORD
  5
28
100
AcDbSymbolTableRecord
100
AcDbBlockTableRecord
  2
_EX_BCIR
  0
BLOCK_RECORD
  5
29
100
AcDbSymbolTableRecord
100
AcDbBlockTableRecord
  2
_EX_RCIVIL
  0
BLOCK_RECORD
  5
2A
100
AcDbSymbolTableRecord
100
AcDbBlockTableRecord
  2
_EX_SLANT
  0
BLOCK_RECORD
  5
2B
100
AcDbSymbolTableRecord
100
AcDbBlockTableRecord
  2
_EX_NONE
  0
BLOCK_RECORD
  5
2C
100
AcDbSymbolTableRecord
100
AcDbBlockTableRecord
  2
_EX_CIVIL
  0
BLOCK_RECORD
  5
2D
100
AcDbSymbolTableRecord
100
AcDbBlockTableRecord
  2
_EX_WCIR
  0
BLOCK_RECORD
  5
2E
100
AcDbSymbolTableRecord
100
AcDbBlockTableRecord
  2
_EX_WCIR2
  0
BLOCK_RECORD
  5
2F
100
AcDbSymbolTableRecord
100
AcDbBlockTableRecord
  2
_EX_WNORM
  0
BLOCK_RECORD
  5
30
100
AcDbSymbolTableRecord
100
AcDbBlockTableRecord
  2
_EX_NNORM
  0
BLOCK_RECORD
  5
31
100
AcDbSymbolTableRecord
100
AcDbBlockTableRecord
  2
_EX_BBOX
  0
BLOCK_RECORD
  5
32
100
AcDbSymbolTableRecord
100
AcDbBlockTableRecord
  2
_EX_WBOX
  0
BLOCK_RECORD
  5
33
100
AcDbSymbolTableRecord
100
AcDbBlockTableRecord
  2
_EX_INTEGRAL
  0
BLOCK_RECORD
  5
34
100
AcDbSymbolTableRecord
100
AcDbBlockTableRecord
  2
SYM-1
  0
ENDTAB
  0
ENDSEC
  0
SECTION
  2
BLOCKS
  0
BLOCK
  5
D
100
AcDbEntity
  8
0
100
AcDbBlockBegin
  2
*MODEL_SPACE
 70
     0
 10
0.0
 20
0.0
 30
0.0
  3
*MODEL_SPACE
  1

  0
ENDBLK
  5
E
100
AcDbEntity
  8
0
100
AcDbBlockEnd
  0
BLOCK
  5
F
100
AcDbEntity
 67
     1
  8
0
100
AcDbBlockBegin
  2
*PAPER_SPACE
 70
     0
 10
0.0
 20
0.0
 30
0.0
  3
*PAPER_SPACE
  1

  0
ENDBLK
  5
10
100
AcDbEntity
 67
     1
  8
0
100
AcDbBlockEnd
  0
BLOCK
  5
35
100
AcDbEntity
  8
0
100
AcDbBlockBegin
  2
_EX_NORM
 70
     0
 10
0.0
 20
0.0
 30
0.0
  3
_EX_NORM
  1

  0
LINE
  5
36
100
AcDbEntity
  8
0
  6
CONTINUOUS
 62
     0
100
AcDbLine
 10
0.0
 20
0.0
 30
0.0
 11
-1.0
 21
0.0
 31
0.0
  0
LINE
  5
37
100
AcDbEntity
  8
0
  6
CONTINUOUS
 62
     0
100
AcDbLine
 10
0.0
 20
0.0
 30
0.0
 11
-1.0
 21
0.166667
 31
0.0
  0
LINE
  5
38
100
AcDbEntity
  8
0
  6
CONTINUOUS
 62
     0
100
AcDbLine
 10
0.0
 20
0.0
 30
0.0
 11
-1.0
 21
-0.166667
 31
0.0
  0
ENDBLK
  5
39
100
AcDbEntity
  8
0
100
AcDbBlockEnd
  0
BLOCK
  5
3A
100
AcDbEntity
  8
0
100
AcDbBlockBegin
  2
_EX_BNORM
 70
     0
 10
0.0
 20
0.0
 30
0.0
  3
_EX_BNORM
  1

  0
LINE
  5
3B
100
AcDbEntity
  8
0
  6
CONTINUOUS
 62
     0
100
AcDbLine
 10
0.0
 20
0.0
 30
0.0
 11
-1.0
 21
0.0
 31
0.0
  0
LINE
  5
3C
100
AcDbEntity
  8
0
  6
CONTINUOUS
 62
     0
100
AcDbLine
 10
0.0
 20
0.0
 30
0.0
 11
-1.0
 21
0.166667
 31
0.0
  0
LINE
  5
3D
100
AcDbEntity
  8
0
  6
CONTINUOUS
 62
     0
100
AcDbLine
 10
0.0
 20
0.0
 30
0.0
 11
-1.0
 21
-0.166667
 31
0.0
  0
LINE
  5
3E
100
AcDbEntity
  8
0
  6
CONTINUOUS
 62
     0
100
AcDbLine
 10
0.0
 20
0.0
 30
0.0
 11
-1.0
 21
0.083333
 31
0.0
  0
LINE
  5
3F
100
AcDbEntity
  8
0
  6
CONTINUOUS
 62
     0
100
AcDbLine
 10
0.0
 20
0.0
 30
0.0
 11
-1.0
 21
-0.083333
 31
0.0
  0
LINE
  5
40
100
AcDbEntity
  8
0
  6
CONTINUOUS
 62
     0
100
AcDbLine
 10
-1.0
 20
0.166667
 30
0.0
 11
-1.0
 21
-0.166667
 31
0.0
  0
ENDBLK
  5
41
100
AcDbEntity
  8
0
100
AcDbBlockEnd
  0
BLOCK
  5
42
100
AcDbEntity
  8
0
100
AcDbBlockBegin
  2
_EX_BCIR
 70
     0
 10
0.0
 20
0.0
 30
0.0
  3
_EX_BCIR
  1

  0
LINE
  5
43
100
AcDbEntity
  8
0
  6
CONTINUOUS
 62
     0
100
AcDbLine
 10
0.0
 20
0.0
 30
0.0
 11
-1.0
 21
0.0
 31
0.0
  0
CIRCLE
  5
44
100
AcDbEntity
  8
0
  6
CONTINUOUS
 62
     0
100
AcDbCircle
 10
0.0
 20
0.0
 30
0.0
 40
0.5
  0
CIRCLE
  5
45
100
AcDbEntity
  8
0
  6
CONTINUOUS
 62
     0
100
AcDbCircle
 10
0.0
 20
0.0
 30
0.0
 40
0.25
  0
ENDBLK
  5
46
100
AcDbEntity
  8
0
100
AcDbBlockEnd
  0
BLOCK
  5
47
100
AcDbEntity
  8
0
100
AcDbBlockBegin
  2
_EX_RCIVIL
 70
     0
 10
0.0
 20
0.0
 30
0.0
  3
_EX_RCIVIL
  1

  0
LINE
  5
48
100
AcDbEntity
  8
0
  6
CONTINUOUS
 62
     0
100
AcDbLine
 10
0.0
 20
0.0
 30
0.0
 11
-1.0
 21
0.0
 31
0.0
  0
LINE
  5
49
100
AcDbEntity
  8
0
  6
CONTINUOUS
 62
     0
100
AcDbLine
 10
-1.0
 20
-0.25
 30
0.0
 11
0.0
 21
-0.25
 31
0.0
  0
LINE
  5
4A
100
AcDbEntity
  8
0
  6
CONTINUOUS
 62
     0
100
AcDbLine
 10
-1.0
 20
-0.125
 30
0.0
 11
0.0
 21
-0.125
 31
0.0
  0
ENDBLK
  5
4B
100
AcDbEntity
  8
0
100
AcDbBlockEnd
  0
BLOCK
  5
4C
100
AcDbEntity
  8
0
100
AcDbBlockBegin
  2
_EX_SLANT
 70
     0
 10
0.0
 20
0.0
 30
0.0
  3
_EX_SLANT
  1

  0
LINE
  5
4D
100
AcDbEntity
  8
0
  6
CONTINUOUS
 62
     0
100
AcDbLine
 10
0.0
 20
0.0
 30
0.0
 11
-1.0
 21
0.0
 31
0.0
  0
LINE
  5
4E
100
AcDbEntity
  8
0
  6
CONTINUOUS
 62
     0
100
AcDbLine
 10
0.707107
 20
0.707107
 30
0.0
 11
-0.707107
 21
-0.707107
 31
0.0
  0
ENDBLK
  5
4F
100
AcDbEntity
  8
0
100
AcDbBlockEnd
  0
BLOCK
  5
50
100
AcDbEntity
  8
0
100
AcDbBlockBegin
  2
_EX_NONE
 70
     0
 10
0.0
 20
0.0
 30
0.0
  3
_EX_NONE
  1

  0
LINE
  5
51
100
AcDbEntity
  8
0
  6
CONTINUOUS
 62
     0
100
AcDbLine
 10
0.0
 20
0.0
 30
0.0
 11
-1.0
 21
0.0
 31
0.0
  0
ENDBLK
  5
52
100
AcDbEntity
  8
0
100
AcDbBlockEnd
  0
BLOCK
  5
53
100
AcDbEntity
  8
0
100
AcDbBlockBegin
  2
_EX_CIVIL
 70
     0
 10
0.0
 20
0.0
 30
0.0
  3
_EX_CIVIL
  1

  0
LINE
  5
54
100
AcDbEntity
  8
0
  6
CONTINUOUS
 62
     0
100
AcDbLine
 10
0.0
 20
0.0
 30
0.0
 11
-1.0
 21
0.0
 31
0.0
  0
LINE
  5
55
100
AcDbEntity
  8
0
  6
CONTINUOUS
 62
     0
100
AcDbLine
 10
-1.0
 20
0.25
 30
0.0
 11
0.0
 21
0.25
 31
0.0
  0
LINE
  5
56
100
AcDbEntity
  8
0
  6
CONTINUOUS
 62
     0
100
AcDbLine
 10
-1.0
 20
0.125
 30
0.0
 11
0.0
 21
0.125
 31
0.0
  0
ENDBLK
  5
57
100
AcDbEntity
  8
0
100
AcDbBlockEnd
  0
BLOCK
  5
58
100
AcDbEntity
  8
0
100
AcDbBlockBegin
  2
_EX_WCIR
 70
     0
 10
0.0
 20
0.0
 30
0.0
  3
_EX_WCIR
  1

  0
LINE
  5
59
100
AcDbEntity
  8
0
  6
CONTINUOUS
 62
     0
100
AcDbLine
 10
0.0
 20
0.0
 30
0.0
 11
-1.0
 21
0.0
 31
0.0
  0
CIRCLE
  5
5A
100
AcDbEntity
  8
0
  6
CONTINUOUS
 62
     0
100
AcDbCircle
 10
0.0
 20
0.0
 30
0.0
 40
0.5
  0
ENDBLK
  5
5B
100
AcDbEntity
  8
0
100
AcDbBlockEnd
  0
BLOCK
  5
5C
100
AcDbEntity
  8
0
100
AcDbBlockBegin
  2
_EX_WCIR2
 70
     0
 10
0.0
 20
0.0
 30
0.0
  3
_EX_WCIR2
  1

  0
LINE
  5
5D
100
AcDbEntity
  8
0
  6
CONTINUOUS
 62
     0
100
AcDbLine
 10
-0.5
 20
0.0
 30
0.0
 11
-1.0
 21
0.0
 31
0.0
  0
CIRCLE
  5
5E
100
AcDbEntity
  8
0
  6
CONTINUOUS
 62
     0
100
AcDbCircle
 10
0.0
 20
0.0
 30
0.0
 40
0.5
  0
ENDBLK
  5
5F
100
AcDbEntity
  8
0
100
AcDbBlockEnd
  0
BLOCK
  5
60
100
AcDbEntity
  8
0
100
AcDbBlockBegin
  2
_EX_WNORM
 70
     0
 10
0.0
 20
0.0
 30
0.0
  3
_EX_WNORM
  1

  0
LINE
  5
61
100
AcDbEntity
  8
0
  6
CONTINUOUS
 62
     0
100
AcDbLine
 10
-1.0
 20
0.0
 30
0.0
 11
-1.0
 21
0.0
 31
0.0
  0
LINE
  5
62
100
AcDbEntity
  8
0
  6
CONTINUOUS
 62
     0
100
AcDbLine
 10
0.0
 20
0.0
 30
0.0
 11
-1.0
 21
0.166667
 31
0.0
  0
LINE
  5
63
100
AcDbEntity
  8
0
  6
CONTINUOUS
 62
     0
100
AcDbLine
 10
0.0
 20
0.0
 30
0.0
 11
-1.0
 21
-0.166667
 31
0.0
  0
LINE
  5
64
100
AcDbEntity
  8
0
  6
CONTINUOUS
 62
     0
100
AcDbLine
 10
-1.0
 20
0.166667
 30
0.0
 11
-1.0
 21
-0.166667
 31
0.0
  0
ENDBLK
  5
65
100
AcDbEntity
  8
0
100
AcDbBlockEnd
  0
BLOCK
  5
66
100
AcDbEntity
  8
0
100
AcDbBlockBegin
  2
_EX_NNORM
 70
     0
 10
0.0
 20
0.0
 30
0.0
  3
_EX_NNORM
  1

  0
LINE
  5
67
100
AcDbEntity
  8
0
  6
CONTINUOUS
 62
     0
100
AcDbLine
 10
0.0
 20
0.0
 30
0.0
 11
-1.0
 21
0.0
 31
0.0
  0
LINE
  5
68
100
AcDbEntity
  8
0
  6
CONTINUOUS
 62
     0
100
AcDbLine
 10
0.0
 20
0.0
 30
0.0
 11
-1.0
 21
0.166667
 31
0.0
  0
LINE
  5
69
100
AcDbEntity
  8
0
  6
CONTINUOUS
 62
     0
100
AcDbLine
 10
0.0
 20
0.0
 30
0.0
 11
-1.0
 21
-0.166667
 31
0.0
  0
LINE
  5
6A
100
AcDbEntity
  8
0
  6
CONTINUOUS
 62
     0
100
AcDbLine
 10
-1.0
 20
0.166667
 30
0.0
 11
-1.0
 21
-0.166667
 31
0.0
  0
ENDBLK
  5
6B
100
AcDbEntity
  8
0
100
AcDbBlockEnd
  0
BLOCK
  5
6C
100
AcDbEntity
  8
0
100
AcDbBlockBegin
  2
_EX_BBOX
 70
     0
 10
0.0
 20
0.0
 30
0.0
  3
_EX_BBOX
  1

  0
LINE
  5
6D
100
AcDbEntity
  8
0
  6
CONTINUOUS
 62
     0
100
AcDbLine
 10
0.0
 20
0.0
 30
0.0
 11
-1.0
 21
0.0
 31
0.0
  0
LINE
  5
6E
100
AcDbEntity
  8
0
  6
CONTINUOUS
 62
     0
100
AcDbLine
 10
-0.5
 20
0.5
 30
0.0
 11
0.5
 21
0.5
 31
0.0
  0
LINE
  5
6F
100
AcDbEntity
  8
0
  6
CONTINUOUS
 62
     0
100
AcDbLine
 10
0.5
 20
0.5
 30
0.0
 11
0.5
 21
-0.5
 31
0.0
  0
LINE
  5
70
100
AcDbEntity
  8
0
  6
CONTINUOUS
 62
     0
100
AcDbLine
 10
0.5
 20
-0.5
 30
0.0
 11
-0.5
 21
-0.5
 31
0.0
  0
LINE
  5
71
100
AcDbEntity
  8
0
  6
CONTINUOUS
 62
     0
100
AcDbLine
 10
-0.5
 20
-0.5
 30
0.0
 11
-0.5
 21
0.5
 31
0.0
  0
LINE
  5
72
100
AcDbEntity
  8
0
  6
CONTINUOUS
 62
     0
100
AcDbLine
 10
-0.25
 20
0.25
 30
0.0
 11
0.25
 21
0.25
 31
0.0
  0
LINE
  5
73
100
AcDbEntity
  8
0
  6
CONTINUOUS
 62
     0
100
AcDbLine
 10
0.25
 20
0.25
 30
0.0
 11
0.25
 21
-0.25
 31
0.0
  0
LINE
  5
74
100
AcDbEntity
  8
0
  6
CONTINUOUS
 62
     0
100
AcDbLine
 10
0.25
 20
-0.25
 30
0.0
 11
-0.25
 21
-0.25
 31
0.0
  0
LINE
  5
75
100
AcDbEntity
  8
0
  6
CONTINUOUS
 62
     0
100
AcDbLine
 10
-0.25
 20
-0.25
 30
0.0
 11
-0.25
 21
0.25
 31
0.0
  0
ENDBLK
  5
76
100
AcDbEntity
  8
0
100
AcDbBlockEnd
  0
BLOCK
  5
77
100
AcDbEntity
  8
0
100
AcDbBlockBegin
  2
_EX_WBOX
 70
     0
 10
0.0
 20
0.0
 30
0.0
  3
_EX_WBOX
  1

  0
LINE
  5
78
100
AcDbEntity
  8
0
  6
CONTINUOUS
 62
     0
100
AcDbLine
 10
-0.5
 20
0.0
 30
0.0
 11
-1.0
 21
0.0
 31
0.0
  0
LINE
  5
79
100
AcDbEntity
  8
0
  6
CONTINUOUS
 62
     0
100
AcDbLine
 10
-0.5
 20
0.5
 30
0.0
 11
0.5
 21
0.5
 31
0.0
  0
LINE
  5
7A
100
AcDbEntity
  8
0
  6
CONTINUOUS
 62
     0
100
AcDbLine
 10
0.5
 20
0.5
 30
0.0
 11
0.5
 21
-0.5
 31
0.0
  0
LINE
  5
7B
100
AcDbEntity
  8
0
  6
CONTINUOUS
 62
     0
100
AcDbLine
 10
0.5
 20
-0.5
 30
0.0
 11
-0.5
 21
-0.5
 31
0.0
  0
LINE
  5
7C
100
AcDbEntity
  8
0
  6
CONTINUOUS
 62
     0
100
AcDbLine
 10
-0.5
 20
-0.5
 30
0.0
 11
-0.5
 21
0.5
 31
0.0
  0
ENDBLK
  5
7D
100
AcDbEntity
  8
0
100
AcDbBlockEnd
  0
BLOCK
  5
7E
100
AcDbEntity
  8
0
100
AcDbBlockBegin
  2
_EX_INTEGRAL
 70
     0
 10
0.0
 20
0.0
 30
0.0
  3
_EX_INTEGRAL
  1

  0
LINE
  5
7F
100
AcDbEntity
  8
0
  6
CONTINUOUS
 62
     0
100
AcDbLine
 10
0.0
 20
0.0
 30
0.0
 11
-1.0
 21
0.0
 31
0.0
  0
ARC
  5
80
100
AcDbEntity
  8
0
  6
CONTINUOUS
 62
     0
100
AcDbCircle
 10
0.542115
 20
0.164992
 30
0.0
 40
0.56667
100
AcDbArc
 50
73.07249
 51
196.927513
  0
ARC
  5
81
100
AcDbEntity
  8
0
  6
CONTINUOUS
 62
     0
100
AcDbCircle
 10
-0.542115
 20
-0.164992
 30
0.0
 40
0.56667
100
AcDbArc
 50
253.072487
 51
16.927513
  0
ENDBLK
  5
82
100
AcDbEntity
  8
0
100
AcDbBlockEnd
  0
BLOCK
  5
83
100
AcDbEntity
  8
0
100
AcDbBlockBegin
  2
SYM-1
 70
     0
 10
0.0
 20
0.0
 30
0.0
  3
SYM-1
  1

  0
LINE
  5
84
100
AcDbEntity
  8
0
  6
CONTINUOUS
 62
     1
100
AcDbLine
 10
1.3
 20
0.897779
 30
0.0
 11
1.3
 21
3.9
 31
0.0
  0
LINE
  5
85
100
AcDbEntity
  8
0
  6
CONTINUOUS
 62
     1
100
AcDbLine
 10
0.0
 20
7.099373
 30
0.0
 11
0.0
 21
4.766667
 31
0.0
  0
ARC
  5
86
100
AcDbEntity
  8
0
  6
CONTINUOUS
 62
     1
100
AcDbCircle
 10
0.433333
 20
5.633333
 30
0.0
 40
1.528741
100
AcDbArc
 50
63.434949
 51
106.466676
  0
ARC
  5
87
100
AcDbEntity
  8
0
  6
CONTINUOUS
 62
     1
100
AcDbCircle
 10
-0.433333
 20
3.9
 30
0.0
 40
3.466667
100
AcDbArc
 50
300.0
 51
63.434949
  0
ARC
  5
88
100
AcDbEntity
  8
0
  6
CONTINUOUS
 62
     1
100
AcDbCircle
 10
0.433333
 20
2.166667
 30
0.0
 40
1.528741
100
AcDbArc
 50
243.434949
 51
270.0
  0
ARC
  5
89
100
AcDbEntity
  8
0
  6
CONTINUOUS
 62
     1
100
AcDbCircle
 10
1.3
 20
3.9
 30
0.0
 40
3.466667
100
AcDbArc
 50
128.682187
 51
243.434949
  0
LINE
  5
8A
100
AcDbEntity
  8
0
  6
CONTINUOUS
 62
     1
100
AcDbLine
 10
0.433333
 20
0.433333
 30
0.0
 11
0.433333
 21
0.216667
 31
0.0
  0
ARC
  5
8B
100
AcDbEntity
  8
0
  6
CONTINUOUS
 62
     1
100
AcDbCircle
 10
0.433333
 20
3.9
 30
0.0
 40
3.466667
100
AcDbArc
 50
112.024313
 51
270.0
  0
ARC
  5
8C
100
AcDbEntity
  8
0
  6
CONTINUOUS
 62
     1
100
AcDbCircle
 10
0.433333
 20
3.9
 30
0.0
 40
3.466667
100
AcDbArc
 50
284.477512
 51
97.180756
  0
LINE
  5
8D
100
AcDbEntity
  8
0
  6
CONTINUOUS
 62
     1
100
AcDbLine
 10
-0.866667
 20
4.766667
 30
0.0
 11
-0.866667
 21
6.606166
 31
0.0
  0
LINE
  5
8E
100
AcDbEntity
  8
0
  6
CONTINUOUS
 62
     1
100
AcDbLine
 10
-1.3
 20
7.8
 30
0.0
 11
-0.866667
 21
7.113686
 31
0.0
  0
LINE
  5
8F
100
AcDbEntity
  8
0
  6
CONTINUOUS
 62
     1
100
AcDbLine
 10
-1.3
 20
7.8
 30
0.0
 11
0.0
 21
7.339477
 31
0.0
  0
LINE
  5
90
100
AcDbEntity
  8
0
  6
CONTINUOUS
 62
     1
100
AcDbLine
 10
1.3
 20
0.216667
 30
0.0
 11
1.3
 21
0.543414
 31
0.0
  0
LINE
  5
91
100
AcDbEntity
  8
0
  6
CONTINUOUS
 62
     1
100
AcDbLine
 10
1.733333
 20
0.0
 30
0.0
 11
1.3
 21
0.216667
 31
0.0
  0
LINE
  5
92
100
AcDbEntity
  8
0
  6
CONTINUOUS
 62
     1
100
AcDbLine
 10
0.0
 20
0.0
 30
0.0
 11
1.733333
 21
0.0
 31
0.0
  0
LINE
  5
93
100
AcDbEntity
  8
0
  6
CONTINUOUS
 62
     1
100
AcDbLine
 10
0.433333
 20
0.216667
 30
0.0
 11
0.0
 21
0.0
 31
0.0
  0
LINE
  5
94
100
AcDbEntity
  8
0
  6
CONTINUOUS
 62
     1
100
AcDbLine
 10
0.433333
 20
3.9
 30
0.0
 11
0.433333
 21
0.637926
 31
0.0
  0
LINE
  5
95
100
AcDbEntity
  8
0
  6
CONTINUOUS
 62
     1
100
AcDbLine
 10
-2.094444
 20
3.466667
 30
0.0
 11
-1.588889
 21
3.9
 31
0.0
  0
LINE
  5
96
100
AcDbEntity
  8
0
  6
CONTINUOUS
 62
     1
100
AcDbLine
 10
-1.3
 20
5.055556
 30
0.0
 11
-2.094444
 21
3.466667
 31
0.0
  0
LINE
  5
97
100
AcDbEntity
  8
0
  6
CONTINUOUS
 62
     1
100
AcDbLine
 10
-1.3
 20
4.766667
 30
0.0
 11
-1.3
 21
5.055556
 31
0.0
  0
LINE
  5
98
100
AcDbEntity
  8
0
  6
CONTINUOUS
 62
     1
100
AcDbLine
 10
2.961111
 20
3.466667
 30
0.0
 11
2.455556
 21
3.9
 31
0.0
  0
LINE
  5
99
100
AcDbEntity
  8
0
  6
CONTINUOUS
 62
     1
100
AcDbLine
 10
2.166667
 20
5.055556
 30
0.0
 11
2.961111
 21
3.466667
 31
0.0
  0
LINE
  5
9A
100
AcDbEntity
  8
0
  6
CONTINUOUS
 62
     1
100
AcDbLine
 10
2.166667
 20
4.766667
 30
0.0
 11
2.166667
 21
5.055556
 31
0.0
  0
LINE
  5
9B
100
AcDbEntity
  8
0
  6
CONTINUOUS
 62
     1
100
AcDbLine
 10
0.0
 20
4.766667
 30
0.0
 11
2.166667
 21
4.766667
 31
0.0
  0
LINE
  5
9C
100
AcDbEntity
  8
0
  6
CONTINUOUS
 62
     1
100
AcDbLine
 10
-1.3
 20
4.766667
 30
0.0
 11
-0.866667
 21
4.766667
 31
0.0
  0
LINE
  5
9D
100
AcDbEntity
  8
0
  6
CONTINUOUS
 62
     1
100
AcDbLine
 10
1.3
 20
3.9
 30
0.0
 11
2.455556
 21
3.9
 31
0.0
  0
LINE
  5
9E
100
AcDbEntity
  8
0
  6
CONTINUOUS
 62
     1
100
AcDbLine
 10
-0.866667
 20
3.9
 30
0.0
 11
-1.588889
 21
3.9
 31
0.0
  0
LINE
  5
9F
100
AcDbEntity
  8
0
  6
CONTINUOUS
 62
     1
100
AcDbLine
 10
-0.866667
 20
2.816667
 30
0.0
 11
-0.866667
 21
3.9
 31
0.0
  0
LINE
  5
A0
100
AcDbEntity
  8
0
  6
CONTINUOUS
 62
     1
100
AcDbLine
 10
-1.3
 20
2.6
 30
0.0
 11
-0.866667
 21
2.816667
 31
0.0
  0
LINE
  5
A1
100
AcDbEntity
  8
0
  6
CONTINUOUS
 62
     1
100
AcDbLine
 10
0.433333
 20
2.6
 30
0.0
 11
-1.3
 21
2.6
 31
0.0
  0
LINE
  5
A2
100
AcDbEntity
  8
0
  6
CONTINUOUS
 62
     1
100
AcDbLine
 10
0.0
 20
2.816667
 30
0.0
 11
0.433333
 21
2.6
 31
0.0
  0
LINE
  5
A3
100
AcDbEntity
  8
0
  6
CONTINUOUS
 62
     1
100
AcDbLine
 10
0.0
 20
3.9
 30
0.0
 11
0.0
 21
2.816667
 31
0.0
  0
LINE
  5
A4
100
AcDbEntity
  8
0
  6
CONTINUOUS
 62
     1
100
AcDbLine
 10
0.433333
 20
3.9
 30
0.0
 11
0.0
 21
3.9
 31
0.0
  0
ENDBLK
  5
A5
100
AcDbEntity
  8
0
100
AcDbBlockEnd
  0
ENDSEC
  0
SECTION
  2
ENTITIES
  0
LINE
  5
A6
100
AcDbEntity
  8
LAY-1
  6
EXLTYPE3
 62
     1
100
AcDbLine
 10
160.98753
 20
119.239007
 30
0.0
 11
323.693026
 21
119.239007
 31
0.0
  0
LINE
  5
A7
100
AcDbEntity
  8
LAY-1
  6
CONTINUOUS
 62
     2
100
AcDbLine
 10
241.335713
 20
-98.360993
 30
0.0
 11
241.335713
 21
-93.160993
 31
0.0
  0
ARC
  5
A8
100
AcDbEntity
  8
LAY-1
  6
CONTINUOUS
 62
     2
100
AcDbCircle
 10
243.435713
 20
-93.160993
 30
0.0
 40
0.4
100
AcDbArc
 50
0.0
 51
90.0
  0
TEXT
  5
A9
100
AcDbEntity
  8
LAY-1
  6
CONTINUOUS
 62
     3
100
AcDbText
 10
252.8747
 20
-12.501313
 30
0.0
 40
2.5
  1
T
 50
30.0
 41
0.8
  7
EXCADSTD
 72
     5
 11
254.000533
 21
-11.851313
 31
0.0
100
AcDbText
  0
TEXT
  5
AA
100
AcDbEntity
  8
LAY-1
  6
CONTINUOUS
 62
     3
100
AcDbText
 10
258.173307
 20
-9.322149
 30
0.0
 40
2.5
  1
O
 50
30.0
 41
0.8
  7
EXCADSTD
 72
     5
 11
259.29914
 21
-8.672149
 31
0.0
100
AcDbText
  0
TEXT
  5
AB
100
AcDbEntity
  8
LAY-1
  6
CONTINUOUS
 62
     3
100
AcDbText
 10
239.746396
 20
-14.040829
 30
0.0
 40
2.5
  1
L
 41
0.8
  7
EXCADSTD
 72
     5
 11
241.046396
 21
-14.040829
 31
0.0
100
AcDbText
  0
LINE
  5
AC
100
AcDbEntity
  8
LAY-1
  6
CONTINUOUS
 62
     2
100
AcDbLine
 10
240.535713
 20
-93.160993
 30
0.0
 11
240.535713
 21
-98.360993
 31
0.0
  0
TEXT
  5
AD
100
AcDbEntity
  8
LAY-1
  6
CONTINUOUS
 62
     3
100
AcDbText
 10
263.81849
 20
-5.095511
 30
0.0
 40
2.5
  1
R
 50
45.0
 41
0.8
  7
EXCADSTD
 72
     5
 11
264.737729
 21
-4.176272
 31
0.0
100
AcDbText
  0
ARC
  5
AE
100
AcDbEntity
  8
LAY-1
  6
CONTINUOUS
 62
     2
100
AcDbCircle
 10
230.368974
 20
-54.860993
 30
0.0
 40
1.0
100
AcDbArc
 50
270.0
 51
358.210089
  0
LINE
  5
AF
100
AcDbEntity
  8
LAY-1
  6
CONTINUOUS
 62
     1
100
AcDbLine
 10
232.657088
 20
-50.840993
 30
0.0
 11
231.428593
 21
-52.968807
 31
0.0
  0
CIRCLE
  5
B0
100
AcDbEntity
  8
LAY-1
  6
CONTINUOUS
 62
     2
100
AcDbCircle
 10
278.685713
 20
16.239007
 30
0.0
 40
3.5
  0
LINE
  5
B1
100
AcDbEntity
  8
LAY-1
  6
CONTINUOUS
 62
     2
100
AcDbLine
 10
280.135282
 20
14.789438
 30
0.0
 11
277.236144
 21
17.688576
 31
0.0
  0
LINE
  5
B2
100
AcDbEntity
  8
LAY-1
  6
CONTINUOUS
 62
     2
100
AcDbLine
 10
277.236144
 20
14.789438
 30
0.0
 11
280.135282
 21
17.688576
 31
0.0
  0
CIRCLE
  5
B3
100
AcDbEntity
  8
LAY-1
  6
CONTINUOUS
 62
     2
100
AcDbCircle
 10
260.435713
 20
47.848934
 30
0.0
 40
3.5
  0
LINE
  5
B4
100
AcDbEntity
  8
LAY-1
  6
CONTINUOUS
 62
     2
100
AcDbLine
 10
262.415861
 20
48.379513
 30
0.0
 11
258.455565
 21
47.318355
 31
0.0
  0
LINE
  5
B5
100
AcDbEntity
  8
LAY-1
  6
CONTINUOUS
 62
     2
100
AcDbLine
 10
260.966292
 20
45.868786
 30
0.0
 11
259.905134
 21
49.829082
 31
0.0
  0
CIRCLE
  5
B6
100
AcDbEntity
  8
LAY-1
  6
CONTINUOUS
 62
     2
100
AcDbCircle
 10
260.435713
 20
-15.37092
 30
0.0
 40
3.5
  0
LINE
  5
B7
100
AcDbEntity
  8
LAY-1
  6
CONTINUOUS
 62
     2
100
AcDbLine
 10
259.905134
 20
-17.351068
 30
0.0
 11
260.966292
 21
-13.390772
 31
0.0
  0
LINE
  5
B8
100
AcDbEntity
  8
LAY-1
  6
CONTINUOUS
 62
     2
100
AcDbLine
 10
258.455565
 20
-14.840341
 30
0.0
 11
262.415861
 21
-15.901499
 31
0.0
  0
LINE
  5
B9
100
AcDbEntity
  8
LAY-1
  6
CONTINUOUS
 62
     2
100
AcDbLine
 10
207.135282
 20
17.688576
 30
0.0
 11
204.236144
 21
14.789438
 31
0.0
  0
LINE
  5
BA
100
AcDbEntity
  8
LAY-1
  6
CONTINUOUS
 62
     2
100
AcDbLine
 10
204.236144
 20
17.688576
 30
0.0
 11
207.135282
 21
14.789438
 31
0.0
  0
LINE
  5
BB
100
AcDbEntity
  8
LAY-1
  6
CONTINUOUS
 62
     2
100
AcDbLine
 10
224.466292
 20
49.829082
 30
0.0
 11
223.405134
 21
45.868786
 31
0.0
  0
ARC
  5
BC
100
AcDbEntity
  8
LAY-1
  6
CONTINUOUS
 62
     2
100
AcDbCircle
 10
278.685713
 20
16.239007
 30
0.0
 40
5.5
100
AcDbArc
 50
65.85226
 51
180.0
  0
LINE
  5
BD
100
AcDbEntity
  8
LAY-1
  6
CONTINUOUS
 62
     2
100
AcDbLine
 10
280.935713
 20
21.257722
 30
0.0
 11
280.935713
 21
19.546196
 31
0.0
  0
ARC
  5
BE
100
AcDbEntity
  8
LAY-1
  6
CONTINUOUS
 62
     2
100
AcDbCircle
 10
278.685713
 20
16.239007
 30
0.0
 40
4.0
100
AcDbArc
 50
304.228866
 51
55.771134
  0
LINE
  5
BF
100
AcDbEntity
  8
LAY-1
  6
CONTINUOUS
 62
     2
100
AcDbLine
 10
280.935713
 20
12.931818
 30
0.0
 11
280.935713
 21
11.220292
 31
0.0
  0
ARC
  5
C0
100
AcDbEntity
  8
LAY-1
  6
CONTINUOUS
 62
     2
100
AcDbCircle
 10
278.685713
 20
16.239007
 30
0.0
 40
5.5
100
AcDbArc
 50
180.0
 51
294.14774
  0
LINE
  5
C1
100
AcDbEntity
  8
LAY-1
  6
CONTINUOUS
 62
     2
100
AcDbLine
 10
223.405134
 20
-13.390772
 30
0.0
 11
224.466292
 21
-17.351068
 31
0.0
  0
ARC
  5
C2
100
AcDbEntity
  8
LAY-1
  6
CONTINUOUS
 62
     2
100
AcDbCircle
 10
260.435713
 20
47.848934
 30
0.0
 40
5.5
100
AcDbArc
 50
125.85226
 51
240.0
  0
LINE
  5
C3
100
AcDbEntity
  8
LAY-1
  6
CONTINUOUS
 62
     2
100
AcDbLine
 10
257.214378
 20
52.306849
 30
0.0
 11
258.696603
 21
51.451086
 31
0.0
  0
ARC
  5
C4
100
AcDbEntity
  8
LAY-1
  6
CONTINUOUS
 62
     2
100
AcDbCircle
 10
260.435713
 20
47.848934
 30
0.0
 40
4.0
100
AcDbArc
 50
4.228866
 51
115.771134
  0
LINE
  5
C5
100
AcDbEntity
  8
LAY-1
  6
CONTINUOUS
 62
     2
100
AcDbLine
 10
264.424822
 20
48.143897
 30
0.0
 11
265.907047
 21
47.288134
 31
0.0
  0
ARC
  5
C6
100
AcDbEntity
  8
LAY-1
  6
CONTINUOUS
 62
     2
100
AcDbCircle
 10
260.435713
 20
47.848934
 30
0.0
 40
5.5
100
AcDbArc
 50
240.0
 51
354.14774
  0
CIRCLE
  5
C7
100
AcDbEntity
  8
LAY-1
  6
CONTINUOUS
 62
     2
100
AcDbCircle
 10
205.685713
 20
16.239007
 30
0.0
 40
3.5
  0
ARC
  5
C8
100
AcDbEntity
  8
LAY-1
  6
CONTINUOUS
 62
     2
100
AcDbCircle
 10
260.435713
 20
-15.37092
 30
0.0
 40
5.5
100
AcDbArc
 50
5.85226
 51
120.0
  0
LINE
  5
C9
100
AcDbEntity
  8
LAY-1
  6
CONTINUOUS
 62
     2
100
AcDbLine
 10
265.907047
 20
-14.81012
 30
0.0
 11
264.424822
 21
-15.665883
 31
0.0
  0
ARC
  5
CA
100
AcDbEntity
  8
LAY-1
  6
CONTINUOUS
 62
     2
100
AcDbCircle
 10
260.435713
 20
-15.37092
 30
0.0
 40
4.0
100
AcDbArc
 50
244.228866
 51
355.771134
  0
LINE
  5
CB
100
AcDbEntity
  8
LAY-1
  6
CONTINUOUS
 62
     2
100
AcDbLine
 10
258.696603
 20
-18.973072
 30
0.0
 11
257.214378
 21
-19.828835
 31
0.0
  0
ARC
  5
CC
100
AcDbEntity
  8
LAY-1
  6
CONTINUOUS
 62
     2
100
AcDbCircle
 10
260.435713
 20
-15.37092
 30
0.0
 40
5.5
100
AcDbArc
 50
120.0
 51
234.14774
  0
LINE
  5
CD
100
AcDbEntity
  8
LAY-1
  6
CONTINUOUS
 62
     2
100
AcDbLine
 10
221.955565
 20
-15.901499
 30
0.0
 11
225.915861
 21
-14.840341
 31
0.0
  0
ARC
  5
CE
100
AcDbEntity
  8
LAY-1
  6
CONTINUOUS
 62
     2
100
AcDbCircle
 10
223.935713
 20
-15.37092
 30
0.0
 40
5.5
100
AcDbArc
 50
305.85226
 51
60.0
  0
LINE
  5
CF
100
AcDbEntity
  8
LAY-1
  6
CONTINUOUS
 62
     2
100
AcDbLine
 10
227.157047
 20
-19.828835
 30
0.0
 11
225.674822
 21
-18.973072
 31
0.0
  0
ARC
  5
D0
100
AcDbEntity
  8
LAY-1
  6
CONTINUOUS
 62
     2
100
AcDbCircle
 10
223.935713
 20
-15.37092
 30
0.0
 40
4.0
100
AcDbArc
 50
184.228866
 51
295.771134
  0
LINE
  5
D1
100
AcDbEntity
  8
LAY-1
  6
CONTINUOUS
 62
     2
100
AcDbLine
 10
219.946603
 20
-15.665883
 30
0.0
 11
218.464378
 21
-14.81012
 31
0.0
  0
ARC
  5
D2
100
AcDbEntity
  8
LAY-1
  6
CONTINUOUS
 62
     2
100
AcDbCircle
 10
223.935713
 20
-15.37092
 30
0.0
 40
5.5
100
AcDbArc
 50
60.0
 51
174.14774
  0
LINE
  5
D3
100
AcDbEntity
  8
LAY-1
  6
CONTINUOUS
 62
     2
100
AcDbLine
 10
225.915861
 20
47.318355
 30
0.0
 11
221.955565
 21
48.379513
 31
0.0
  0
ARC
  5
D4
100
AcDbEntity
  8
LAY-1
  6
CONTINUOUS
 62
     2
100
AcDbCircle
 10
205.685713
 20
16.239007
 30
0.0
 40
5.5
100
AcDbArc
 50
245.85226
 51
0.0
  0
LINE
  5
D5
100
AcDbEntity
  8
LAY-1
  6
CONTINUOUS
 62
     2
100
AcDbLine
 10
203.435713
 20
11.220292
 30
0.0
 11
203.435713
 21
12.931818
 31
0.0
  0
ARC
  5
D6
100
AcDbEntity
  8
LAY-1
  6
CONTINUOUS
 62
     2
100
AcDbCircle
 10
205.685713
 20
16.239007
 30
0.0
 40
4.0
100
AcDbArc
 50
124.228866
 51
235.771134
  0
CIRCLE
  5
D7
100
AcDbEntity
  8
LAY-1
  6
CONTINUOUS
 62
     2
100
AcDbCircle
 10
223.935713
 20
47.848934
 30
0.0
 40
3.5
  0
ARC
  5
D8
100
AcDbEntity
  8
LAY-1
  6
CONTINUOUS
 62
     2
100
AcDbCircle
 10
223.935713
 20
47.848934
 30
0.0
 40
5.5
100
AcDbArc
 50
300.0
 51
54.14774
  0
LINE
  5
D9
100
AcDbEntity
  8
LAY-1
  6
CONTINUOUS
 62
     2
100
AcDbLine
 10
225.674822
 20
51.451086
 30
0.0
 11
227.157047
 21
52.306849
 31
0.0
  0
CIRCLE
  5
DA
100
AcDbEntity
  8
LAY-1
  6
CONTINUOUS
 62
     2
100
AcDbCircle
 10
242.185713
 20
16.239007
 30
0.0
 40
40.5
  0
ARC
  5
DB
100
AcDbEntity
  8
LAY-1
  6
CONTINUOUS
 62
     2
100
AcDbCircle
 10
223.935713
 20
47.848934
 30
0.0
 40
4.0
100
AcDbArc
 50
64.228866
 51
175.771134
  0
LINE
  5
DC
100
AcDbEntity
  8
LAY-1
  6
CONTINUOUS
 62
     2
100
AcDbLine
 10
228.685713
 20
-86.760993
 30
0.0
 11
255.685713
 21
-86.760993
 31
0.0
  0
ARC
  5
DD
100
AcDbEntity
  8
LAY-1
  6
CONTINUOUS
 62
     2
100
AcDbCircle
 10
240.935713
 20
-93.160993
 30
0.0
 40
0.4
100
AcDbArc
 50
0.0
 51
90.0
  0
LINE
  5
DE
100
AcDbEntity
  8
LAY-1
  6
CONTINUOUS
 62
     2
100
AcDbLine
 10
218.464378
 20
47.288134
 30
0.0
 11
219.946603
 21
48.143897
 31
0.0
  0
ARC
  5
DF
100
AcDbEntity
  8
LAY-1
  6
CONTINUOUS
 62
     2
100
AcDbCircle
 10
223.935713
 20
47.848934
 30
0.0
 40
5.5
100
AcDbArc
 50
185.85226
 51
300.0
  0
LINE
  5
E0
100
AcDbEntity
  8
LAY-1
  6
CONTINUOUS
 62
     2
100
AcDbLine
 10
242.185713
 20
-85.260993
 30
0.0
 11
222.185713
 21
-85.260993
 31
0.0
  0
LINE
  5
E1
100
AcDbEntity
  8
LAY-1
  6
CONTINUOUS
 62
     2
100
AcDbLine
 10
221.185713
 20
-84.260993
 30
0.0
 11
221.185713
 21
-68.260993
 31
0.0
  0
LINE
  5
E2
100
AcDbEntity
  8
LAY-1
  6
CONTINUOUS
 62
     2
100
AcDbLine
 10
222.185713
 20
-67.260993
 30
0.0
 11
242.185713
 21
-67.260993
 31
0.0
  0
ARC
  5
E3
100
AcDbEntity
  8
LAY-1
  6
CONTINUOUS
 62
     2
100
AcDbCircle
 10
227.33804
 20
-86.686556
 30
0.0
 40
19.425563
100
AcDbArc
 50
71.545507
 51
108.464253
  0
ARC
  5
E4
100
AcDbEntity
  8
LAY-1
  6
CONTINUOUS
 62
     2
100
AcDbCircle
 10
222.185713
 20
-84.260993
 30
0.0
 40
1.0
100
AcDbArc
 50
180.0
 51
270.0
  0
ARC
  5
E5
100
AcDbEntity
  8
LAY-1
  6
CONTINUOUS
 62
     2
100
AcDbCircle
 10
222.185713
 20
-68.260993
 30
0.0
 40
1.0
100
AcDbArc
 50
90.0
 51
180.0
  0
ARC
  5
E6
100
AcDbEntity
  8
LAY-1
  6
CONTINUOUS
 62
     2
100
AcDbCircle
 10
262.185713
 20
-68.260993
 30
0.0
 40
1.0
100
AcDbArc
 50
0.0
 51
90.0
  0
ARC
  5
E7
100
AcDbEntity
  8
LAY-1
  6
CONTINUOUS
 62
     2
100
AcDbCircle
 10
262.185713
 20
-84.260993
 30
0.0
 40
1.0
100
AcDbArc
 50
270.0
 51
0.0
  0
ARC
  5
E8
100
AcDbEntity
  8
LAY-1
  6
CONTINUOUS
 62
     2
100
AcDbCircle
 10
242.185713
 20
-105.631965
 30
0.0
 40
38.370972
100
AcDbArc
 50
76.897464
 51
103.102536
  0
ARC
  5
E9
100
AcDbEntity
  8
LAY-1
  6
CONTINUOUS
 62
     2
100
AcDbCircle
 10
257.033386
 20
-86.686556
 30
0.0
 40
19.425563
100
AcDbArc
 50
71.535747
 51
108.454493
  0
ARC
  5
EA
100
AcDbEntity
  8
LAY-1
  6
CONTINUOUS
 62
     2
100
AcDbCircle
 10
257.033386
 20
-65.83543
 30
0.0
 40
19.425563
100
AcDbArc
 50
251.545507
 51
288.464253
  0
ARC
  5
EB
100
AcDbEntity
  8
LAY-1
  6
CONTINUOUS
 62
     2
100
AcDbCircle
 10
242.185713
 20
-46.890021
 30
0.0
 40
38.370972
100
AcDbArc
 50
256.897464
 51
283.102536
  0
TEXT
  5
EC
100
AcDbEntity
  8
LAY-1
  6
CONTINUOUS
 62
     3
100
AcDbText
 10
244.716047
 20
-14.697579
 30
0.0
 40
2.5
  1
Ａ
 50
15.0
 41
1.344
  7
EXCADSTD
 72
     5
 11
247.80701
 21
-13.869358
 31
0.0
100
AcDbText
  0
ARC
  5
ED
100
AcDbEntity
  8
LAY-1
  6
CONTINUOUS
 62
     2
100
AcDbCircle
 10
227.33804
 20
-65.83543
 30
0.0
 40
19.425563
100
AcDbArc
 50
251.535747
 51
288.454493
  0
ARC
  5
EE
100
AcDbEntity
  8
LAY-1
  6
CONTINUOUS
 62
     2
100
AcDbCircle
 10
243.435713
 20
-59.260993
 30
0.0
 40
0.4
100
AcDbArc
 50
90.0
 51
180.0
  0
ARC
  5
EF
100
AcDbEntity
  8
LAY-1
  6
CONTINUOUS
 62
     2
100
AcDbCircle
 10
243.435713
 20
-64.460993
 30
0.0
 40
0.4
100
AcDbArc
 50
270.0
 51
0.0
  0
ARC
  5
F0
100
AcDbEntity
  8
LAY-1
  6
CONTINUOUS
 62
     2
100
AcDbCircle
 10
243.435713
 20
-64.460993
 30
0.0
 40
0.4
100
AcDbArc
 50
180.0
 51
270.0
  0
TEXT
  5
F1
100
AcDbEntity
  8
LAY-1
  6
CONTINUOUS
 62
     3
100
AcDbText
 10
248.044846
 20
42.705459
 30
0.0
 40
2.5
  1
I
 50
345.0
 41
0.8
  7
EXCADSTD
 72
     5
 11
249.300549
 21
42.368994
 31
0.0
100
AcDbText
  0
TEXT
  5
F2
100
AcDbEntity
  8
LAY-1
  6
CONTINUOUS
 62
     3
100
AcDbText
 10
242.830847
 20
43.54822
 30
0.0
 40
2.5
  1
K
 50
350.0
 41
0.8
  7
EXCADSTD
 72
     5
 11
244.111098
 21
43.322477
 31
0.0
100
AcDbText
  0
LINE
  5
F3
100
AcDbEntity
  8
LAY-1
  6
CONTINUOUS
 62
     2
100
AcDbLine
 10
243.035713
 20
-59.260993
 30
0.0
 11
243.035713
 21
-64.460993
 31
0.0
  0
LINE
  5
F4
100
AcDbEntity
  8
LAY-1
  6
CONTINUOUS
 62
     2
100
AcDbLine
 10
243.835713
 20
-64.460993
 30
0.0
 11
243.835713
 21
-59.260993
 31
0.0
  0
ARC
  5
F5
100
AcDbEntity
  8
LAY-1
  6
CONTINUOUS
 62
     2
100
AcDbCircle
 10
236.435713
 20
77.847045
 30
0.0
 40
16.608038
100
AcDbArc
 50
249.743842
 51
290.256158
  0
ARC
  5
F6
100
AcDbEntity
  8
LAY-1
  6
CONTINUOUS
 62
     2
100
AcDbCircle
 10
236.435713
 20
52.630969
 30
0.0
 40
16.608038
100
AcDbArc
 50
69.743842
 51
110.256158
  0
LINE
  5
F7
100
AcDbEntity
  8
LAY-1
  6
CONTINUOUS
 62
     2
100
AcDbLine
 10
230.685713
 20
61.239007
 30
0.0
 11
230.685713
 21
69.239007
 31
0.0
  0
LINE
  5
F8
100
AcDbEntity
  8
LAY-1
  6
CONTINUOUS
 62
     2
100
AcDbLine
 10
231.185713
 20
61.239007
 30
0.0
 11
230.685713
 21
61.239007
 31
0.0
  0
LINE
  5
F9
100
AcDbEntity
  8
LAY-1
  6
CONTINUOUS
 62
     1
100
AcDbLine
 10
232.406003
 20
71.739007
 30
0.0
 11
231.173202
 21
69.603733
 31
0.0
  0
ARC
  5
FA
100
AcDbEntity
  8
LAY-1
  6
CONTINUOUS
 62
     2
100
AcDbCircle
 10
240.935713
 20
-98.360993
 30
0.0
 40
0.4
100
AcDbArc
 50
180.0
 51
243.729794
  0
LINE
  5
FB
100
AcDbEntity
  8
LAY-1
  6
CONTINUOUS
 62
     1
100
AcDbLine
 10
251.965422
 20
71.739007
 30
0.0
 11
253.198223
 21
69.603733
 31
0.0
  0
LINE
  5
FC
100
AcDbEntity
  8
LAY-1
  6
CONTINUOUS
 62
     2
100
AcDbLine
 10
231.161109
 20
69.239007
 30
0.0
 11
231.326398
 21
74.22394
 31
0.0
  0
LINE
  5
FD
100
AcDbEntity
  8
LAY-1
  6
CONTINUOUS
 62
     1
100
AcDbLine
 10
251.965422
 20
71.739007
 30
0.0
 11
251.882537
 21
74.238713
 31
0.0
  0
LINE
  5
FE
100
AcDbEntity
  8
LAY-1
  6
CONTINUOUS
 62
     1
100
AcDbLine
 10
232.406003
 20
71.739007
 30
0.0
 11
232.489037
 21
74.243209
 31
0.0
  0
LINE
  5
FF
100
AcDbEntity
  8
LAY-1
  6
CONTINUOUS
 62
     2
100
AcDbLine
 10
253.210316
 20
69.239007
 30
0.0
 11
253.045027
 21
74.22394
 31
0.0
  0
ARC
  5
100
100
AcDbEntity
  8
LAY-1
  6
CONTINUOUS
 62
     2
100
AcDbCircle
 10
231.185713
 20
59.239007
 30
0.0
 40
2.0
100
AcDbArc
 50
90.0
 51
180.0
  0
LINE
  5
101
100
AcDbEntity
  8
LAY-1
  6
CONTINUOUS
 62
     2
100
AcDbLine
 10
229.185713
 20
54.595884
 30
0.0
 11
229.185713
 21
59.239007
 31
0.0
  0
TEXT
  5
102
100
AcDbEntity
  8
LAY-1
  6
CONTINUOUS
 62
     3
100
AcDbText
 10
223.037325
 20
-1.888258
 30
0.0
 40
2.5
  1
T
 50
320.0
 41
0.8
  7
EXCADSTD
 72
     5
 11
224.033182
 21
-2.723882
 31
0.0
100
AcDbText
  0
TEXT
  5
103
100
AcDbEntity
  8
LAY-1
  6
CONTINUOUS
 62
     3
100
AcDbText
 10
226.46104
 20
-4.741354
 30
0.0
 40
2.5
  1
Y
 50
320.0
 41
0.8
  7
EXCADSTD
 72
     5
 11
227.456898
 21
-5.576978
 31
0.0
100
AcDbText
  0
TEXT
  5
104
100
AcDbEntity
  8
LAY-1
  6
CONTINUOUS
 62
     3
100
AcDbText
 10
230.747384
 20
-7.577756
 30
0.0
 40
2.5
  1
P
 50
335.0
 41
0.8
  7
EXCADSTD
 72
     5
 11
231.925584
 21
-8.12716
 31
0.0
100
AcDbText
  0
TEXT
  5
105
100
AcDbEntity
  8
LAY-1
  6
CONTINUOUS
 62
     3
100
AcDbText
 10
235.554632
 20
-8.949159
 30
0.0
 40
2.5
  1
E
 50
345.0
 41
0.8
  7
EXCADSTD
 72
     5
 11
236.810336
 21
-9.285624
 31
0.0
100
AcDbText
  0
TEXT
  5
106
100
AcDbEntity
  8
LAY-1
  6
CONTINUOUS
 62
     3
100
AcDbText
 10
253.327601
 20
-7.542695
 30
0.0
 40
2.5
  1
2
 50
25.0
 41
0.8
  7
EXCADSTD
 72
     5
 11
254.505801
 21
-6.993291
 31
0.0
100
AcDbText
  0
TEXT
  5
107
100
AcDbEntity
  8
LAY-1
  6
CONTINUOUS
 62
     3
100
AcDbText
 10
249.167976
 20
-9.105905
 30
0.0
 40
2.5
  1
7
 50
15.0
 41
0.8
  7
EXCADSTD
 72
     5
 11
250.42368
 21
-8.769441
 31
0.0
100
AcDbText
  0
TEXT
  5
108
100
AcDbEntity
  8
LAY-1
  6
CONTINUOUS
 62
     3
100
AcDbText
 10
245.636212
 20
-9.71988
 30
0.0
 40
2.5
  1
-
 50
10.0
 41
0.8
  7
EXCADSTD
 72
     5
 11
246.916462
 21
-9.494137
 31
0.0
100
AcDbText
  0
TEXT
  5
109
100
AcDbEntity
  8
LAY-1
  6
CONTINUOUS
 62
     3
100
AcDbText
 10
242.522564
 20
-10.005929
 30
0.0
 40
2.5
  1
I
 50
5.0
 41
0.8
  7
EXCADSTD
 72
     5
 11
243.817617
 21
-9.892626
 31
0.0
100
AcDbText
  0
CIRCLE
  5
10A
100
AcDbEntity
  8
LAY-1
  6
CONTINUOUS
 62
     2
100
AcDbCircle
 10
242.185713
 20
16.239007
 30
0.0
 40
15.0
  0
TEXT
  5
10B
100
AcDbEntity
  8
LAY-1
  6
CONTINUOUS
 62
     3
100
AcDbText
 10
215.686945
 20
0.173676
 30
0.0
 40
2.5
  1
R
 50
315.0
 41
0.8
  7
EXCADSTD
 72
     5
 11
216.606184
 21
-0.745563
 31
0.0
100
AcDbText
  0
TEXT
  5
10C
100
AcDbEntity
  8
LAY-1
  6
CONTINUOUS
 62
     3
100
AcDbText
 10
220.577967
 20
-4.472795
 30
0.0
 40
2.5
  1
E
 50
315.0
 41
0.8
  7
EXCADSTD
 72
     5
 11
221.497206
 21
-5.392033
 31
0.0
100
AcDbText
  0
TEXT
  5
10D
100
AcDbEntity
  8
LAY-1
  6
CONTINUOUS
 62
     3
100
AcDbText
 10
225.72953
 20
-9.058983
 30
0.0
 40
2.5
  1
G
 50
330.0
 41
0.8
  7
EXCADSTD
 72
     5
 11
226.855363
 21
-9.708983
 31
0.0
100
AcDbText
  0
TEXT
  5
10E
100
AcDbEntity
  8
LAY-1
  6
CONTINUOUS
 62
     3
100
AcDbText
 10
232.167759
 20
-12.424862
 30
0.0
 40
2.5
  1
U
 50
345.0
 41
0.8
  7
EXCADSTD
 72
     5
 11
233.423462
 21
-12.761327
 31
0.0
100
AcDbText
  0
ARC
  5
10F
100
AcDbEntity
  8
LAY-1
  6
CONTINUOUS
 62
     2
100
AcDbCircle
 10
240.935713
 20
-59.260993
 30
0.0
 40
0.4
100
AcDbArc
 50
90.0
 51
180.0
  0
ARC
  5
110
100
AcDbEntity
  8
LAY-1
  6
CONTINUOUS
 62
     2
100
AcDbCircle
 10
240.935713
 20
-64.460993
 30
0.0
 40
0.4
100
AcDbArc
 50
270.0
 51
0.0
  0
ARC
  5
111
100
AcDbEntity
  8
LAY-1
  6
CONTINUOUS
 62
     2
100
AcDbCircle
 10
240.935713
 20
-64.460993
 30
0.0
 40
0.4
100
AcDbArc
 50
180.0
 51
270.0
  0
LINE
  5
112
100
AcDbEntity
  8
LAY-1
  6
CONTINUOUS
 62
     2
100
AcDbLine
 10
240.535713
 20
-59.260993
 30
0.0
 11
240.535713
 21
-64.460993
 31
0.0
  0
ARC
  5
113
100
AcDbEntity
  8
LAY-1
  6
CONTINUOUS
 62
     2
100
AcDbCircle
 10
243.435713
 20
-59.260993
 30
0.0
 40
0.4
100
AcDbArc
 50
0.0
 51
90.0
  0
LINE
  5
114
100
AcDbEntity
  8
LAY-1
  6
CONTINUOUS
 62
     2
100
AcDbLine
 10
241.335713
 20
-64.460993
 30
0.0
 11
241.335713
 21
-59.260993
 31
0.0
  0
ARC
  5
115
100
AcDbEntity
  8
LAY-1
  6
CONTINUOUS
 62
     2
100
AcDbCircle
 10
240.935713
 20
-59.260993
 30
0.0
 40
0.4
100
AcDbArc
 50
0.0
 51
90.0
  0
LINE
  5
116
100
AcDbEntity
  8
LAY-1
  6
CONTINUOUS
 62
     2
100
AcDbLine
 10
232.657088
 20
-50.840993
 30
0.0
 11
251.714338
 21
-50.840993
 31
0.0
  0
LINE
  5
117
100
AcDbEntity
  8
LAY-1
  6
CONTINUOUS
 62
     2
100
AcDbLine
 10
230.368974
 20
-55.860993
 30
0.0
 11
254.002451
 21
-55.860993
 31
0.0
  0
ARC
  5
118
100
AcDbEntity
  8
LAY-1
  6
CONTINUOUS
 62
     2
100
AcDbCircle
 10
232.639771
 20
-60.881929
 30
0.0
 40
5.020936
100
AcDbArc
 50
38.046182
 51
141.953818
  0
ARC
  5
119
100
AcDbEntity
  8
LAY-1
  6
CONTINUOUS
 62
     2
100
AcDbCircle
 10
242.185713
 20
-64.939589
 30
0.0
 40
9.078596
100
AcDbArc
 50
51.979644
 51
128.020356
  0
ARC
  5
11A
100
AcDbEntity
  8
LAY-1
  6
CONTINUOUS
 62
     2
100
AcDbCircle
 10
251.731654
 20
-60.881929
 30
0.0
 40
5.020936
100
AcDbArc
 50
38.046182
 51
141.953818
  0
LINE
  5
11B
100
AcDbEntity
  8
LAY-1
  6
CONTINUOUS
 62
     2
100
AcDbLine
 10
247.777596
 20
-67.260993
 30
0.0
 11
247.777596
 21
-57.787544
 31
0.0
  0
LINE
  5
11C
100
AcDbEntity
  8
LAY-1
  6
CONTINUOUS
 62
     2
100
AcDbLine
 10
236.59383
 20
-67.260993
 30
0.0
 11
236.59383
 21
-57.787544
 31
0.0
  0
CIRCLE
  5
11D
100
AcDbEntity
  8
LAY-1
  6
CONTINUOUS
 62
     2
100
AcDbCircle
 10
223.935713
 20
-15.37092
 30
0.0
 40
3.5
  0
LINE
  5
11E
100
AcDbEntity
  8
LAY-1
  6
CONTINUOUS
 62
     2
100
AcDbLine
 10
235.558296
 20
-38.272025
 30
0.0
 11
235.558296
 21
-44.999887
 31
0.0
  0
ARC
  5
11F
100
AcDbEntity
  8
LAY-1
  6
CONTINUOUS
 62
     2
100
AcDbCircle
 10
240.935713
 20
-98.360993
 30
0.0
 40
0.4
100
AcDbArc
 50
290.372788
 51
0.0
  0
ARC
  5
120
100
AcDbEntity
  8
LAY-1
  6
CONTINUOUS
 62
     2
100
AcDbCircle
 10
240.935713
 20
-93.160993
 30
0.0
 40
0.4
100
AcDbArc
 50
90.0
 51
180.0
  0
ARC
  5
121
100
AcDbEntity
  8
LAY-1
  6
CONTINUOUS
 62
     2
100
AcDbCircle
 10
254.002451
 20
-54.860993
 30
0.0
 40
1.0
100
AcDbArc
 50
181.789911
 51
270.0
  0
LINE
  5
122
100
AcDbEntity
  8
LAY-1
  6
CONTINUOUS
 62
     1
100
AcDbLine
 10
232.815838
 20
-45.760993
 30
0.0
 11
232.657088
 21
-50.840993
 31
0.0
  0
LINE
  5
123
100
AcDbEntity
  8
LAY-1
  6
CONTINUOUS
 62
     2
100
AcDbLine
 10
243.835713
 20
-98.360993
 30
0.0
 11
243.835713
 21
-93.160993
 31
0.0
  0
ARC
  5
124
100
AcDbEntity
  8
LAY-1
  6
CONTINUOUS
 62
     2
100
AcDbCircle
 10
205.685713
 20
16.239007
 30
0.0
 40
5.5
100
AcDbArc
 50
0.0
 51
114.14774
  0
LINE
  5
125
100
AcDbEntity
  8
LAY-1
  6
CONTINUOUS
 62
     2
100
AcDbLine
 10
242.185713
 20
-98.760993
 30
0.0
 11
254.685713
 21
-98.760993
 31
0.0
  0
LINE
  5
126
100
AcDbEntity
  8
LAY-1
  6
CONTINUOUS
 62
     2
100
AcDbLine
 10
255.685713
 20
-67.260993
 30
0.0
 11
255.685713
 21
-56.860993
 31
0.0
  0
LINE
  5
127
100
AcDbEntity
  8
LAY-1
  6
CONTINUOUS
 62
     2
100
AcDbLine
 10
255.685713
 20
-97.760993
 30
0.0
 11
255.685713
 21
-87.760993
 31
0.0
  0
TEXT
  5
128
100
AcDbEntity
  8
LAY-1
  6
CONTINUOUS
 62
     3
100
AcDbText
 10
218.963758
 20
30.6712
 30
0.0
 40
2.5
  1
I
 50
55.0
 41
0.8
  7
EXCADSTD
 72
     5
 11
219.709408
 21
31.736098
 31
0.0
100
AcDbText
  0
TEXT
  5
129
100
AcDbEntity
  8
LAY-1
  6
CONTINUOUS
 62
     3
100
AcDbText
 10
221.696928
 20
34.29658
 30
0.0
 40
2.5
  1
T
 50
45.0
 41
0.8
  7
EXCADSTD
 72
     5
 11
222.616166
 21
35.215819
 31
0.0
100
AcDbText
  0
TEXT
  5
12A
100
AcDbEntity
  8
LAY-1
  6
CONTINUOUS
 62
     3
100
AcDbText
 10
225.611558
 20
38.251898
 30
0.0
 40
2.5
  1
O
 50
30.0
 41
0.8
  7
EXCADSTD
 72
     5
 11
226.737391
 21
38.901898
 31
0.0
100
AcDbText
  0
LINE
  5
12B
100
AcDbEntity
  8
LAY-1
  6
CONTINUOUS
 62
     2
100
AcDbLine
 10
254.685713
 20
-55.860993
 30
0.0
 11
254.002451
 21
-55.860993
 31
0.0
  0
TEXT
  5
12C
100
AcDbEntity
  8
LAY-1
  6
CONTINUOUS
 62
     3
100
AcDbText
 10
231.075973
 20
41.320609
 30
0.0
 40
2.5
  1
K
 50
20.0
 41
0.8
  7
EXCADSTD
 72
     5
 11
232.297573
 21
41.765236
 31
0.0
100
AcDbText
  0
TEXT
  5
12D
100
AcDbEntity
  8
LAY-1
  6
CONTINUOUS
 62
     3
100
AcDbText
 10
236.582685
 20
43.096954
 30
0.0
 40
2.5
  1
O
 50
5.0
 41
0.8
  7
EXCADSTD
 72
     5
 11
237.877738
 21
43.210257
 31
0.0
100
AcDbText
  0
TEXT
  5
12E
100
AcDbEntity
  8
LAY-1
  6
CONTINUOUS
 62
     3
100
AcDbText
 10
262.845306
 20
33.475155
 30
0.0
 40
2.5
  1
.
 50
315.0
 41
0.8
  7
EXCADSTD
 72
     5
 11
263.764545
 21
32.555916
 31
0.0
100
AcDbText
  0
TEXT
  5
12F
100
AcDbEntity
  8
LAY-1
  6
CONTINUOUS
 62
     3
100
AcDbText
 10
257.669015
 20
38.227982
 30
0.0
 40
2.5
  1
.
 50
330.0
 41
0.8
  7
EXCADSTD
 72
     5
 11
258.794849
 21
37.577982
 31
0.0
100
AcDbText
  0
TEXT
  5
130
100
AcDbEntity
  8
LAY-1
  6
CONTINUOUS
 62
     3
100
AcDbText
 10
260.357265
 20
36.537359
 30
0.0
 40
2.5
  1
K
 50
315.0
 41
0.8
  7
EXCADSTD
 72
     5
 11
261.276503
 21
35.618121
 31
0.0
100
AcDbText
  0
LINE
  5
131
100
AcDbEntity
  8
LAY-1
  6
CONTINUOUS
 62
     2
100
AcDbLine
 10
253.002939
 20
-54.892228
 30
0.0
 11
252.717588
 21
-45.760993
 31
0.0
  0
TEXT
  5
132
100
AcDbEntity
  8
LAY-1
  6
CONTINUOUS
 62
     3
100
AcDbText
 10
254.224035
 20
40.811718
 30
0.0
 40
2.5
  1
K
 50
330.0
 41
0.8
  7
EXCADSTD
 72
     5
 11
255.349868
 21
40.161718
 31
0.0
100
AcDbText
  0
LINE
  5
133
100
AcDbEntity
  8
LAY-1
  6
CONTINUOUS
 62
     2
100
AcDbLine
 10
263.185713
 20
-84.260993
 30
0.0
 11
263.185713
 21
-68.260993
 31
0.0
  0
LINE
  5
134
100
AcDbEntity
  8
LAY-1
  6
CONTINUOUS
 62
     2
100
AcDbLine
 10
242.185713
 20
-85.260993
 30
0.0
 11
262.185713
 21
-85.260993
 31
0.0
  0
LINE
  5
135
100
AcDbEntity
  8
LAY-1
  6
CONTINUOUS
 62
     1
100
AcDbLine
 10
251.555588
 20
-45.760993
 30
0.0
 11
251.714338
 21
-50.840993
 31
0.0
  0
LINE
  5
136
100
AcDbEntity
  8
LAY-1
  6
CONTINUOUS
 62
     1
100
AcDbLine
 10
251.714338
 20
-50.840993
 30
0.0
 11
252.942832
 21
-52.968807
 31
0.0
  0
LINE
  5
137
100
AcDbEntity
  8
LAY-1
  6
CONTINUOUS
 62
     2
100
AcDbLine
 10
254.185713
 20
-25.83279
 30
0.0
 11
230.185713
 21
-25.83279
 31
0.0
  0
LINE
  5
138
100
AcDbEntity
  8
LAY-1
  6
CONTINUOUS
 62
     2
100
AcDbLine
 10
254.185713
 20
-25.83279
 30
0.0
 11
254.185713
 21
-22.442384
 31
0.0
  0
LINE
  5
139
100
AcDbEntity
  8
LAY-1
  6
CONTINUOUS
 62
     2
100
AcDbLine
 10
258.185713
 20
-32.760993
 30
0.0
 11
254.185713
 21
-25.83279
 31
0.0
  0
LINE
  5
13A
100
AcDbEntity
  8
LAY-1
  6
CONTINUOUS
 62
     2
100
AcDbLine
 10
258.185713
 20
-45.760993
 30
0.0
 11
258.185713
 21
-32.760993
 31
0.0
  0
LINE
  5
13B
100
AcDbEntity
  8
LAY-1
  6
CONTINUOUS
 62
     2
100
AcDbLine
 10
226.185713
 20
-45.760993
 30
0.0
 11
258.185713
 21
-45.760993
 31
0.0
  0
LINE
  5
13C
100
AcDbEntity
  8
LAY-1
  6
CONTINUOUS
 62
     2
100
AcDbLine
 10
226.185713
 20
-32.760993
 30
0.0
 11
226.185713
 21
-45.760993
 31
0.0
  0
LINE
  5
13D
100
AcDbEntity
  8
LAY-1
  6
CONTINUOUS
 62
     2
100
AcDbLine
 10
230.185713
 20
-25.83279
 30
0.0
 11
226.185713
 21
-32.760993
 31
0.0
  0
LINE
  5
13E
100
AcDbEntity
  8
LAY-1
  6
CONTINUOUS
 62
     2
100
AcDbLine
 10
230.185713
 20
-22.442384
 30
0.0
 11
230.185713
 21
-25.83279
 31
0.0
  0
ARC
  5
13F
100
AcDbEntity
  8
LAY-1
  6
CONTINUOUS
 62
     2
100
AcDbCircle
 10
254.685713
 20
-56.860993
 30
0.0
 40
1.0
100
AcDbArc
 50
0.0
 51
90.0
  0
LINE
  5
140
100
AcDbEntity
  8
LAY-1
  6
CONTINUOUS
 62
     2
100
AcDbLine
 10
255.685713
 20
-86.760993
 30
0.0
 11
259.685713
 21
-86.760993
 31
0.0
  0
LINE
  5
141
100
AcDbEntity
  8
LAY-1
  6
CONTINUOUS
 62
     2
100
AcDbLine
 10
259.685713
 20
-86.760993
 30
0.0
 11
259.685713
 21
-85.260993
 31
0.0
  0
LINE
  5
142
100
AcDbEntity
  8
LAY-1
  6
CONTINUOUS
 62
     2
100
AcDbLine
 10
252.876338
 20
-50.840993
 30
0.0
 11
251.714338
 21
-50.840993
 31
0.0
  0
ARC
  5
143
100
AcDbEntity
  8
LAY-1
  6
CONTINUOUS
 62
     2
100
AcDbCircle
 10
229.685713
 20
-56.860993
 30
0.0
 40
1.0
100
AcDbArc
 50
90.0
 51
180.0
  0
LINE
  5
144
100
AcDbEntity
  8
LAY-1
  6
CONTINUOUS
 62
     2
100
AcDbLine
 10
262.185713
 20
-67.260993
 30
0.0
 11
242.185713
 21
-67.260993
 31
0.0
  0
TEXT
  5
145
100
AcDbEntity
  8
LAY-1
  6
CONTINUOUS
 62
     3
100
AcDbText
 10
223.306973
 20
30.547767
 30
0.0
 40
2.5
  1
O
 50
45.0
 41
0.8
  7
EXCADSTD
 72
     5
 11
224.226211
 21
31.467006
 31
0.0
100
AcDbText
  0
TEXT
  5
146
100
AcDbEntity
  8
LAY-1
  6
CONTINUOUS
 62
     3
100
AcDbText
 10
226.273484
 20
33.514278
 30
0.0
 40
2.5
  1
S
 50
45.0
 41
0.8
  7
EXCADSTD
 72
     5
 11
227.192722
 21
34.433517
 31
0.0
100
AcDbText
  0
TEXT
  5
147
100
AcDbEntity
  8
LAY-1
  6
CONTINUOUS
 62
     3
100
AcDbText
 10
228.32626
 20
35.784221
 30
0.0
 40
2.5
  1
Ａ
 50
30.0
 41
1.344
  7
EXCADSTD
 72
     5
 11
231.097541
 21
37.384221
 31
0.0
100
AcDbText
  0
TEXT
  5
148
100
AcDbEntity
  8
LAY-1
  6
CONTINUOUS
 62
     3
100
AcDbText
 10
233.479199
 20
38.271867
 30
0.0
 40
2.5
  1
K
 50
27.0
 41
0.8
  7
EXCADSTD
 72
     5
 11
234.637508
 21
38.862055
 31
0.0
100
AcDbText
  0
TEXT
  5
149
100
AcDbEntity
  8
LAY-1
  6
CONTINUOUS
 62
     3
100
AcDbText
 10
236.122449
 20
39.335209
 30
0.0
 40
2.5
  1
Ａ
 50
15.0
 41
1.344
  7
EXCADSTD
 72
     5
 11
239.213412
 21
40.16343
 31
0.0
100
AcDbText
  0
TEXT
  5
14A
100
AcDbEntity
  8
LAY-1
  6
CONTINUOUS
 62
     3
100
AcDbText
 10
257.531319
 20
34.413563
 30
0.0
 40
2.5
  1
N
 50
317.0
 41
0.8
  7
EXCADSTD
 72
     5
 11
258.482079
 21
33.526966
 31
0.0
100
AcDbText
  0
TEXT
  5
14B
100
AcDbEntity
  8
LAY-1
  6
CONTINUOUS
 62
     3
100
AcDbText
 10
253.066193
 20
37.979485
 30
0.0
 40
2.5
  1
Ａ
 50
320.0
 41
1.344
  7
EXCADSTD
 72
     5
 11
255.517535
 21
35.922565
 31
0.0
100
AcDbText
  0
TEXT
  5
14C
100
AcDbEntity
  8
LAY-1
  6
CONTINUOUS
 62
     3
100
AcDbText
 10
250.204132
 20
38.6424
 30
0.0
 40
2.5
  1
P
 50
335.0
 41
0.8
  7
EXCADSTD
 72
     5
 11
251.382332
 21
38.092996
 31
0.0
100
AcDbText
  0
TEXT
  5
14D
100
AcDbEntity
  8
LAY-1
  6
CONTINUOUS
 62
     3
100
AcDbText
 10
244.593448
 20
40.096167
 30
0.0
 40
2.5
  1
Ａ
 50
350.0
 41
1.344
  7
EXCADSTD
 72
     5
 11
247.744833
 21
39.540493
 31
0.0
100
AcDbText
  0
TEXT
  5
14E
100
AcDbEntity
  8
LAY-1
  6
CONTINUOUS
 62
     3
100
AcDbText
 10
242.518007
 20
40.180592
 30
0.0
 40
2.5
  1
J
 50
355.0
 41
0.8
  7
EXCADSTD
 72
     5
 11
243.813061
 21
40.06729
 31
0.0
100
AcDbText
  0
LINE
  5
14F
100
AcDbEntity
  8
LAY-1
  6
CONTINUOUS
 62
     2
100
AcDbLine
 10
228.685713
 20
-67.260993
 30
0.0
 11
228.685713
 21
-56.860993
 31
0.0
  0
LINE
  5
150
100
AcDbEntity
  8
LAY-1
  6
CONTINUOUS
 62
     2
100
AcDbLine
 10
229.685713
 20
-55.860993
 30
0.0
 11
230.368974
 21
-55.860993
 31
0.0
  0
LINE
  5
151
100
AcDbEntity
  8
LAY-1
  6
CONTINUOUS
 62
     2
100
AcDbLine
 10
231.368487
 20
-54.892228
 30
0.0
 11
231.653838
 21
-45.760993
 31
0.0
  0
CIRCLE
  5
152
100
AcDbEntity
  8
LAY-1
  6
CONTINUOUS
 62
     2
100
AcDbCircle
 10
242.185713
 20
16.239007
 30
0.0
 40
8.0
  0
LINE
  5
153
100
AcDbEntity
  8
LAY-1
  6
CONTINUOUS
 62
     2
100
AcDbLine
 10
242.185713
 20
7.001403
 30
0.0
 11
250.185713
 21
11.620205
 31
0.0
  0
LINE
  5
154
100
AcDbEntity
  8
LAY-1
  6
CONTINUOUS
 62
     2
100
AcDbLine
 10
234.185713
 20
11.620205
 30
0.0
 11
242.185713
 21
7.001403
 31
0.0
  0
LINE
  5
155
100
AcDbEntity
  8
LAY-1
  6
CONTINUOUS
 62
     2
100
AcDbLine
 10
234.185713
 20
20.857809
 30
0.0
 11
234.185713
 21
11.620205
 31
0.0
  0
LINE
  5
156
100
AcDbEntity
  8
LAY-1
  6
CONTINUOUS
 62
     2
100
AcDbLine
 10
242.185713
 20
25.476611
 30
0.0
 11
234.185713
 21
20.857809
 31
0.0
  0
LINE
  5
157
100
AcDbEntity
  8
LAY-1
  6
CONTINUOUS
 62
     2
100
AcDbLine
 10
250.185713
 20
20.857809
 30
0.0
 11
242.185713
 21
25.476611
 31
0.0
  0
LINE
  5
158
100
AcDbEntity
  8
LAY-1
  6
CONTINUOUS
 62
     2
100
AcDbLine
 10
250.185713
 20
11.620205
 30
0.0
 11
250.185713
 21
20.857809
 31
0.0
  0
LINE
  5
159
100
AcDbEntity
  8
LAY-1
  6
EXLTYPE3
 62
     1
100
AcDbLine
 10
249.685713
 20
-34.760993
 30
0.0
 11
250.895377
 21
-34.760993
 31
0.0
  0
CIRCLE
  5
15A
100
AcDbEntity
  8
LAY-1
  6
CONTINUOUS
 62
     2
100
AcDbCircle
 10
242.185713
 20
-34.760993
 30
0.0
 40
7.5
  0
LINE
  5
15B
100
AcDbEntity
  8
LAY-1
  6
CONTINUOUS
 62
     2
100
AcDbLine
 10
248.81313
 20
-38.272025
 30
0.0
 11
248.81313
 21
-44.999887
 31
0.0
  0
ARC
  5
15C
100
AcDbEntity
  8
LAY-1
  6
CONTINUOUS
 62
     2
100
AcDbCircle
 10
230.872004
 20
-47.568783
 30
0.0
 40
14.80779
100
AcDbArc
 50
74.49899
 51
108.449866
  0
LINE
  5
15D
100
AcDbEntity
  8
LAY-1
  6
EXLTYPE3
 62
     1
100
AcDbLine
 10
233.66136
 20
-34.760993
 30
0.0
 11
249.685713
 21
-34.760993
 31
0.0
  0
ARC
  5
15E
100
AcDbEntity
  8
LAY-1
  6
CONTINUOUS
 62
     2
100
AcDbCircle
 10
253.499421
 20
-47.568783
 30
0.0
 40
14.80779
100
AcDbArc
 50
71.550134
 51
105.50101
  0
ARC
  5
15F
100
AcDbEntity
  8
LAY-1
  6
CONTINUOUS
 62
     2
100
AcDbCircle
 10
253.499421
 20
-30.953203
 30
0.0
 40
14.80779
100
AcDbArc
 50
251.550134
 51
288.449866
  0
ARC
  5
160
100
AcDbEntity
  8
LAY-1
  6
CONTINUOUS
 62
     2
100
AcDbCircle
 10
242.185713
 20
-16.525967
 30
0.0
 40
29.235026
100
AcDbArc
 50
256.897464
 51
283.102536
  0
ARC
  5
161
100
AcDbEntity
  8
LAY-1
  6
CONTINUOUS
 62
     2
100
AcDbCircle
 10
230.872004
 20
-30.953203
 30
0.0
 40
14.80779
100
AcDbArc
 50
251.550134
 51
288.449866
  0
LINE
  5
162
100
AcDbEntity
  8
LAY-1
  6
CONTINUOUS
 62
     2
100
AcDbLine
 10
231.495088
 20
-50.840993
 30
0.0
 11
232.657088
 21
-50.840993
 31
0.0
  0
ARC
  5
163
100
AcDbEntity
  8
LAY-1
  6
CONTINUOUS
 62
     2
100
AcDbCircle
 10
229.685713
 20
-97.760993
 30
0.0
 40
1.0
100
AcDbArc
 50
180.0
 51
270.0
  0
LINE
  5
164
100
AcDbEntity
  8
LAY-1
  6
CONTINUOUS
 62
     2
100
AcDbLine
 10
225.768245
 20
-86.760993
 30
0.0
 11
225.768245
 21
-85.197461
 31
0.0
  0
LINE
  5
165
100
AcDbEntity
  8
LAY-1
  6
CONTINUOUS
 62
     2
100
AcDbLine
 10
203.435713
 20
19.546196
 30
0.0
 11
203.435713
 21
21.257722
 31
0.0
  0
LINE
  5
166
100
AcDbEntity
  8
LAY-1
  6
CONTINUOUS
 62
     2
100
AcDbLine
 10
224.685713
 20
-86.760993
 30
0.0
 11
224.685713
 21
-85.260993
 31
0.0
  0
LINE
  5
167
100
AcDbEntity
  8
LAY-1
  6
CONTINUOUS
 62
     2
100
AcDbLine
 10
228.685713
 20
-86.760993
 30
0.0
 11
224.685713
 21
-86.760993
 31
0.0
  0
LINE
  5
168
100
AcDbEntity
  8
LAY-1
  6
CONTINUOUS
 62
     2
100
AcDbLine
 10
228.685713
 20
-97.760993
 30
0.0
 11
228.685713
 21
-87.760993
 31
0.0
  0
LINE
  5
169
100
AcDbEntity
  8
LAY-1
  6
CONTINUOUS
 62
     2
100
AcDbLine
 10
242.185713
 20
-98.760993
 30
0.0
 11
229.685713
 21
-98.760993
 31
0.0
  0
ARC
  5
16A
100
AcDbEntity
  8
LAY-1
  6
CONTINUOUS
 62
     2
100
AcDbCircle
 10
254.685713
 20
-97.760993
 30
0.0
 40
1.0
100
AcDbArc
 50
270.0
 51
0.0
  0
ARC
  5
16B
100
AcDbEntity
  8
LAY-1
  6
CONTINUOUS
 62
     2
100
AcDbCircle
 10
227.685713
 20
-87.760993
 30
0.0
 40
1.0
100
AcDbArc
 50
0.0
 51
90.0
  0
ARC
  5
16C
100
AcDbEntity
  8
LAY-1
  6
CONTINUOUS
 62
     2
100
AcDbCircle
 10
256.685713
 20
-87.760993
 30
0.0
 40
1.0
100
AcDbArc
 50
90.0
 51
180.0
  0
ARC
  5
16D
100
AcDbEntity
  8
LAY-1
  6
CONTINUOUS
 62
     2
100
AcDbCircle
 10
232.639771
 20
-86.266921
 30
0.0
 40
12.494073
100
AcDbArc
 50
251.550134
 51
288.449866
  0
ARC
  5
16E
100
AcDbEntity
  8
LAY-1
  6
CONTINUOUS
 62
     2
100
AcDbCircle
 10
242.185713
 20
-74.09394
 30
0.0
 40
24.667053
100
AcDbArc
 50
256.897464
 51
283.102536
  0
ARC
  5
16F
100
AcDbEntity
  8
LAY-1
  6
CONTINUOUS
 62
     2
100
AcDbCircle
 10
251.731654
 20
-86.266921
 30
0.0
 40
12.494073
100
AcDbArc
 50
251.550134
 51
288.449866
  0
LINE
  5
170
100
AcDbEntity
  8
LAY-1
  6
CONTINUOUS
 62
     2
100
AcDbLine
 10
258.603181
 20
-86.760993
 30
0.0
 11
258.603181
 21
-85.260993
 31
0.0
  0
LINE
  5
171
100
AcDbEntity
  8
LAY-1
  6
CONTINUOUS
 62
     2
100
AcDbLine
 10
243.035713
 20
-93.160993
 30
0.0
 11
243.035713
 21
-98.360993
 31
0.0
  0
ARC
  5
172
100
AcDbEntity
  8
LAY-1
  6
CONTINUOUS
 62
     2
100
AcDbCircle
 10
243.435713
 20
-98.360993
 30
0.0
 40
0.4
100
AcDbArc
 50
180.0
 51
249.627212
  0
ARC
  5
173
100
AcDbEntity
  8
LAY-1
  6
CONTINUOUS
 62
     2
100
AcDbCircle
 10
243.435713
 20
-98.360993
 30
0.0
 40
0.4
100
AcDbArc
 50
296.270206
 51
0.0
  0
ARC
  5
174
100
AcDbEntity
  8
LAY-1
  6
CONTINUOUS
 62
     2
100
AcDbCircle
 10
243.435713
 20
-93.160993
 30
0.0
 40
0.4
100
AcDbArc
 50
90.0
 51
180.0
  0
LINE
  5
175
100
AcDbEntity
  8
LAY-1
  6
CONTINUOUS
 62
     2
100
AcDbLine
 10
236.59383
 20
-98.118809
 30
0.0
 11
236.59383
 21
-86.760993
 31
0.0
  0
LINE
  5
176
100
AcDbEntity
  8
LAY-1
  6
CONTINUOUS
 62
     2
100
AcDbLine
 10
247.777596
 20
-86.760993
 30
0.0
 11
247.777596
 21
-98.118809
 31
0.0
  0
LINE
  5
177
100
AcDbEntity
  8
LAY-1
  6
CONTINUOUS
 62
     2
100
AcDbLine
 10
250.884197
 20
-68.259945
 30
0.0
 11
250.884197
 21
-84.262041
 31
0.0
  0
LINE
  5
178
100
AcDbEntity
  8
LAY-1
  6
CONTINUOUS
 62
     2
100
AcDbLine
 10
233.487228
 20
-68.259945
 30
0.0
 11
233.487228
 21
-84.262041
 31
0.0
  0
LINE
  5
179
100
AcDbEntity
  8
LAY-1
  6
CONTINUOUS
 62
     2
100
AcDbLine
 10
265.697013
 20
92.545726
 30
0.0
 11
266.40412
 21
91.838619
 31
0.0
  0
LINE
  5
17A
100
AcDbEntity
  8
LAY-1
  6
CONTINUOUS
 62
     2
100
AcDbLine
 10
267.99511
 20
92.722503
 30
0.0
 11
268.878994
 21
91.838619
 31
0.0
  0
LINE
  5
17B
100
AcDbEntity
  8
LAY-1
  6
CONTINUOUS
 62
     2
100
AcDbLine
 10
266.40412
 20
91.838619
 30
0.0
 11
267.288003
 21
92.722503
 31
0.0
  0
LINE
  5
17C
100
AcDbEntity
  8
LAY-1
  6
CONTINUOUS
 62
     2
100
AcDbLine
 10
268.702217
 20
94.136716
 30
0.0
 11
269.5861
 21
95.0206
 31
0.0
  0
LINE
  5
17D
100
AcDbEntity
  8
LAY-1
  6
CONTINUOUS
 62
     2
100
AcDbLine
 10
269.5861
 20
92.545726
 30
0.0
 11
268.702217
 21
93.429609
 31
0.0
  0
LINE
  5
17E
100
AcDbEntity
  8
LAY-1
  6
CONTINUOUS
 62
     2
100
AcDbLine
 10
268.878994
 20
91.838619
 30
0.0
 11
269.5861
 21
92.545726
 31
0.0
  0
LINE
  5
17F
100
AcDbEntity
  8
LAY-1
  6
CONTINUOUS
 62
     2
100
AcDbLine
 10
215.492432
 20
95.727706
 30
0.0
 11
214.785325
 21
95.0206
 31
0.0
  0
LINE
  5
180
100
AcDbEntity
  8
LAY-1
  6
CONTINUOUS
 62
     2
100
AcDbLine
 10
216.376315
 20
94.843823
 30
0.0
 11
215.492432
 21
95.727706
 31
0.0
  0
LINE
  5
181
100
AcDbEntity
  8
LAY-1
  6
CONTINUOUS
 62
     2
100
AcDbLine
 10
217.967305
 20
95.727706
 30
0.0
 11
217.083422
 21
94.843823
 31
0.0
  0
LINE
  5
182
100
AcDbEntity
  8
LAY-1
  6
CONTINUOUS
 62
     2
100
AcDbLine
 10
242.185713
 20
86.239007
 30
0.0
 11
252.185713
 21
86.239007
 31
0.0
  0
LINE
  5
183
100
AcDbEntity
  8
LAY-1
  6
CONTINUOUS
 62
     2
100
AcDbLine
 10
252.185713
 20
86.239007
 30
0.0
 11
252.185713
 21
89.04943
 31
0.0
  0
ARC
  5
184
100
AcDbEntity
  8
LAY-1
  6
CONTINUOUS
 62
     2
100
AcDbCircle
 10
255.185713
 20
89.04943
 30
0.0
 40
3.0
100
AcDbArc
 50
113.297301
 51
180.0
  0
LINE
  5
185
100
AcDbEntity
  8
LAY-1
  6
CONTINUOUS
 62
     2
100
AcDbLine
 10
218.674412
 20
95.0206
 30
0.0
 11
217.967305
 21
95.727706
 31
0.0
  0
ARC
  5
186
100
AcDbEntity
  8
LAY-1
  6
CONTINUOUS
 62
     2
100
AcDbCircle
 10
229.185713
 20
89.04943
 30
0.0
 40
3.0
100
AcDbArc
 50
0.0
 51
66.702699
  0
LINE
  5
187
100
AcDbEntity
  8
LAY-1
  6
CONTINUOUS
 62
     2
100
AcDbLine
 10
242.185713
 20
86.239007
 30
0.0
 11
232.185713
 21
86.239007
 31
0.0
  0
ARC
  5
188
100
AcDbEntity
  8
LAY-1
  6
CONTINUOUS
 62
     2
100
AcDbCircle
 10
242.185713
 20
119.239007
 30
0.0
 40
29.869599
100
AcDbArc
 50
293.297301
 51
246.702699
  0
ARC
  5
189
100
AcDbEntity
  8
LAY-1
  6
CONTINUOUS
 62
     2
100
AcDbCircle
 10
242.185713
 20
119.239007
 30
0.0
 40
28.229077
100
AcDbArc
 50
292.365522
 51
247.634478
  0
LINE
  5
18A
100
AcDbEntity
  8
LAY-1
  6
CONTINUOUS
 62
     2
100
AcDbLine
 10
231.185713
 20
115.239007
 30
0.0
 11
231.185713
 21
122.239007
 31
0.0
  0
LINE
  5
18B
100
AcDbEntity
  8
LAY-1
  6
CONTINUOUS
 62
     2
100
AcDbLine
 10
231.685713
 20
122.739007
 30
0.0
 11
252.685713
 21
122.739007
 31
0.0
  0
LINE
  5
18C
100
AcDbEntity
  8
LAY-1
  6
CONTINUOUS
 62
     2
100
AcDbLine
 10
258.185713
 20
74.239007
 30
0.0
 11
258.185713
 21
87.101161
 31
0.0
  0
LINE
  5
18D
100
AcDbEntity
  8
LAY-1
  6
CONTINUOUS
 62
     2
100
AcDbLine
 10
226.185713
 20
87.101161
 30
0.0
 11
226.185713
 21
74.239007
 31
0.0
  0
LINE
  5
18E
100
AcDbEntity
  8
LAY-1
  6
CONTINUOUS
 62
     2
100
AcDbLine
 10
253.185713
 20
122.239007
 30
0.0
 11
253.185713
 21
115.239007
 31
0.0
  0
ARC
  5
18F
100
AcDbEntity
  8
LAY-1
  6
CONTINUOUS
 62
     2
100
AcDbCircle
 10
253.499421
 20
83.227339
 30
0.0
 40
8.988387
100
AcDbArc
 50
238.575686
 51
301.424314
  0
LINE
  5
190
100
AcDbEntity
  8
LAY-1
  6
CONTINUOUS
 62
     2
100
AcDbLine
 10
248.81313
 20
75.557282
 30
0.0
 11
248.81313
 21
85.739007
 31
0.0
  0
ARC
  5
191
100
AcDbEntity
  8
LAY-1
  6
CONTINUOUS
 62
     2
100
AcDbCircle
 10
230.872004
 20
83.225334
 30
0.0
 40
8.986676
100
AcDbArc
 50
238.569021
 51
301.430979
  0
LINE
  5
192
100
AcDbEntity
  8
LAY-1
  6
CONTINUOUS
 62
     2
100
AcDbLine
 10
268.480824
 20
149.623911
 30
0.0
 11
250.185713
 21
152.739007
 31
0.0
  0
CIRCLE
  5
193
100
AcDbEntity
  8
LAY-1
  6
CONTINUOUS
 62
     2
100
AcDbCircle
 10
216.729869
 20
93.783163
 30
0.0
 40
4.5
  0
LINE
  5
194
100
AcDbEntity
  8
LAY-1
  6
CONTINUOUS
 62
     2
100
AcDbLine
 10
214.785325
 20
92.545726
 30
0.0
 11
215.492432
 21
91.838619
 31
0.0
  0
LINE
  5
195
100
AcDbEntity
  8
LAY-1
  6
CONTINUOUS
 62
     2
100
AcDbLine
 10
235.558296
 20
85.739007
 30
0.0
 11
235.558296
 21
75.557282
 31
0.0
  0
LINE
  5
196
100
AcDbEntity
  8
LAY-1
  6
CONTINUOUS
 62
     2
100
AcDbLine
 10
252.685713
 20
114.739007
 30
0.0
 11
231.685713
 21
114.739007
 31
0.0
  0
ARC
  5
197
100
AcDbEntity
  8
LAY-1
  6
CONTINUOUS
 62
     2
100
AcDbCircle
 10
231.685713
 20
122.239007
 30
0.0
 40
0.5
100
AcDbArc
 50
90.0
 51
180.0
  0
ARC
  5
198
100
AcDbEntity
  8
LAY-1
  6
CONTINUOUS
 62
     2
100
AcDbCircle
 10
231.685713
 20
115.239007
 30
0.0
 40
0.5
100
AcDbArc
 50
180.0
 51
270.0
  0
ARC
  5
199
100
AcDbEntity
  8
LAY-1
  6
CONTINUOUS
 62
     2
100
AcDbCircle
 10
252.685713
 20
115.239007
 30
0.0
 40
0.5
100
AcDbArc
 50
270.0
 51
0.0
  0
ARC
  5
19A
100
AcDbEntity
  8
LAY-1
  6
CONTINUOUS
 62
     2
100
AcDbCircle
 10
267.641557
 20
92.368949
 30
0.0
 40
0.5
100
AcDbArc
 50
45.0
 51
135.0
  0
ARC
  5
19B
100
AcDbEntity
  8
LAY-1
  6
CONTINUOUS
 62
     2
100
AcDbCircle
 10
252.685713
 20
122.239007
 30
0.0
 40
0.5
100
AcDbArc
 50
0.0
 51
90.0
  0
ARC
  5
19C
100
AcDbEntity
  8
LAY-1
  6
CONTINUOUS
 62
     2
100
AcDbCircle
 10
242.185713
 20
41.543181
 30
0.0
 40
51.590276
100
AcDbArc
 50
78.823326
 51
101.176674
  0
CIRCLE
  5
19D
100
AcDbEntity
  8
LAY-1
  6
CONTINUOUS
 62
     2
100
AcDbCircle
 10
242.185713
 20
119.239007
 30
0.0
 40
24.0
  0
LINE
  5
19E
100
AcDbEntity
  8
LAY-1
  6
CONTINUOUS
 62
     2
100
AcDbLine
 10
217.083422
 20
92.722503
 30
0.0
 11
217.967305
 21
91.838619
 31
0.0
  0
LINE
  5
19F
100
AcDbEntity
  8
LAY-1
  6
CONTINUOUS
 62
     2
100
AcDbLine
 10
215.492432
 20
91.838619
 30
0.0
 11
216.376315
 21
92.722503
 31
0.0
  0
LINE
  5
1A0
100
AcDbEntity
  8
LAY-1
  6
CONTINUOUS
 62
     2
100
AcDbLine
 10
217.790529
 20
94.136716
 30
0.0
 11
218.674412
 21
95.0206
 31
0.0
  0
LINE
  5
1A1
100
AcDbEntity
  8
LAY-1
  6
CONTINUOUS
 62
     2
100
AcDbLine
 10
218.674412
 20
92.545726
 30
0.0
 11
217.790529
 21
93.429609
 31
0.0
  0
LINE
  5
1A2
100
AcDbEntity
  8
LAY-1
  6
CONTINUOUS
 62
     2
100
AcDbLine
 10
274.019119
 20
104.239007
 30
0.0
 11
292.685713
 21
104.239007
 31
0.0
  0
LINE
  5
1A3
100
AcDbEntity
  8
LAY-1
  6
CONTINUOUS
 62
     2
100
AcDbLine
 10
217.967305
 20
91.838619
 30
0.0
 11
218.674412
 21
92.545726
 31
0.0
  0
LINE
  5
1A4
100
AcDbEntity
  8
LAY-1
  6
CONTINUOUS
 62
     2
100
AcDbLine
 10
266.40412
 20
95.727706
 30
0.0
 11
265.697013
 21
95.0206
 31
0.0
  0
ARC
  5
1A5
100
AcDbEntity
  8
LAY-1
  6
CONTINUOUS
 62
     2
100
AcDbCircle
 10
267.641557
 20
95.197376
 30
0.0
 40
0.5
100
AcDbArc
 50
225.0
 51
315.0
  0
ARC
  5
1A6
100
AcDbEntity
  8
LAY-1
  6
CONTINUOUS
 62
     2
100
AcDbCircle
 10
269.05577
 20
93.783163
 30
0.0
 40
0.5
100
AcDbArc
 50
135.0
 51
225.0
  0
ARC
  5
1A7
100
AcDbEntity
  8
LAY-1
  6
CONTINUOUS
 62
     2
100
AcDbCircle
 10
242.185713
 20
119.239007
 30
0.0
 40
33.5
100
AcDbArc
 50
353.711634
 51
6.960135
  0
ARC
  5
1A8
100
AcDbEntity
  8
LAY-1
  6
CONTINUOUS
 62
     2
100
AcDbCircle
 10
266.227343
 20
93.783163
 30
0.0
 40
0.5
100
AcDbArc
 50
315.0
 51
45.0
  0
LINE
  5
1A9
100
AcDbEntity
  8
LAY-1
  6
CONTINUOUS
 62
     2
100
AcDbLine
 10
266.580897
 20
93.429609
 30
0.0
 11
265.697013
 21
92.545726
 31
0.0
  0
CIRCLE
  5
1AA
100
AcDbEntity
  8
LAY-1
  6
CONTINUOUS
 62
     2
100
AcDbCircle
 10
267.641557
 20
93.783163
 30
0.0
 40
4.5
  0
ARC
  5
1AB
100
AcDbEntity
  8
LAY-1
  6
CONTINUOUS
 62
     2
100
AcDbCircle
 10
216.729869
 20
144.694851
 30
0.0
 40
5.0
100
AcDbArc
 50
99.663042
 51
179.48571
  0
ARC
  5
1AC
100
AcDbEntity
  8
LAY-1
  6
CONTINUOUS
 62
     2
100
AcDbCircle
 10
267.641557
 20
144.694851
 30
0.0
 40
5.0
100
AcDbArc
 50
8.230842
 51
80.336958
  0
LINE
  5
1AD
100
AcDbEntity
  8
LAY-1
  6
CONTINUOUS
 62
     2
100
AcDbLine
 10
268.480824
 20
88.854103
 30
0.0
 11
250.185713
 21
85.739007
 31
0.0
  0
ARC
  5
1AE
100
AcDbEntity
  8
LAY-1
  6
CONTINUOUS
 62
     2
100
AcDbCircle
 10
216.729869
 20
93.783163
 30
0.0
 40
5.0
100
AcDbArc
 50
180.51429
 51
260.336958
  0
LINE
  5
1AF
100
AcDbEntity
  8
LAY-1
  6
CONTINUOUS
 62
     2
100
AcDbLine
 10
211.793062
 20
92.990734
 30
0.0
 11
209.725591
 21
109.030745
 31
0.0
  0
LINE
  5
1B0
100
AcDbEntity
  8
LAY-1
  6
CONTINUOUS
 62
     2
100
AcDbLine
 10
275.48415
 20
115.569669
 30
0.0
 11
272.546582
 21
92.813253
 31
0.0
  0
LINE
  5
1B1
100
AcDbEntity
  8
LAY-1
  6
CONTINUOUS
 62
     2
100
AcDbLine
 10
215.890601
 20
149.623911
 30
0.0
 11
234.185713
 21
152.739007
 31
0.0
  0
LINE
  5
1B2
100
AcDbEntity
  8
LAY-1
  6
CONTINUOUS
 62
     2
100
AcDbLine
 10
234.185713
 20
152.739007
 30
0.0
 11
250.185713
 21
152.739007
 31
0.0
  0
LINE
  5
1B3
100
AcDbEntity
  8
LAY-1
  6
CONTINUOUS
 62
     2
100
AcDbLine
 10
272.516874
 20
145.804482
 30
0.0
 11
275.438841
 21
123.298494
 31
0.0
  0
ARC
  5
1B4
100
AcDbEntity
  8
LAY-1
  6
CONTINUOUS
 62
     2
100
AcDbCircle
 10
267.641557
 20
93.783163
 30
0.0
 40
5.0
100
AcDbArc
 50
279.663042
 51
351.769158
  0
LINE
  5
1B5
100
AcDbEntity
  8
LAY-1
  6
CONTINUOUS
 62
     2
100
AcDbLine
 10
211.73007
 20
144.739731
 30
0.0
 11
209.73423
 21
129.449064
 31
0.0
  0
LINE
  5
1B6
100
AcDbEntity
  8
LAY-1
  6
CONTINUOUS
 62
     2
100
AcDbLine
 10
215.890601
 20
88.854103
 30
0.0
 11
234.185713
 21
85.739007
 31
0.0
  0
LINE
  5
1B7
100
AcDbEntity
  8
LAY-1
  6
CONTINUOUS
 62
     2
100
AcDbLine
 10
268.878994
 20
146.639395
 30
0.0
 11
269.5861
 21
145.932288
 31
0.0
  0
LINE
  5
1B8
100
AcDbEntity
  8
LAY-1
  6
CONTINUOUS
 62
     2
100
AcDbLine
 10
269.5861
 20
145.932288
 30
0.0
 11
268.702217
 21
145.048404
 31
0.0
  0
LINE
  5
1B9
100
AcDbEntity
  8
LAY-1
  6
CONTINUOUS
 62
     2
100
AcDbLine
 10
268.702217
 20
144.341298
 30
0.0
 11
269.5861
 21
143.457414
 31
0.0
  0
LINE
  5
1BA
100
AcDbEntity
  8
LAY-1
  6
CONTINUOUS
 62
     2
100
AcDbLine
 10
266.40412
 20
146.639395
 30
0.0
 11
267.288003
 21
145.755511
 31
0.0
  0
LINE
  5
1BB
100
AcDbEntity
  8
LAY-1
  6
CONTINUOUS
 62
     2
100
AcDbLine
 10
267.99511
 20
145.755511
 30
0.0
 11
268.878994
 21
146.639395
 31
0.0
  0
LINE
  5
1BC
100
AcDbEntity
  8
LAY-1
  6
CONTINUOUS
 62
     2
100
AcDbLine
 10
265.697013
 20
145.932288
 30
0.0
 11
266.40412
 21
146.639395
 31
0.0
  0
CIRCLE
  5
1BD
100
AcDbEntity
  8
LAY-1
  6
CONTINUOUS
 62
     2
100
AcDbCircle
 10
267.641557
 20
144.694851
 30
0.0
 40
4.5
  0
LINE
  5
1BE
100
AcDbEntity
  8
LAY-1
  6
CONTINUOUS
 62
     2
100
AcDbLine
 10
269.5861
 20
143.457414
 30
0.0
 11
268.878994
 21
142.750307
 31
0.0
  0
LINE
  5
1BF
100
AcDbEntity
  8
LAY-1
  6
CONTINUOUS
 62
     2
100
AcDbLine
 10
268.878994
 20
142.750307
 30
0.0
 11
267.99511
 21
143.634191
 31
0.0
  0
LINE
  5
1C0
100
AcDbEntity
  8
LAY-1
  6
CONTINUOUS
 62
     2
100
AcDbLine
 10
267.288003
 20
143.634191
 30
0.0
 11
266.40412
 21
142.750307
 31
0.0
  0
LINE
  5
1C1
100
AcDbEntity
  8
LAY-1
  6
CONTINUOUS
 62
     2
100
AcDbLine
 10
265.697013
 20
143.457414
 30
0.0
 11
266.580897
 21
144.341298
 31
0.0
  0
LINE
  5
1C2
100
AcDbEntity
  8
LAY-1
  6
CONTINUOUS
 62
     2
100
AcDbLine
 10
266.580897
 20
145.048404
 30
0.0
 11
265.697013
 21
145.932288
 31
0.0
  0
ARC
  5
1C3
100
AcDbEntity
  8
LAY-1
  6
CONTINUOUS
 62
     2
100
AcDbCircle
 10
266.227343
 20
144.694851
 30
0.0
 40
0.5
100
AcDbArc
 50
315.0
 51
45.0
  0
ARC
  5
1C4
100
AcDbEntity
  8
LAY-1
  6
CONTINUOUS
 62
     2
100
AcDbCircle
 10
267.641557
 20
146.109065
 30
0.0
 40
0.5
100
AcDbArc
 50
225.0
 51
315.0
  0
ARC
  5
1C5
100
AcDbEntity
  8
LAY-1
  6
CONTINUOUS
 62
     2
100
AcDbCircle
 10
269.05577
 20
144.694851
 30
0.0
 40
0.5
100
AcDbArc
 50
135.0
 51
225.0
  0
ARC
  5
1C6
100
AcDbEntity
  8
LAY-1
  6
CONTINUOUS
 62
     2
100
AcDbCircle
 10
267.641557
 20
143.280637
 30
0.0
 40
0.5
100
AcDbArc
 50
45.0
 51
135.0
  0
LINE
  5
1C7
100
AcDbEntity
  8
LAY-1
  6
CONTINUOUS
 62
     2
100
AcDbLine
 10
266.40412
 20
142.750307
 30
0.0
 11
265.697013
 21
143.457414
 31
0.0
  0
LINE
  5
1C8
100
AcDbEntity
  8
LAY-1
  6
CONTINUOUS
 62
     2
100
AcDbLine
 10
217.967305
 20
146.639395
 30
0.0
 11
218.674412
 21
145.932288
 31
0.0
  0
LINE
  5
1C9
100
AcDbEntity
  8
LAY-1
  6
CONTINUOUS
 62
     2
100
AcDbLine
 10
218.674412
 20
145.932288
 30
0.0
 11
217.790529
 21
145.048404
 31
0.0
  0
LINE
  5
1CA
100
AcDbEntity
  8
LAY-1
  6
CONTINUOUS
 62
     2
100
AcDbLine
 10
217.790529
 20
144.341298
 30
0.0
 11
218.674412
 21
143.457414
 31
0.0
  0
LINE
  5
1CB
100
AcDbEntity
  8
LAY-1
  6
CONTINUOUS
 62
     2
100
AcDbLine
 10
215.492432
 20
146.639395
 30
0.0
 11
216.376315
 21
145.755511
 31
0.0
  0
LINE
  5
1CC
100
AcDbEntity
  8
LAY-1
  6
CONTINUOUS
 62
     2
100
AcDbLine
 10
210.396032
 20
134.239007
 30
0.0
 11
191.685713
 21
134.239007
 31
0.0
  0
LINE
  5
1CD
100
AcDbEntity
  8
LAY-1
  6
CONTINUOUS
 62
     2
100
AcDbLine
 10
273.967029
 20
134.239007
 30
0.0
 11
292.685713
 21
134.239007
 31
0.0
  0
LINE
  5
1CE
100
AcDbEntity
  8
LAY-1
  6
CONTINUOUS
 62
     2
100
AcDbLine
 10
210.358582
 20
104.239007
 30
0.0
 11
191.685713
 21
104.239007
 31
0.0
  0
LINE
  5
1CF
100
AcDbEntity
  8
LAY-1
  6
CONTINUOUS
 62
     2
100
AcDbLine
 10
217.083422
 20
145.755511
 30
0.0
 11
217.967305
 21
146.639395
 31
0.0
  0
LINE
  5
1D0
100
AcDbEntity
  8
LAY-1
  6
CONTINUOUS
 62
     2
100
AcDbLine
 10
214.785325
 20
145.932288
 30
0.0
 11
215.492432
 21
146.639395
 31
0.0
  0
CIRCLE
  5
1D1
100
AcDbEntity
  8
LAY-1
  6
CONTINUOUS
 62
     2
100
AcDbCircle
 10
216.729869
 20
144.694851
 30
0.0
 40
4.5
  0
LINE
  5
1D2
100
AcDbEntity
  8
LAY-1
  6
CONTINUOUS
 62
     2
100
AcDbLine
 10
218.674412
 20
143.457414
 30
0.0
 11
217.967305
 21
142.750307
 31
0.0
  0
LINE
  5
1D3
100
AcDbEntity
  8
LAY-1
  6
CONTINUOUS
 62
     2
100
AcDbLine
 10
217.967305
 20
142.750307
 30
0.0
 11
217.083422
 21
143.634191
 31
0.0
  0
LINE
  5
1D4
100
AcDbEntity
  8
LAY-1
  6
CONTINUOUS
 62
     2
100
AcDbLine
 10
216.376315
 20
143.634191
 30
0.0
 11
215.492432
 21
142.750307
 31
0.0
  0
LINE
  5
1D5
100
AcDbEntity
  8
LAY-1
  6
CONTINUOUS
 62
     2
100
AcDbLine
 10
214.785325
 20
95.0206
 30
0.0
 11
215.669208
 21
94.136716
 31
0.0
  0
LINE
  5
1D6
100
AcDbEntity
  8
LAY-1
  6
CONTINUOUS
 62
     2
100
AcDbLine
 10
215.669208
 20
93.429609
 30
0.0
 11
214.785325
 21
92.545726
 31
0.0
  0
LINE
  5
1D7
100
AcDbEntity
  8
LAY-1
  6
CONTINUOUS
 62
     2
100
AcDbLine
 10
265.697013
 20
95.0206
 30
0.0
 11
266.580897
 21
94.136716
 31
0.0
  0
LINE
  5
1D8
100
AcDbEntity
  8
LAY-1
  6
CONTINUOUS
 62
     2
100
AcDbLine
 10
267.288003
 20
94.843823
 30
0.0
 11
266.40412
 21
95.727706
 31
0.0
  0
LINE
  5
1D9
100
AcDbEntity
  8
LAY-1
  6
CONTINUOUS
 62
     2
100
AcDbLine
 10
232.185713
 20
86.239007
 30
0.0
 11
232.185713
 21
89.04943
 31
0.0
  0
ARC
  5
1DA
100
AcDbEntity
  8
LAY-1
  6
CONTINUOUS
 62
     2
100
AcDbCircle
 10
215.315655
 20
93.783163
 30
0.0
 40
0.5
100
AcDbArc
 50
315.0
 51
45.0
  0
ARC
  5
1DB
100
AcDbEntity
  8
LAY-1
  6
CONTINUOUS
 62
     2
100
AcDbCircle
 10
216.729869
 20
92.368949
 30
0.0
 40
0.5
100
AcDbArc
 50
45.0
 51
135.0
  0
ARC
  5
1DC
100
AcDbEntity
  8
LAY-1
  6
CONTINUOUS
 62
     2
100
AcDbCircle
 10
218.144082
 20
93.783163
 30
0.0
 40
0.5
100
AcDbArc
 50
135.0
 51
225.0
  0
ARC
  5
1DD
100
AcDbEntity
  8
LAY-1
  6
CONTINUOUS
 62
     2
100
AcDbCircle
 10
216.729869
 20
95.197376
 30
0.0
 40
0.5
100
AcDbArc
 50
225.0
 51
315.0
  0
LINE
  5
1DE
100
AcDbEntity
  8
LAY-1
  6
CONTINUOUS
 62
     2
100
AcDbLine
 10
268.878994
 20
95.727706
 30
0.0
 11
267.99511
 21
94.843823
 31
0.0
  0
LINE
  5
1DF
100
AcDbEntity
  8
LAY-1
  6
CONTINUOUS
 62
     2
100
AcDbLine
 10
269.5861
 20
95.0206
 30
0.0
 11
268.878994
 21
95.727706
 31
0.0
  0
ARC
  5
1E0
100
AcDbEntity
  8
LAY-1
  6
CONTINUOUS
 62
     2
100
AcDbCircle
 10
216.729869
 20
143.280637
 30
0.0
 40
0.5
100
AcDbArc
 50
45.0
 51
135.0
  0
ARC
  5
1E1
100
AcDbEntity
  8
LAY-1
  6
CONTINUOUS
 62
     2
100
AcDbCircle
 10
218.144082
 20
144.694851
 30
0.0
 40
0.5
100
AcDbArc
 50
135.0
 51
225.0
  0
ARC
  5
1E2
100
AcDbEntity
  8
LAY-1
  6
CONTINUOUS
 62
     2
100
AcDbCircle
 10
216.729869
 20
146.109065
 30
0.0
 40
0.5
100
AcDbArc
 50
225.0
 51
315.0
  0
LINE
  5
1E3
100
AcDbEntity
  8
LAY-1
  6
EXLTYPE3
 62
     1
100
AcDbLine
 10
242.185713
 20
155.411726
 30
0.0
 11
242.185713
 21
-105.631965
 31
0.0
  0
LINE
  5
1E4
100
AcDbEntity
  8
LAY-1
  6
EXLTYPE3
 62
     1
100
AcDbLine
 10
286.774265
 20
16.239007
 30
0.0
 11
195.75426
 21
16.239007
 31
0.0
  0
ARC
  5
1E5
100
AcDbEntity
  8
LAY-1
  6
CONTINUOUS
 62
     2
100
AcDbCircle
 10
215.315655
 20
144.694851
 30
0.0
 40
0.5
100
AcDbArc
 50
315.0
 51
45.0
  0
LINE
  5
1E6
100
AcDbEntity
  8
LAY-1
  6
CONTINUOUS
 62
     2
100
AcDbLine
 10
215.669208
 20
145.048404
 30
0.0
 11
214.785325
 21
145.932288
 31
0.0
  0
LINE
  5
1E7
100
AcDbEntity
  8
LAY-1
  6
CONTINUOUS
 62
     2
100
AcDbLine
 10
214.785325
 20
143.457414
 30
0.0
 11
215.669208
 21
144.341298
 31
0.0
  0
LINE
  5
1E8
100
AcDbEntity
  8
LAY-1
  6
CONTINUOUS
 62
     2
100
AcDbLine
 10
215.492432
 20
142.750307
 30
0.0
 11
214.785325
 21
143.457414
 31
0.0
  0
ARC
  5
1E9
100
AcDbEntity
  8
LAY-1
  6
EXLTYPE3
 62
     1
100
AcDbCircle
 10
242.185713
 20
119.239007
 30
0.0
 40
36.0
100
AcDbArc
 50
217.188889
 51
231.763744
  0
LINE
  5
1EA
100
AcDbEntity
  8
LAY-1
  6
EXLTYPE3
 62
     1
100
AcDbLine
 10
214.332964
 20
147.091756
 30
0.0
 11
219.110064
 21
142.314655
 31
0.0
  0
LINE
  5
1EB
100
AcDbEntity
  8
LAY-1
  6
EXLTYPE3
 62
     1
100
AcDbLine
 10
214.204106
 20
91.257401
 30
0.0
 11
219.303984
 21
96.357278
 31
0.0
  0
ARC
  5
1EC
100
AcDbEntity
  8
LAY-1
  6
EXLTYPE3
 62
     1
100
AcDbCircle
 10
242.185713
 20
119.239007
 30
0.0
 40
36.0
100
AcDbArc
 50
307.062815
 51
328.741638
  0
ARC
  5
1ED
100
AcDbEntity
  8
LAY-1
  6
EXLTYPE3
 62
     1
100
AcDbCircle
 10
242.185713
 20
119.239007
 30
0.0
 40
36.0
100
AcDbArc
 50
36.287214
 51
52.937671
  0
ARC
  5
1EE
100
AcDbEntity
  8
LAY-1
  6
EXLTYPE3
 62
     1
100
AcDbCircle
 10
242.185713
 20
119.239007
 30
0.0
 40
36.0
100
AcDbArc
 50
127.660592
 51
148.366696
  0
LINE
  5
1EF
100
AcDbEntity
  8
LAY-1
  6
EXLTYPE3
 62
     1
100
AcDbLine
 10
265.202881
 20
142.256175
 30
0.0
 11
270.044537
 21
147.097831
 31
0.0
  0
LINE
  5
1F0
100
AcDbEntity
  8
LAY-1
  6
EXLTYPE3
 62
     1
100
AcDbLine
 10
259.490849
 20
101.933871
 30
0.0
 11
274.460502
 21
86.946881
 31
0.0
  0
INSERT
  5
1F1
100
AcDbEntity
  8
LAY-1
  6
CONTINUOUS
 62
     0
100
AcDbBlockReference
  2
SYM-1
 10
268.751657
 20
12.339007
 30
0.0
  0
ARC
  5
1F2
100
AcDbEntity
  8
LAY-1
  6
EXLTYPE1
 62
     1
100
AcDbCircle
 10
242.185713
 20
16.239007
 30
0.0
 40
15.889872
100
AcDbArc
 50
23.228021
 51
159.988694
  0
LINE
  5
1F3
100
AcDbEntity
  8
LAY-1
  6
EXLTYPE1
 62
     1
100
AcDbLine
 10
256.787592
 20
22.505835
 30
0.0
 11
255.954112
 21
22.191416
 31
0.0
  0
LINE
  5
1F4
100
AcDbEntity
  8
LAY-1
  6
EXLTYPE1
 62
     1
100
AcDbLine
 10
227.25519
 20
21.676609
 30
0.0
 11
228.054028
 21
21.26847
 31
0.0
  0
LINE
  5
1F5
100
AcDbEntity
  8
LAY-1
  6
CONTINUOUS
 62
     2
100
AcDbLine
 10
233.700431
 20
127.724288
 30
0.0
 11
230.43434
 21
126.747738
 31
0.0
  0
LINE
  5
1F6
100
AcDbEntity
  8
LAY-1
  6
CONTINUOUS
 62
     2
100
AcDbLine
 10
230.872004
 20
130.552715
 30
0.0
 11
230.43434
 21
126.747738
 31
0.0
  0
LINE
  5
1F7
100
AcDbEntity
  8
LAY-1
  6
CONTINUOUS
 62
     2
100
AcDbLine
 10
253.499421
 20
130.552715
 30
0.0
 11
253.937085
 21
126.747738
 31
0.0
  0
LINE
  5
1F8
100
AcDbEntity
  8
LAY-1
  6
CONTINUOUS
 62
     2
100
AcDbLine
 10
250.670994
 20
127.724288
 30
0.0
 11
253.937085
 21
126.747738
 31
0.0
  0
LINE
  5
1F9
100
AcDbEntity
  8
LAY-1
  6
CONTINUOUS
 62
     2
100
AcDbLine
 10
250.670994
 20
127.724288
 30
0.0
 11
251.378101
 21
128.431395
 31
0.0
  0
LINE
  5
1FA
100
AcDbEntity
  8
LAY-1
  6
CONTINUOUS
 62
     2
100
AcDbLine
 10
252.792314
 20
129.845609
 30
0.0
 11
253.499421
 21
130.552715
 31
0.0
  0
LINE
  5
1FB
100
AcDbEntity
  8
LAY-1
  6
CONTINUOUS
 62
     2
100
AcDbLine
 10
231.579111
 20
129.845609
 30
0.0
 11
230.872004
 21
130.552715
 31
0.0
  0
ARC
  5
1FC
100
AcDbEntity
  8
LAY-1
  6
CONTINUOUS
 62
     2
100
AcDbCircle
 10
242.185713
 20
119.239007
 30
0.0
 40
13.0
100
AcDbArc
 50
45.0
 51
135.0
  0
ARC
  5
1FD
100
AcDbEntity
  8
LAY-1
  6
CONTINUOUS
 62
     2
100
AcDbCircle
 10
242.185713
 20
119.239007
 30
0.0
 40
15.0
100
AcDbArc
 50
45.0
 51
135.0
  0
LINE
  5
1FE
100
AcDbEntity
  8
LAY-1
  6
CONTINUOUS
 62
     2
100
AcDbLine
 10
232.993324
 20
128.431395
 30
0.0
 11
233.700431
 21
127.724288
 31
0.0
  0
ARC
  5
1FF
100
AcDbEntity
  8
LAY-1
  6
CONTINUOUS
 62
     2
100
AcDbCircle
 10
199.185713
 20
124.239007
 30
0.0
 40
5.0
100
AcDbArc
 50
90.0
 51
180.0
  0
LINE
  5
200
100
AcDbEntity
  8
LAY-1
  6
CONTINUOUS
 62
     2
100
AcDbLine
 10
199.185713
 20
129.239007
 30
0.0
 11
210.306249
 21
129.239007
 31
0.0
  0
LINE
  5
201
100
AcDbEntity
  8
LAY-1
  6
CONTINUOUS
 62
     2
100
AcDbLine
 10
194.185713
 20
124.239007
 30
0.0
 11
194.185713
 21
114.239007
 31
0.0
  0
ARC
  5
202
100
AcDbEntity
  8
LAY-1
  6
CONTINUOUS
 62
     2
100
AcDbCircle
 10
199.185713
 20
114.239007
 30
0.0
 40
5.0
100
AcDbArc
 50
180.0
 51
270.0
  0
LINE
  5
203
100
AcDbEntity
  8
LAY-1
  6
CONTINUOUS
 62
     2
100
AcDbLine
 10
198.679473
 20
109.239007
 30
0.0
 11
210.306249
 21
109.239007
 31
0.0
  0
ARC
  5
204
100
AcDbEntity
  8
LAY-1
  6
CONTINUOUS
 62
     2
100
AcDbCircle
 10
205.185713
 20
114.239007
 30
0.0
 40
5.0
100
AcDbArc
 50
270.0
 51
0.0
  0
LINE
  5
205
100
AcDbEntity
  8
LAY-1
  6
CONTINUOUS
 62
     2
100
AcDbLine
 10
210.185713
 20
114.239007
 30
0.0
 11
210.185713
 21
124.239007
 31
0.0
  0
ARC
  5
206
100
AcDbEntity
  8
LAY-1
  6
CONTINUOUS
 62
     2
100
AcDbCircle
 10
205.185713
 20
124.239007
 30
0.0
 40
5.0
100
AcDbArc
 50
0.0
 51
90.0
  0
LINE
  5
207
100
AcDbEntity
  8
LAY-1
  6
CONTINUOUS
 62
     2
100
AcDbLine
 10
201.685713
 20
121.239007
 30
0.0
 11
205.685713
 21
121.239007
 31
0.0
  0
LINE
  5
208
100
AcDbEntity
  8
LAY-1
  6
CONTINUOUS
 62
     2
100
AcDbLine
 10
198.685713
 20
119.239007
 30
0.0
 11
201.685713
 21
122.239007
 31
0.0
  0
LINE
  5
209
100
AcDbEntity
  8
LAY-1
  6
CONTINUOUS
 62
     2
100
AcDbLine
 10
201.685713
 20
122.239007
 30
0.0
 11
201.685713
 21
121.239007
 31
0.0
  0
LINE
  5
20A
100
AcDbEntity
  8
LAY-1
  6
CONTINUOUS
 62
     2
100
AcDbLine
 10
205.685713
 20
121.239007
 30
0.0
 11
205.685713
 21
117.239007
 31
0.0
  0
LINE
  5
20B
100
AcDbEntity
  8
LAY-1
  6
CONTINUOUS
 62
     2
100
AcDbLine
 10
205.685713
 20
117.239007
 30
0.0
 11
201.685713
 21
117.239007
 31
0.0
  0
LINE
  5
20C
100
AcDbEntity
  8
LAY-1
  6
CONTINUOUS
 62
     2
100
AcDbLine
 10
201.685713
 20
117.239007
 30
0.0
 11
201.685713
 21
116.239007
 31
0.0
  0
LINE
  5
20D
100
AcDbEntity
  8
LAY-1
  6
CONTINUOUS
 62
     2
100
AcDbLine
 10
201.685713
 20
116.239007
 30
0.0
 11
198.685713
 21
119.239007
 31
0.0
  0
ARC
  5
20E
100
AcDbEntity
  8
LAY-1
  6
CONTINUOUS
 62
     2
100
AcDbCircle
 10
210.306249
 20
99.239007
 30
0.0
 40
10.0
100
AcDbArc
 50
66.087509
 51
90.0
  0
ARC
  5
20F
100
AcDbEntity
  8
LAY-1
  6
CONTINUOUS
 62
     2
100
AcDbCircle
 10
210.306249
 20
139.239007
 30
0.0
 40
10.0
100
AcDbArc
 50
270.0
 51
293.912491
  0
LINE
  5
210
100
AcDbEntity
  8
LAY-1
  6
CONTINUOUS
 62
     2
100
AcDbLine
 10
234.685713
 20
114.739007
 30
0.0
 11
234.685713
 21
100.239007
 31
0.0
  0
ARC
  5
211
100
AcDbEntity
  8
LAY-1
  6
CONTINUOUS
 62
     2
100
AcDbCircle
 10
235.185713
 20
100.239007
 30
0.0
 40
0.5
100
AcDbArc
 50
180.0
 51
270.0
  0
LINE
  5
212
100
AcDbEntity
  8
LAY-1
  6
CONTINUOUS
 62
     2
100
AcDbLine
 10
235.185713
 20
99.739007
 30
0.0
 11
249.185713
 21
99.739007
 31
0.0
  0
ARC
  5
213
100
AcDbEntity
  8
LAY-1
  6
CONTINUOUS
 62
     2
100
AcDbCircle
 10
249.185713
 20
100.239007
 30
0.0
 40
0.5
100
AcDbArc
 50
270.0
 51
0.0
  0
LINE
  5
214
100
AcDbEntity
  8
LAY-1
  6
CONTINUOUS
 62
     2
100
AcDbLine
 10
249.685713
 20
114.739007
 30
0.0
 11
249.685713
 21
100.239007
 31
0.0
  0
TEXT
  5
215
100
AcDbEntity
  8
LAY-1
  6
CONTINUOUS
 62
     3
100
AcDbText
 10
377.476
 20
-193.216
 30
0.0
 40
8.0
  1
型式
 41
0.984714
  7
EXCADSTD
 72
     5
 11
394.668162
 21
-193.216
 31
0.0
100
AcDbText
  0
TEXT
  5
216
100
AcDbEntity
  8
LAY-1
  6
CONTINUOUS
 62
     3
100
AcDbText
 10
377.284
 20
-204.48
 30
0.0
 40
8.0
  1
品名
 41
0.984714
  7
EXCADSTD
 72
     5
 11
394.476162
 21
-204.48
 31
0.0
100
AcDbText
  0
LINE
  5
217
100
AcDbEntity
  8
LAY-1
  6
CONTINUOUS
 62
     4
100
AcDbLine
 10
373.7
 20
-215.84
 30
0.0
 11
517.06
 21
-215.84
 31
0.0
  0
LINE
  5
218
100
AcDbEntity
  8
LAY-1
  6
CONTINUOUS
 62
     1
100
AcDbLine
 10
373.7
 20
-206.08
 30
0.0
 11
517.06
 21
-206.08
 31
0.0
  0
TEXT
  5
219
100
AcDbEntity
  8
LAY-1
  6
CONTINUOUS
 62
     3
100
AcDbText
 10
424.644
 20
-214.784
 30
0.0
 40
8.0
  1
外観図
 41
1.47392
  7
EXCADSTD
 72
     5
 11
466.756
 21
-214.784
 31
0.0
100
AcDbText
  0
LINE
  5
21A
100
AcDbEntity
  8
LAY-1
  6
CONTINUOUS
 62
     4
100
AcDbLine
 10
373.7
 20
-172.48
 30
0.0
 11
517.06
 21
-172.48
 31
0.0
  0
LINE
  5
21B
100
AcDbEntity
  8
LAY-1
  6
CONTINUOUS
 62
     1
100
AcDbLine
 10
373.7
 20
-194.88
 30
0.0
 11
517.06
 21
-194.88
 31
0.0
  0
LINE
  5
21C
100
AcDbEntity
  8
LAY-1
  6
CONTINUOUS
 62
     1
100
AcDbLine
 10
373.7
 20
-183.68
 30
0.0
 11
517.06
 21
-183.68
 31
0.0
  0
LINE
  5
21D
100
AcDbEntity
  8
LAY-1
  6
CONTINUOUS
 62
     1
100
AcDbLine
 10
397.7
 20
-172.48
 30
0.0
 11
397.7
 21
-206.08
 31
0.0
  0
LINE
  5
21E
100
AcDbEntity
  8
LAY-1
  6
CONTINUOUS
 62
     4
100
AcDbLine
 10
373.7
 20
-225.6
 30
0.0
 11
517.06
 21
-225.6
 31
0.0
  0
LINE
  5
21F
100
AcDbEntity
  8
LAY-1
  6
CONTINUOUS
 62
     4
100
AcDbLine
 10
517.06
 20
-225.6
 30
0.0
 11
517.06
 21
-172.48
 31
0.0
  0
LINE
  5
220
100
AcDbEntity
  8
LAY-1
  6
CONTINUOUS
 62
     4
100
AcDbLine
 10
373.7
 20
-225.6
 30
0.0
 11
373.7
 21
-172.48
 31
0.0
  0
TEXT
  5
221
100
AcDbEntity
  8
LAY-1
  6
CONTINUOUS
 62
     3
100
AcDbText
 10
374.724
 20
-182.272
 30
0.0
 40
8.0
  1
作成日
 41
0.84
  7
EXCADSTD
 72
     5
 11
398.724
 21
-182.272
 31
0.0
100
AcDbText
  0
HATCH
  5
222
100
AcDbEntity
  8
LAY-1
  6
CONTINUOUS
 62
     3
100
AcDbHatch
 10
0.0
 20
0.0
 30
0.0
210
0.0
220
0.0
230
1.0
  2
SOLID
 70
     1
 71
     1
 91
        1
 92
        1
 93
       16
 72
     1
 10
474.60395974449773
 20
-223.16165714285739
 11
476.11853117306919
 21
-223.16165714285739
 72
     1
 10
476.11853117306919
 20
-223.16165714285739
 11
476.11853117306919
 21
-224.13880000000017
 72
     1
 10
476.11853117306919
 20
-224.13880000000017
 11
472.0633883159262
 21
-224.13880000000017
 72
     1
 10
472.0633883159262
 20
-224.13880000000017
 11
472.0633883159262
 21
-223.16165714285739
 72
     1
 10
472.0633883159262
 20
-223.16165714285739
 11
473.62681688735483
 21
-223.16165714285739
 72
     1
 10
473.62681688735483
 20
-223.16165714285739
 11
473.62681688735483
 21
-220.32794285714306
 72
     1
 10
473.62681688735483
 20
-220.32794285714306
 11
472.4053883159263
 21
-220.32794285714306
 72
     1
 10
472.4053883159263
 20
-220.32794285714306
 11
472.4053883159263
 21
-219.35080000000016
 72
     1
 10
472.4053883159263
 20
-219.35080000000016
 11
473.62681688735483
 21
-219.35080000000016
 72
     1
 10
473.62681688735483
 20
-219.35080000000016
 11
473.62681688735483
 21
-217.29880000000014
 72
     1
 10
473.62681688735483
 20
-217.29880000000014
 11
474.60395974449773
 21
-217.29880000000014
 72
     1
 10
474.60395974449773
 20
-217.29880000000014
 11
474.60395974449773
 21
-219.35080000000016
 72
     1
 10
474.60395974449773
 20
-219.35080000000016
 11
476.02081688735484
 21
-219.35080000000016
 72
     1
 10
476.02081688735484
 20
-219.35080000000016
 11
476.02081688735484
 21
-220.32794285714306
 72
     1
 10
476.02081688735484
 20
-220.32794285714306
 11
474.60395974449773
 21
-220.32794285714306
 72
     1
 10
474.60395974449773
 20
-220.32794285714306
 11
474.60395974449773
 21
-223.16165714285739
 97
        0
 75
     0
 76
     1
 98
        1
 10
0.0
 20
0.0
  0
HATCH
  5
223
100
AcDbEntity
  8
LAY-1
  6
CONTINUOUS
 62
     3
100
AcDbHatch
 10
0.0
 20
0.0
 30
0.0
210
0.0
220
0.0
230
1.0
  2
SOLID
 70
     1
 71
     1
 91
        1
 92
        1
 93
       17
 72
     2
 10
464.33812055354724
 20
-215.4023492830562
 40
8.7942857142857456
 50
44.165469
 51
51.472792
 73
     0
 72
     1
 10
469.8159597444976
 20
-222.28222857142873
 11
469.32123089819947
 21
-221.42533307367023
 72
     2
 10
464.33812055354724
 20
-215.4023492830562
 40
7.8171428571428834
 50
309.602625
 51
331.307968
 73
     1
 72
     1
 10
471.19541938211307
 20
-219.15537142857158
 11
469.57167403021197
 21
-219.15537142857158
 72
     1
 10
469.57167403021197
 20
-219.15537142857158
 11
469.57167403021197
 21
-218.27594285714304
 72
     1
 10
469.57167403021197
 20
-218.27594285714304
 11
470.64653117306921
 21
-218.27594285714304
 72
     1
 10
470.64653117306921
 20
-218.27594285714304
 11
470.64653117306921
 21
-217.29880000000014
 72
     1
 10
470.64653117306921
 20
-217.29880000000014
 11
471.52595974449775
 21
-217.29880000000014
 72
     1
 10
471.52595974449775
 20
-217.29880000000014
 11
471.52595974449775
 21
-218.27594285714304
 72
     1
 10
471.52595974449775
 20
-218.27594285714304
 11
472.64967403021194
 21
-218.27594285714304
 72
     2
 10
464.33812055354724
 20
-215.4023492830562
 40
8.7942857142857456
 50
19.072051
 51
32.871988
 73
     0
 72
     1
 10
471.72431204028135
 20
-220.17557005584536
 11
472.89395974449758
 21
-221.30508571428595
 72
     1
 10
472.89395974449758
 20
-221.30508571428595
 11
472.20291015382418
 21
-221.99613530495947
 72
     1
 10
472.20291015382418
 20
-221.99613530495947
 11
471.52595974449775
 21
-221.34241189357192
 72
     1
 10
471.52595974449775
 20
-221.34241189357192
 11
471.52595974449775
 21
-224.13880000000017
 72
     1
 10
471.52595974449775
 20
-224.13880000000017
 11
470.64653117306921
 21
-224.13880000000017
 72
     1
 10
470.64653117306921
 20
-224.13880000000017
 11
470.64653117306921
 21
-221.5296175716162
 97
        0
 75
     0
 76
     1
 98
        1
 10
0.0
 20
0.0
  0
HATCH
  5
224
100
AcDbEntity
  8
LAY-1
  6
CONTINUOUS
 62
     3
100
AcDbHatch
 10
0.0
 20
0.0
 30
0.0
210
0.0
220
0.0
230
1.0
  2
SOLID
 70
     1
 71
     1
 91
        1
 92
        1
 93
       12
 72
     2
 10
476.69616265541322
 20
-228.59131548804919
 40
13.777714285714332
 50
150.903074
 51
156.790773
 73
     1
 72
     1
 10
464.0334527877244
 20
-223.16165714285739
 11
467.04184989282953
 21
-223.16165714285728
 72
     2
 10
458.49616198700528
 20
-225.61907086794474
 40
8.8920000000000297
 50
16.043216
 51
21.362935
 73
     1
 72
     1
 10
466.77720743607983
 20
-222.37994285714308
 11
467.71510260164041
 21
-222.37994285714308
 72
     2
 10
458.49616198700528
 20
-225.61907086794474
 40
9.7714285714286042
 50
340.64078
 51
351.286733
 73
     0
 72
     1
 10
468.15481688735474
 20
-224.13880000000017
 11
462.73167403021193
 21
-224.13880000000017
 72
     2
 10
476.69616265541322
 20
-228.59131548804919
 40
14.657142857142905
 50
197.684652
 51
207.200855
 73
     0
 72
     1
 10
463.65995974449766
 20
-221.89137142857157
 11
462.29195974449772
 21
-221.89137142857157
 72
     1
 10
462.29195974449772
 20
-221.89137142857157
 11
462.29195974449772
 21
-220.91422857142879
 72
     1
 10
462.29195974449772
 20
-220.91422857142879
 11
468.54567403021201
 21
-220.91422857142879
 72
     1
 10
468.54567403021201
 20
-220.91422857142879
 11
468.54567403021201
 21
-221.89137142857157
 72
     1
 10
468.54567403021201
 20
-221.89137142857157
 11
464.65721915780318
 21
-221.89137142857157
 97
        0
 75
     0
 76
     1
 98
        1
 10
0.0
 20
0.0
  0
HATCH
  5
225
100
AcDbEntity
  8
LAY-1
  6
CONTINUOUS
 62
     3
100
AcDbHatch
 10
0.0
 20
0.0
 30
0.0
210
0.0
220
0.0
230
1.0
  2
SOLID
 70
     1
 71
     1
 91
        1
 92
        1
 93
       10
 72
     2
 10
476.7547670784943
 20
-207.44150773913634
 40
15.634285714285767
 50
129.545698
 51
136.474664
 73
     0
 72
     1
 10
465.41881688735521
 20
-218.20845359485293
 11
465.41881688735521
 21
-217.29880000000014
 72
     1
 10
465.41881688735521
 20
-217.29880000000014
 11
465.90738831592637
 21
-217.29880000000014
 72
     2
 10
476.7547670784943
 20
-207.44150773913634
 40
14.657142857142905
 50
222.262231
 51
237.763996
 73
     1
 72
     1
 10
468.93653117306917
 20
-219.83937142857155
 11
468.3029926122731
 21
-220.59439328444739
 72
     2
 10
476.7547670784943
 20
-207.44150773913634
 40
15.634285714285767
 50
122.723968
 51
128.230009
 73
     0
 72
     1
 10
467.07995974449773
 20
-219.72275331301717
 11
467.07995974449773
 21
-220.47451428571446
 72
     1
 10
467.07995974449773
 20
-220.47451428571446
 11
465.41881688735521
 21
-220.47451428571446
 72
     1
 10
465.41881688735521
 20
-220.47451428571446
 11
465.41881688735521
 21
-219.49737142857157
 72
     1
 10
465.41881688735521
 20
-219.49737142857157
 11
466.80051971881528
 21
-219.49737142857157
 97
        0
 75
     0
 76
     1
 98
        1
 10
0.0
 20
0.0
  0
HATCH
  5
226
100
AcDbEntity
  8
LAY-1
  6
CONTINUOUS
 62
     3
100
AcDbHatch
 10
0.0
 20
0.0
 30
0.0
210
0.0
220
0.0
230
1.0
  2
SOLID
 70
     1
 71
     1
 91
        1
 92
        1
 93
       10
 72
     2
 10
454.08286669621543
 20
-207.44150773913634
 40
15.634285714285767
 50
51.769991
 51
57.276032
 73
     0
 72
     1
 10
462.53464116243663
 20
-220.59439328444739
 11
461.90110260164056
 21
-219.83937142857167
 72
     2
 10
454.08286669621543
 20
-207.44150773913634
 40
14.657142857142905
 50
302.236004
 51
317.737769
 73
     1
 72
     1
 10
464.93024545878336
 20
-217.29880000000014
 11
465.41881688735521
 21
-217.29880000000014
 72
     1
 10
465.41881688735521
 20
-217.29880000000014
 11
465.41881688735521
 21
-218.20845359485236
 72
     2
 10
454.08286669621543
 20
-207.44150773913634
 40
15.634285714285767
 50
43.525336
 51
50.454302
 73
     0
 72
     1
 10
464.03711405589445
 20
-219.49737142857157
 11
465.41881688735521
 21
-219.49737142857157
 72
     1
 10
465.41881688735521
 20
-219.49737142857157
 11
465.41881688735521
 21
-220.47451428571446
 72
     1
 10
465.41881688735521
 20
-220.47451428571446
 11
463.757674030212
 21
-220.47451428571446
 72
     1
 10
463.757674030212
 20
-220.47451428571446
 11
463.757674030212
 21
-219.72275331301717
 97
        0
 75
     0
 76
     1
 98
        1
 10
0.0
 20
0.0
  0
HATCH
  5
227
100
AcDbEntity
  8
LAY-1
  6
CONTINUOUS
 62
     3
100
AcDbHatch
 10
0.0
 20
0.0
 30
0.0
210
0.0
220
0.0
230
1.0
  2
SOLID
 70
     1
 71
     1
 91
        1
 92
        1
 93
       18
 72
     2
 10
446.89120928368266
 20
-221.68999168411858
 40
13.680000000000044
 50
14.02954
 51
18.723021
 73
     1
 72
     1
 10
459.84728259288136
 20
-217.29880000000014
 11
460.87510260164049
 21
-217.29880000000014
 72
     2
 10
446.89120928368266
 20
-221.68999168411858
 40
14.657142857142905
 50
342.566782
 51
346.922981
 73
     0
 72
     1
 10
461.1682454587833
 20
-218.37365714285727
 11
461.55910260164046
 21
-218.37365714285727
 72
     1
 10
461.55910260164046
 20
-218.37365714285727
 11
461.55910260164046
 21
-219.35080000000016
 72
     1
 10
461.55910260164046
 20
-219.35080000000016
 11
459.7322883393806
 21
-219.35080000000016
 72
     2
 10
469.86481688735478
 20
-217.73851428571447
 40
10.260000000000035
 50
189.041096
 51
204.65198
 73
     1
 72
     2
 10
462.58346839901515
 20
-221.08016970716142
 40
2.2484647685769925
 50
204.65198
 51
242.897449
 73
     1
 72
     1
 10
461.55910260164046
 20
-223.0817362258415
 11
461.55910260164046
 21
-224.13880000000017
 72
     2
 10
462.58346839901515
 20
-221.08016970716142
 40
3.2256076257198525
 50
108.516212
 51
155.34802
 73
     0
 72
     2
 10
469.86481688735478
 20
-217.73851428571447
 40
11.237142857142892
 50
155.34802
 51
171.750831
 73
     0
 72
     1
 10
458.74393947739532
 20
-219.35080000000016
 11
455.01224545878335
 21
-219.35080000000016
 72
     1
 10
455.01224545878335
 20
-219.35080000000016
 11
455.01224545878335
 21
-218.37365714285727
 72
     1
 10
455.01224545878335
 20
-218.37365714285727
 11
458.64300417115692
 21
-218.37365714285727
 72
     1
 10
458.64300417115692
 20
-218.37365714285727
 11
458.60546933263458
 21
-217.29880000000014
 72
     1
 10
458.60546933263458
 20
-217.29880000000014
 11
459.58320780163513
 21
-217.29880000000014
 72
     1
 10
459.58320780163513
 20
-217.29880000000014
 11
459.62074264015746
 21
-218.37365714285727
 72
     1
 10
459.62074264015746
 20
-218.37365714285727
 11
460.16314679146353
 21
-218.37365714285727
 97
        0
 75
     0
 76
     1
 98
        1
 10
0.0
 20
0.0
  0
HATCH
  5
228
100
AcDbEntity
  8
LAY-1
  6
CONTINUOUS
 62
     3
100
AcDbHatch
 10
0.0
 20
0.0
 30
0.0
210
0.0
220
0.0
230
1.0
  2
SOLID
 70
     1
 71
     1
 91
        1
 92
        1
 93
       12
 72
     2
 10
451.93666749479371
 20
-175.08541485110186
 40
47.880000000000159
 50
276.500664
 51
278.269357
 73
     1
 72
     1
 10
458.82310260164058
 20
-222.46759938832224
 11
458.82310260164058
 21
-223.4548000000002
 72
     2
 10
451.93666749479371
 20
-175.08541485110186
 40
48.857142857143018
 50
81.897153
 51
86.39082
 73
     0
 72
     1
 10
455.01224545878335
 20
-223.84565714285736
 11
455.01224545878335
 21
-222.8665326717163
 72
     2
 10
451.93666749479371
 20
-175.08541485110186
 40
47.880000000000159
 50
273.682937
 51
275.325087
 73
     1
 72
     1
 10
456.38024545878341
 20
-222.75877234643633
 11
456.38024545878341
 21
-221.20737142857161
 72
     1
 10
456.38024545878341
 20
-221.20737142857161
 11
455.01224545878335
 21
-221.20737142857161
 72
     1
 10
455.01224545878335
 20
-221.20737142857161
 11
455.01224545878335
 21
-220.23022857142882
 72
     1
 10
455.01224545878335
 20
-220.23022857142882
 11
458.52995974449777
 21
-220.23022857142882
 72
     1
 10
458.52995974449777
 20
-220.23022857142882
 11
458.52995974449777
 21
-221.20737142857161
 72
     1
 10
458.52995974449777
 20
-221.20737142857161
 11
457.3573883159263
 21
-221.20737142857161
 72
     1
 10
457.3573883159263
 20
-221.20737142857161
 11
457.3573883159263
 21
-222.65757252530614
 97
        0
 75
     0
 76
     1
 98
        1
 10
0.0
 20
0.0
  0
HATCH
  5
229
100
AcDbEntity
  8
LAY-1
  6
CONTINUOUS
 62
     3
100
AcDbHatch
 10
0.0
 20
0.0
 30
0.0
210
0.0
220
0.0
230
1.0
  2
SOLID
 70
     1
 71
     1
 91
        1
 92
        1
 93
       30
 72
     2
 10
443.10506632581109
 20
-215.73650435296929
 40
10.69971428571432
 50
37.940537
 51
46.713808
 73
     0
 72
     1
 10
450.44124997364202
 20
-223.52523308628747
 11
449.78453117306913
 21
-222.86851428571447
 72
     2
 10
443.10506632581109
 20
-215.73650435296929
 40
9.7714285714286095
 50
313.123325
 51
325.95222
 73
     1
 72
     1
 10
451.20138831592612
 20
-221.20737142857161
 11
450.02881688735488
 21
-221.20737142857161
 72
     1
 10
450.02881688735488
 20
-221.20737142857161
 11
450.02881688735488
 21
-220.23022857142871
 72
     1
 10
450.02881688735488
 20
-220.23022857142871
 11
451.54338831592622
 21
-220.23022857142871
 72
     1
 10
451.54338831592622
 20
-220.23022857142871
 11
451.54338831592622
 21
-219.25308571428593
 72
     1
 10
451.54338831592622
 20
-219.25308571428593
 11
451.05620544274939
 21
-219.25308571428593
 72
     2
 10
440.60781454208836
 20
-217.18623171253967
 40
10.650857142857182
 50
11.189535
 51
14.746058
 73
     0
 72
     1
 10
450.90786923012752
 20
-219.89725205568595
 11
450.07767403021194
 21
-219.59508571428591
 72
     2
 10
440.60781454208836
 20
-217.18623171253967
 40
9.7714285714286095
 50
345.728313
 51
357.620387
 73
     1
 72
     1
 10
450.37081688735486
 20
-217.59194285714011
 11
451.24395708208215
 21
-217.74590103141156
 72
     2
 10
440.60781454208836
 20
-217.18623171253967
 40
10.650857142857182
 50
3.012102
 51
6.401006
 73
     0
 72
     1
 10
451.19227384452734
 20
-218.37365714285727
 11
451.54338831592622
 21
-218.37365714285727
 72
     1
 10
451.54338831592622
 20
-218.37365714285727
 11
451.54338831592622
 21
-217.29880000000014
 72
     1
 10
451.54338831592622
 20
-217.29880000000014
 11
452.52053117306912
 21
-217.29880000000014
 72
     1
 10
452.52053117306912
 20
-217.29880000000014
 11
452.52053117306912
 21
-218.37365714285727
 72
     1
 10
452.52053117306912
 20
-218.37365714285727
 11
453.839674030212
 21
-218.37365714285727
 72
     1
 10
453.839674030212
 20
-218.37365714285727
 11
453.839674030212
 21
-219.25308571428593
 72
     1
 10
453.839674030212
 20
-219.25308571428593
 11
452.52053117306912
 21
-219.25308571428593
 72
     1
 10
452.52053117306912
 20
-219.25308571428593
 11
452.52053117306912
 21
-220.23022857142871
 72
     1
 10
452.52053117306912
 20
-220.23022857142871
 11
454.03510260164057
 21
-220.23022857142871
 72
     1
 10
454.03510260164057
 20
-220.23022857142871
 11
454.03510260164057
 21
-221.20737142857161
 72
     1
 10
454.03510260164057
 20
-221.20737142857161
 11
452.8625311730691
 21
-221.20737142857161
 72
     2
 10
460.95885316318413
 20
-215.73650435296929
 40
9.7714285714286095
 50
214.04778
 51
226.876675
 73
     1
 72
     1
 10
454.2793883159261
 20
-222.86851428571447
 11
453.6226695153531
 21
-223.52523308628747
 72
     2
 10
460.95885316318413
 20
-215.73650435296929
 40
10.69971428571432
 50
133.286192
 51
142.059463
 73
     0
 72
     1
 10
452.52053117306912
 20
-222.31515222217922
 11
452.52053117306912
 21
-224.13880000000017
 72
     1
 10
452.52053117306912
 20
-224.13880000000017
 11
451.54338831592622
 21
-224.13880000000017
 72
     1
 10
451.54338831592622
 20
-224.13880000000017
 11
451.54338831592622
 21
-222.31515222217888
 97
        0
 75
     0
 76
     1
 98
        1
 10
0.0
 20
0.0
  0
HATCH
  5
22A
100
AcDbEntity
  8
LAY-1
  6
CONTINUOUS
 62
     3
100
AcDbHatch
 10
0.0
 20
0.0
 30
0.0
210
0.0
220
0.0
230
1.0
  2
SOLID
 70
     1
 71
     1
 91
        1
 92
        1
 93
       19
 72
     2
 10
439.08261323627084
 20
-217.04065232392372
 40
10.650857142857179
 50
27.683433
 51
32.280505
 73
     0
 72
     1
 10
448.08731223489542
 20
-222.72889931414147
 11
447.39053117306912
 21
-222.1845142857145
 72
     2
 10
439.08261323627084
 20
-217.04065232392372
 40
9.7714285714286042
 50
328.236207
 51
344.845745
 73
     1
 72
     1
 10
448.51424545878331
 20
-219.59508571428591
 11
447.63481688735487
 21
-219.59508571428591
 72
     1
 10
447.63481688735487
 20
-219.59508571428591
 11
447.63481688735487
 21
-218.61794285714302
 72
     1
 10
447.63481688735487
 20
-218.61794285714302
 11
448.51424545878342
 21
-218.61794285714302
 72
     1
 10
448.51424545878342
 20
-218.61794285714302
 11
448.51424545878342
 21
-217.29880000000014
 72
     1
 10
448.51424545878342
 20
-217.29880000000014
 11
449.49138831592632
 21
-217.29880000000014
 72
     1
 10
449.49138831592632
 20
-217.29880000000014
 11
449.49138831592632
 21
-218.61794285714302
 72
     1
 10
449.49138831592632
 20
-218.61794285714302
 11
449.93110260164053
 21
-218.61794285714302
 72
     1
 10
449.93110260164053
 20
-218.61794285714302
 11
449.93110260164053
 21
-219.59508571428591
 72
     1
 10
449.93110260164053
 20
-219.59508571428591
 11
449.4913883159262
 21
-219.59508571428591
 72
     1
 10
449.4913883159262
 20
-219.59508571428591
 11
450.02881688735488
 21
-220.36261325733801
 72
     1
 10
450.02881688735488
 20
-220.36261325733801
 11
450.02881688735488
 21
-220.95748508359509
 72
     1
 10
450.02881688735488
 20
-220.95748508359509
 11
449.73567403021184
 21
-221.30683913673852
 72
     1
 10
449.73567403021184
 20
-221.30683913673852
 11
449.49138831592632
 21
-220.95796298080586
 72
     1
 10
449.49138831592632
 20
-220.95796298080586
 11
449.49138831592632
 21
-224.13880000000017
 72
     1
 10
449.49138831592632
 20
-224.13880000000017
 11
448.51424545878342
 21
-224.13880000000017
 72
     1
 10
448.51424545878342
 20
-224.13880000000017
 11
448.51424545878342
 21
-221.9888915558945
 97
        0
 75
     0
 76
     1
 98
        1
 10
0.0
 20
0.0
  0
HATCH
  5
22B
100
AcDbEntity
  8
LAY-1
  6
CONTINUOUS
 62
     3
100
AcDbHatch
 10
0.0
 20
0.0
 30
0.0
210
0.0
220
0.0
230
1.0
  2
SOLID
 70
     1
 71
     1
 91
        1
 92
        1
 93
        8
 72
     2
 10
443.18671997810338
 20
-221.2660000000003
 40
1.9152000000000156
 50
270.0
 51
330.0
 73
     1
 72
     2
 10
442.23894177620173
 20
-220.71880000000033
 40
3.0096000000000145
 50
330.0
 51
30.0
 73
     1
 72
     2
 10
443.18671997810338
 20
-220.17160000000035
 40
1.9152000000000144
 50
30.0
 51
90.0
 73
     1
 72
     1
 10
443.18671997810395
 20
-218.25640000000033
 11
443.18671997810395
 21
-217.16200000000015
 72
     2
 10
443.18671997810338
 20
-220.17160000000013
 40
3.0096000000000096
 50
270.0
 51
330.0
 73
     0
 72
     2
 10
442.23894177620184
 20
-220.7188000000001
 40
4.1040000000000187
 50
330.0
 51
30.0
 73
     0
 72
     2
 10
443.1867199781035
 20
-221.26600000000042
 40
3.009600000000006
 50
30.0
 51
90.0
 73
     0
 72
     1
 10
443.18671997810395
 20
-224.27560000000051
 11
443.18671997810395
 21
-223.18120000000033
 97
        0
 75
     0
 76
     1
 98
        1
 10
0.0
 20
0.0
  0
HATCH
  5
22C
100
AcDbEntity
  8
LAY-1
  6
CONTINUOUS
 62
     3
100
AcDbHatch
 10
0.0
 20
0.0
 30
0.0
210
0.0
220
0.0
230
1.0
  2
SOLID
 70
     1
 71
     1
 91
        1
 92
        1
 93
        8
 72
     2
 10
443.1867199781035
 20
-221.26600000000042
 40
3.009600000000006
 50
90.0
 51
150.0
 73
     0
 72
     2
 10
444.13449818000504
 20
-220.71880000000033
 40
4.1040000000000223
 50
150.0
 51
210.0
 73
     0
 72
     2
 10
443.18671997810338
 20
-220.17160000000013
 40
3.0096000000000096
 50
210.0
 51
270.0
 73
     0
 72
     1
 10
443.18671997810395
 20
-217.16200000000015
 11
443.18671997810395
 21
-218.25640000000033
 72
     2
 10
443.18671997810338
 20
-220.17160000000035
 40
1.9152000000000144
 50
90.0
 51
150.0
 73
     1
 72
     2
 10
444.13449818000504
 20
-220.71880000000033
 40
3.0096000000000158
 50
150.0
 51
210.0
 73
     1
 72
     2
 10
443.18671997810338
 20
-221.2660000000003
 40
1.9152000000000156
 50
210.0
 51
270.0
 73
     1
 72
     1
 10
443.18671997810395
 20
-223.18120000000033
 11
443.18671997810395
 21
-224.27560000000051
 97
        0
 75
     0
 76
     1
 98
        1
 10
0.0
 20
0.0
  0
HATCH
  5
22D
100
AcDbEntity
  8
LAY-1
  6
CONTINUOUS
 62
     3
100
AcDbHatch
 10
0.0
 20
0.0
 30
0.0
210
0.0
220
0.0
230
1.0
  2
SOLID
 70
     1
 71
     1
 91
        1
 92
        1
 93
        4
 72
     1
 10
438.94591997810335
 20
-221.95000000000039
 11
437.8515199781034
 21
-221.95000000000039
 72
     1
 10
437.8515199781034
 20
-221.95000000000039
 11
437.8515199781034
 21
-220.85560000000032
 72
     1
 10
437.8515199781034
 20
-220.85560000000032
 11
438.94591997810335
 21
-220.85560000000032
 72
     1
 10
438.94591997810335
 20
-220.85560000000032
 11
438.94591997810335
 21
-221.95000000000039
 97
        0
 75
     0
 76
     1
 98
        1
 10
0.0
 20
0.0
  0
HATCH
  5
22E
100
AcDbEntity
  8
LAY-1
  6
CONTINUOUS
 62
     3
100
AcDbHatch
 10
0.0
 20
0.0
 30
0.0
210
0.0
220
0.0
230
1.0
  2
SOLID
 70
     1
 71
     1
 91
        1
 92
        1
 93
       16
 72
     1
 10
433.74751997810336
 20
-218.39320000000032
 11
432.24271997810342
 21
-218.39320000000032
 72
     1
 10
432.24271997810342
 20
-218.39320000000032
 11
431.96911997810344
 21
-219.89800000000037
 72
     1
 10
431.96911997810344
 20
-219.89800000000037
 11
431.14831997810347
 21
-219.89800000000037
 72
     1
 10
431.14831997810347
 20
-219.89800000000037
 11
431.14831997810347
 21
-217.29880000000037
 72
     1
 10
431.14831997810347
 20
-217.29880000000037
 11
437.44111997810342
 21
-217.29880000000037
 72
     1
 10
437.44111997810342
 20
-217.29880000000037
 11
437.44111997810342
 21
-219.89800000000037
 72
     1
 10
437.44111997810342
 20
-219.89800000000037
 11
436.62031997810345
 21
-219.89800000000037
 72
     1
 10
436.62031997810345
 20
-219.89800000000037
 11
436.34671997810347
 21
-218.39320000000032
 72
     1
 10
436.34671997810347
 20
-218.39320000000032
 11
434.84191997810331
 21
-218.39320000000032
 72
     1
 10
434.84191997810331
 20
-218.39320000000032
 11
434.84191997810342
 21
-223.04440000000034
 72
     1
 10
434.84191997810342
 20
-223.04440000000034
 11
435.93631997810348
 21
-223.31800000000032
 72
     1
 10
435.93631997810348
 20
-223.31800000000032
 11
435.93631997810348
 21
-224.1388000000004
 72
     1
 10
435.93631997810348
 20
-224.1388000000004
 11
432.6531199781034
 21
-224.1388000000004
 72
     1
 10
432.6531199781034
 20
-224.1388000000004
 11
432.6531199781034
 21
-223.31800000000032
 72
     1
 10
432.6531199781034
 20
-223.31800000000032
 11
433.74751997810336
 21
-223.04440000000034
 72
     1
 10
433.74751997810336
 20
-223.04440000000034
 11
433.74751997810336
 21
-218.39320000000032
 97
        0
 75
     0
 76
     1
 98
        1
 10
0.0
 20
0.0
  0
HATCH
  5
22F
100
AcDbEntity
  8
LAY-1
  6
CONTINUOUS
 62
     3
100
AcDbHatch
 10
0.0
 20
0.0
 30
0.0
210
0.0
220
0.0
230
1.0
  2
SOLID
 70
     1
 71
     1
 91
        1
 92
        1
 93
        4
 72
     1
 10
429.64351997810331
 20
-221.95000000000039
 11
429.64351997810343
 21
-220.85560000000032
 72
     1
 10
429.64351997810343
 20
-220.85560000000032
 11
430.73791997810338
 21
-220.85560000000032
 72
     1
 10
430.73791997810338
 20
-220.85560000000032
 11
430.73791997810338
 21
-221.95000000000039
 72
     1
 10
430.73791997810338
 20
-221.95000000000039
 11
429.64351997810343
 21
-221.95000000000039
 97
        0
 75
     0
 76
     1
 98
        1
 10
0.0
 20
0.0
  0
HATCH
  5
230
100
AcDbEntity
  8
LAY-1
  6
CONTINUOUS
 62
     3
100
AcDbHatch
 10
0.0
 20
0.0
 30
0.0
210
0.0
220
0.0
230
1.0
  2
SOLID
 70
     1
 71
     1
 91
        1
 92
        1
 93
       12
 72
     1
 10
428.41231997810337
 20
-217.29880000000037
 11
428.41231997810337
 21
-218.11960000000033
 72
     1
 10
428.41231997810337
 20
-218.11960000000033
 11
427.31791997810342
 21
-218.39320000000032
 72
     1
 10
427.31791997810342
 20
-218.39320000000032
 11
427.31791997810342
 21
-223.04440000000034
 72
     1
 10
427.31791997810342
 20
-223.04440000000034
 11
428.41231997810337
 21
-223.31800000000032
 72
     1
 10
428.41231997810337
 20
-223.31800000000032
 11
428.41231997810337
 21
-224.1388000000004
 72
     1
 10
428.41231997810337
 20
-224.1388000000004
 11
425.12911997810329
 21
-224.1388000000004
 72
     1
 10
425.12911997810329
 20
-224.1388000000004
 11
425.12911997810329
 21
-223.31800000000032
 72
     1
 10
425.12911997810329
 20
-223.31800000000032
 11
426.22351997810335
 21
-223.04440000000034
 72
     1
 10
426.22351997810335
 20
-223.04440000000034
 11
426.22351997810335
 21
-218.39320000000032
 72
     1
 10
426.22351997810335
 20
-218.39320000000032
 11
425.12911997810329
 21
-218.11960000000033
 72
     1
 10
425.12911997810329
 20
-218.11960000000033
 11
425.12911997810329
 21
-217.29880000000037
 72
     1
 10
425.12911997810329
 20
-217.29880000000037
 11
428.41231997810337
 21
-217.29880000000037
 97
        0
 75
     0
 76
     1
 98
        1
 10
0.0
 20
0.0
  0
HATCH
  5
231
100
AcDbEntity
  8
LAY-1
  6
CONTINUOUS
 62
     3
100
AcDbHatch
 10
0.0
 20
0.0
 30
0.0
210
0.0
220
0.0
230
1.0
  2
SOLID
 70
     1
 71
     1
 91
        1
 92
        1
 93
       15
 72
     2
 10
417.68388666867224
 20
-220.71880000000021
 40
3.0372637263726419
 50
124.301153
 51
180.0
 73
     0
 72
     1
 10
414.64662294229959
 20
-220.71879999999999
 11
415.79269594264997
 21
-220.71879999999999
 72
     2
 10
418.74787146020185
 20
-220.71880000000021
 40
2.9551755175517642
 50
180.0
 51
199.464384
 73
     1
 72
     2
 10
415.91376514565138
 20
-220.39098562220067
 40
1.313411341134145
 50
272.086657
 51
294.619977
 73
     1
 72
     2
 10
416.2899405762364
 20
-221.21186771040948
 40
0.4104410441044128
 50
294.619977
 51
0.0
 73
     1
 72
     1
 10
416.70038162034075
 20
-221.21186771040948
 11
416.70038162034075
 21
-220.71879999999999
 72
     1
 10
416.70038162034075
 20
-220.71879999999999
 11
417.68544012619134
 21
-220.71879999999999
 72
     1
 10
417.68544012619134
 20
-220.71879999999999
 11
417.68544012619134
 21
-221.21273863296665
 72
     2
 10
418.0958811702958
 20
-221.21273863296665
 40
0.410441044104396
 50
180.0
 51
245.380023
 73
     1
 72
     2
 10
418.47205660088082
 20
-220.39185654475762
 40
1.3134113411342894
 50
245.380023
 51
267.913343
 73
     1
 72
     1
 10
418.42423400557936
 20
-221.70439696333483
 11
418.42423400557936
 21
-221.95066158979739
 72
     1
 10
418.42423400557936
 20
-221.95066158979739
 11
416.06168841299177
 21
-221.95066158979739
 72
     2
 10
418.74787146020185
 20
-220.71880000000021
 40
2.9551755175517602
 50
204.635803
 51
268.19864
 73
     1
 72
     1
 10
418.65497705768507
 20
-223.67251511312782
 11
418.65497705768507
 21
-224.08354045759472
 72
     2
 10
418.74787146020185
 20
-219.15912403240327
 40
4.9252925292529479
 50
91.080702
 51
124.301153
 73
     0
 97
        0
 75
     0
 76
     1
 98
        1
 10
0.0
 20
0.0
  0
HATCH
  5
232
100
AcDbEntity
  8
LAY-1
  6
CONTINUOUS
 62
     3
100
AcDbHatch
 10
0.0
 20
0.0
 30
0.0
210
0.0
220
0.0
230
1.0
  2
SOLID
 70
     1
 71
     1
 91
        1
 92
        1
 93
       24
 72
     2
 10
418.17790971132069
 20
-220.30835895589576
 40
0.4104410441044165
 50
90.0
 51
157.380135
 73
     1
 72
     2
 10
419.16296821717128
 20
-220.7188000000001
 40
1.4775877587758843
 50
157.380135
 51
180.0
 73
     1
 72
     1
 10
417.68538045839534
 20
-220.71879999999999
 11
416.70038162034075
 21
-220.71879999999999
 72
     1
 10
416.70038162034075
 20
-220.71879999999999
 11
416.70038162034075
 21
-218.58787351248282
 72
     2
 10
418.74787146020185
 20
-220.71880000000021
 40
2.9551755175517642
 50
133.856042
 51
180.0
 73
     1
 72
     1
 10
415.79269594264997
 20
-220.71879999999999
 11
414.64662294229959
 21
-220.71879999999999
 72
     2
 10
417.68388666867224
 20
-220.71880000000021
 40
3.0372637263726419
 50
180.0
 51
235.698847
 73
     0
 72
     2
 10
418.74787146020185
 20
-222.27847596759716
 40
4.9252925292529586
 50
235.698847
 51
245.436008
 73
     0
 72
     1
 10
416.70038162034075
 20
-217.79893448945666
 11
416.70038162034075
 21
-217.35285097327096
 72
     2
 10
416.2899405762364
 20
-217.35285097327096
 40
0.4104410441044105
 50
0.0
 51
65.380023
 73
     1
 72
     2
 10
415.91376514565138
 20
-218.17373306147977
 40
1.3134113411341153
 50
65.380023
 51
87.913343
 73
     1
 72
     1
 10
415.96158774095284
 20
-216.86119264290267
 11
415.96158774095284
 21
-216.6149280164401
 72
     1
 10
415.96158774095284
 20
-216.6149280164401
 11
418.42423400557936
 21
-216.6149280164401
 72
     1
 10
418.42423400557936
 20
-216.6149280164401
 11
418.42423400557936
 21
-216.86119264290267
 72
     2
 10
418.47205660088082
 20
-218.17373306147977
 40
1.3134113411341213
 50
92.086657
 51
114.619977
 73
     1
 72
     2
 10
418.0958811702958
 20
-217.35285097327085
 40
0.4104410441044165
 50
114.619977
 51
180.0
 73
     1
 72
     1
 10
417.68544012619145
 20
-217.35285097327096
 11
417.68544012619145
 21
-217.46913649535895
 72
     2
 10
418.74787146020185
 20
-222.27847596759716
 40
4.9252925292529461
 50
257.542857
 51
268.919298
 73
     0
 72
     1
 10
418.65497705768507
 20
-217.35405954240559
 11
418.65497705768507
 21
-217.76508488687261
 72
     2
 10
418.74787146020185
 20
-220.71880000000021
 40
2.9551755175517642
 50
91.80136
 51
111.070443
 73
     1
 72
     1
 10
417.68544012619134
 20
-217.96121011025048
 11
417.68544012619134
 21
-219.48747686768695
 72
     1
 10
417.68544012619134
 20
-219.48747686768695
 11
418.65497705768519
 21
-219.48747686768695
 72
     1
 10
418.65497705768519
 20
-219.48747686768695
 11
418.65497705768507
 21
-219.89791791179141
 72
     1
 10
418.65497705768507
 20
-219.89791791179141
 11
418.17790971132069
 21
-219.89791791179141
 97
        0
 75
     0
 76
     1
 98
        1
 10
0.0
 20
0.0
  0
HATCH
  5
233
100
AcDbEntity
  8
LAY-1
  6
CONTINUOUS
 62
     3
100
AcDbHatch
 10
0.0
 20
0.0
 30
0.0
210
0.0
220
0.0
230
1.0
  2
SOLID
 70
     1
 71
     1
 91
        1
 92
        1
 93
       14
 72
     2
 10
418.74787146020185
 20
-220.71880000000021
 40
2.95517551755177
 50
0.0
 51
9.281799
 73
     1
 72
     2
 10
421.25928773188321
 20
-220.30835895589576
 40
0.410441044104408
 50
9.281799
 51
90.0
 73
     1
 72
     1
 10
421.25928773188321
 20
-219.89791791179141
 11
420.38963563661946
 21
-219.89791791179141
 72
     1
 10
420.38963563661946
 20
-219.89791791179141
 11
420.38963563661946
 21
-220.71879999999999
 72
     1
 10
420.38963563661946
 20
-220.71879999999999
 11
419.40457713076887
 21
-220.71879999999999
 72
     1
 10
419.40457713076887
 20
-220.71879999999999
 11
419.40457713076887
 21
-219.89791791179141
 72
     1
 10
419.40457713076887
 20
-219.89791791179141
 11
418.65497705768507
 21
-219.89791791179141
 72
     1
 10
418.65497705768507
 20
-219.89791791179141
 11
418.65497705768507
 21
-219.48747686768695
 72
     1
 10
418.65497705768507
 20
-219.48747686768695
 11
421.43430137430119
 21
-219.48747686768695
 72
     2
 10
418.74787146020185
 20
-220.71880000000021
 40
2.9551755175517642
 50
24.624318
 51
91.80136
 73
     1
 72
     1
 10
418.65497705768507
 20
-217.76508488687261
 11
418.65497705768507
 21
-217.35405954240559
 72
     2
 10
418.74787146020185
 20
-222.27847596759716
 40
4.9252925292529461
 50
268.919298
 51
304.301153
 73
     0
 72
     2
 10
419.81185625173134
 20
-220.71880000000021
 40
3.0372637263726445
 50
304.301153
 51
0.0
 73
     0
 72
     1
 10
422.849119978104
 20
-220.71879999999999
 11
421.7030469777535
 21
-220.71879999999999
 97
        0
 75
     0
 76
     1
 98
        1
 10
0.0
 20
0.0
  0
HATCH
  5
234
100
AcDbEntity
  8
LAY-1
  6
CONTINUOUS
 62
     3
100
AcDbHatch
 10
0.0
 20
0.0
 30
0.0
210
0.0
220
0.0
230
1.0
  2
SOLID
 70
     1
 71
     1
 91
        1
 92
        1
 93
       19
 72
     2
 10
418.74787146020185
 20
-220.71880000000021
 40
2.95517551755177
 50
303.748989
 51
0.0
 73
     1
 72
     1
 10
421.7030469777535
 20
-220.71879999999999
 11
422.849119978104
 21
-220.71879999999999
 72
     2
 10
419.81185625173134
 20
-220.71880000000021
 40
3.0372637263726445
 50
0.0
 51
55.698847
 73
     0
 72
     2
 10
418.74787146020185
 20
-219.15912403240327
 40
4.925292529252955
 50
55.698847
 51
70.528779
 73
     0
 72
     1
 10
420.38963563661946
 20
-223.80273436141954
 11
420.38963563661946
 21
-224.0852874842135
 72
     2
 10
420.80007668072381
 20
-224.0852874842135
 40
0.4104410441044128
 50
180.0
 51
245.380023
 73
     1
 72
     2
 10
421.17625211130894
 20
-223.26440539600458
 40
1.3134113411341188
 50
245.380023
 51
267.913343
 73
     1
 72
     1
 10
421.12842951600737
 20
-224.57694581458168
 11
421.12842951600737
 21
-224.82321044104435
 72
     1
 10
421.12842951600737
 20
-224.82321044104435
 11
418.66578325138096
 21
-224.82321044104435
 72
     1
 10
418.66578325138096
 20
-224.82321044104435
 11
418.66578325138096
 21
-224.57694581458168
 72
     2
 10
418.6179606560795
 20
-223.26440539600458
 40
1.3134113411341188
 50
272.086657
 51
294.619977
 73
     1
 72
     2
 10
418.99413608666441
 20
-224.0852874842135
 40
0.4104410441044128
 50
294.619977
 51
0.0
 73
     1
 72
     1
 10
419.40457713076887
 20
-224.0852874842135
 11
419.40457713076887
 21
-224.04043985510521
 72
     2
 10
418.74787146020185
 20
-219.15912403240327
 40
4.9252925292529479
 50
82.337744
 51
91.080702
 73
     0
 72
     1
 10
418.65497705768507
 20
-224.08354045759472
 11
418.65497705768507
 21
-223.67251511312782
 72
     2
 10
418.74787146020185
 20
-220.71880000000021
 40
2.9551755175517602
 50
268.19864
 51
282.839588
 73
     1
 72
     1
 10
419.40457713076887
 20
-223.60008443611241
 11
419.40457713076887
 21
-220.71879999999999
 72
     1
 10
419.40457713076887
 20
-220.71879999999999
 11
420.38963563661946
 21
-220.71879999999999
 72
     1
 10
420.38963563661946
 20
-220.71879999999999
 11
420.38963563661946
 21
-223.17596762321375
 97
        0
 75
     0
 76
     1
 98
        1
 10
0.0
 20
0.0
  0
LINE
  5
235
100
AcDbEntity
  8
LAY-1
  6
CONTINUOUS
 62
     2
100
AcDbLine
 10
406.70535
 20
8.239007
 30
0.0
 11
407.419881
 21
7.001403
 31
0.0
  0
LINE
  5
236
100
AcDbEntity
  8
LAY-1
  6
CONTINUOUS
 62
     2
100
AcDbLine
 10
387.70535
 20
16.239007
 30
0.0
 11
387.70535
 21
24.239007
 31
0.0
  0
LINE
  5
237
100
AcDbEntity
  8
LAY-1
  6
CONTINUOUS
 62
     2
100
AcDbLine
 10
387.70535
 20
24.239007
 30
0.0
 11
388.419881
 21
25.476611
 31
0.0
  0
LINE
  5
238
100
AcDbEntity
  8
LAY-1
  6
CONTINUOUS
 62
     1
100
AcDbLine
 10
395.077089
 20
11.239007
 30
0.0
 11
396.248822
 21
11.915507
 31
0.0
  0
LINE
  5
239
100
AcDbEntity
  8
LAY-1
  6
CONTINUOUS
 62
     2
100
AcDbLine
 10
396.248822
 20
21.239007
 30
0.0
 11
396.248822
 21
11.239007
 31
0.0
  0
LINE
  5
23A
100
AcDbEntity
  8
LAY-1
  6
CONTINUOUS
 62
     2
100
AcDbLine
 10
394.70535
 20
25.476611
 30
0.0
 11
394.70535
 21
16.239007
 31
0.0
  0
LINE
  5
23B
100
AcDbEntity
  8
LAY-1
  6
CONTINUOUS
 62
     2
100
AcDbLine
 10
388.419881
 20
25.476611
 30
0.0
 11
394.70535
 21
25.476611
 31
0.0
  0
LINE
  5
23C
100
AcDbEntity
  8
LAY-1
  6
EXLTYPE3
 62
     1
100
AcDbLine
 10
470.70535
 20
98.598995
 30
0.0
 11
470.70535
 21
-106.230007
 31
0.0
  0
LINE
  5
23D
100
AcDbEntity
  8
LAY-1
  6
CONTINUOUS
 62
     2
100
AcDbLine
 10
407.419881
 20
20.857809
 30
0.0
 11
414.70535
 21
20.857809
 31
0.0
  0
LINE
  5
23E
100
AcDbEntity
  8
LAY-1
  6
CONTINUOUS
 62
     2
100
AcDbLine
 10
407.419881
 20
11.620205
 30
0.0
 11
414.70535
 21
11.620205
 31
0.0
  0
LINE
  5
23F
100
AcDbEntity
  8
LAY-1
  6
CONTINUOUS
 62
     2
100
AcDbLine
 10
414.70535
 20
7.001403
 30
0.0
 11
407.419881
 21
7.001403
 31
0.0
  0
LINE
  5
240
100
AcDbEntity
  8
LAY-1
  6
CONTINUOUS
 62
     2
100
AcDbLine
 10
407.419881
 20
25.476611
 30
0.0
 11
414.70535
 21
25.476611
 31
0.0
  0
ARC
  5
241
100
AcDbEntity
  8
LAY-1
  6
CONTINUOUS
 62
     2
100
AcDbCircle
 10
410.794666
 20
23.16721
 30
0.0
 40
4.089316
100
AcDbArc
 50
154.384247
 51
214.384247
  0
ARC
  5
242
100
AcDbEntity
  8
LAY-1
  6
CONTINUOUS
 62
     2
100
AcDbCircle
 10
421.990818
 20
16.239007
 30
0.0
 40
15.285469
100
AcDbArc
 50
162.412046
 51
197.587954
  0
LINE
  5
243
100
AcDbEntity
  8
LAY-1
  6
CONTINUOUS
 62
     2
100
AcDbLine
 10
406.70535
 20
16.239007
 30
0.0
 11
406.70535
 21
24.239007
 31
0.0
  0
LINE
  5
244
100
AcDbEntity
  8
LAY-1
  6
CONTINUOUS
 62
     2
100
AcDbLine
 10
406.70535
 20
11.239007
 30
0.0
 11
394.70535
 21
11.239007
 31
0.0
  0
ARC
  5
245
100
AcDbEntity
  8
LAY-1
  6
CONTINUOUS
 62
     2
100
AcDbCircle
 10
410.794666
 20
9.310804
 30
0.0
 40
4.089316
100
AcDbArc
 50
145.615753
 51
205.615753
  0
LINE
  5
246
100
AcDbEntity
  8
LAY-1
  6
CONTINUOUS
 62
     2
100
AcDbLine
 10
406.70535
 20
16.239007
 30
0.0
 11
406.70535
 21
8.239007
 31
0.0
  0
LINE
  5
247
100
AcDbEntity
  8
LAY-1
  6
CONTINUOUS
 62
     2
100
AcDbLine
 10
406.70535
 20
21.239007
 30
0.0
 11
394.70535
 21
21.239007
 31
0.0
  0
LINE
  5
248
100
AcDbEntity
  8
LAY-1
  6
CONTINUOUS
 62
     2
100
AcDbLine
 10
406.70535
 20
24.239007
 30
0.0
 11
407.419881
 21
25.476611
 31
0.0
  0
LINE
  5
249
100
AcDbEntity
  8
LAY-1
  6
CONTINUOUS
 62
     1
100
AcDbLine
 10
396.248822
 20
11.915507
 30
0.0
 11
406.70535
 21
11.915507
 31
0.0
  0
LINE
  5
24A
100
AcDbEntity
  8
LAY-1
  6
CONTINUOUS
 62
     1
100
AcDbLine
 10
396.248822
 20
20.562507
 30
0.0
 11
406.70535
 21
20.562507
 31
0.0
  0
LINE
  5
24B
100
AcDbEntity
  8
LAY-1
  6
CONTINUOUS
 62
     1
100
AcDbLine
 10
395.077089
 20
21.239007
 30
0.0
 11
396.248822
 21
20.562507
 31
0.0
  0
LINE
  5
24C
100
AcDbEntity
  8
LAY-1
  6
CONTINUOUS
 62
     2
100
AcDbLine
 10
388.419881
 20
11.620205
 30
0.0
 11
394.70535
 21
11.620205
 31
0.0
  0
LINE
  5
24D
100
AcDbEntity
  8
LAY-1
  6
CONTINUOUS
 62
     2
100
AcDbLine
 10
388.419881
 20
20.857809
 30
0.0
 11
394.70535
 21
20.857809
 31
0.0
  0
ARC
  5
24E
100
AcDbEntity
  8
LAY-1
  6
CONTINUOUS
 62
     2
100
AcDbCircle
 10
402.990818
 20
16.239007
 30
0.0
 40
15.285469
100
AcDbArc
 50
162.412046
 51
197.587954
  0
LINE
  5
24F
100
AcDbEntity
  8
LAY-1
  6
CONTINUOUS
 62
     2
100
AcDbLine
 10
387.70535
 20
16.239007
 30
0.0
 11
387.70535
 21
8.239007
 31
0.0
  0
LINE
  5
250
100
AcDbEntity
  8
LAY-1
  6
CONTINUOUS
 62
     2
100
AcDbLine
 10
387.70535
 20
8.239007
 30
0.0
 11
388.419881
 21
7.001403
 31
0.0
  0
LINE
  5
251
100
AcDbEntity
  8
LAY-1
  6
CONTINUOUS
 62
     2
100
AcDbLine
 10
388.419881
 20
7.001403
 30
0.0
 11
394.70535
 21
7.001403
 31
0.0
  0
LINE
  5
252
100
AcDbEntity
  8
LAY-1
  6
CONTINUOUS
 62
     2
100
AcDbLine
 10
394.70535
 20
7.001403
 30
0.0
 11
394.70535
 21
16.239007
 31
0.0
  0
ARC
  5
253
100
AcDbEntity
  8
LAY-1
  6
CONTINUOUS
 62
     2
100
AcDbCircle
 10
391.794666
 20
9.310804
 30
0.0
 40
4.089316
100
AcDbArc
 50
145.615753
 51
205.615753
  0
ARC
  5
254
100
AcDbEntity
  8
LAY-1
  6
CONTINUOUS
 62
     2
100
AcDbCircle
 10
391.794666
 20
23.16721
 30
0.0
 40
4.089316
100
AcDbArc
 50
154.384247
 51
214.384247
  0
ARC
  5
255
100
AcDbEntity
  8
LAY-1
  6
CONTINUOUS
 62
     2
100
AcDbCircle
 10
458.888611
 20
-54.860993
 30
0.0
 40
1.0
100
AcDbArc
 50
270.0
 51
358.210089
  0
LINE
  5
256
100
AcDbEntity
  8
LAY-1
  6
CONTINUOUS
 62
     1
100
AcDbLine
 10
461.176725
 20
-50.840993
 30
0.0
 11
459.94823
 21
-52.968807
 31
0.0
  0
LINE
  5
257
100
AcDbEntity
  8
LAY-1
  6
CONTINUOUS
 62
     2
100
AcDbLine
 10
457.20535
 20
-86.760993
 30
0.0
 11
484.20535
 21
-86.760993
 31
0.0
  0
LINE
  5
258
100
AcDbEntity
  8
LAY-1
  6
CONTINUOUS
 62
     2
100
AcDbLine
 10
470.70535
 20
-85.260993
 30
0.0
 11
450.70535
 21
-85.260993
 31
0.0
  0
LINE
  5
259
100
AcDbEntity
  8
LAY-1
  6
CONTINUOUS
 62
     2
100
AcDbLine
 10
449.70535
 20
-84.260993
 30
0.0
 11
449.70535
 21
-68.260993
 31
0.0
  0
LINE
  5
25A
100
AcDbEntity
  8
LAY-1
  6
CONTINUOUS
 62
     2
100
AcDbLine
 10
450.70535
 20
-67.260993
 30
0.0
 11
470.70535
 21
-67.260993
 31
0.0
  0
ARC
  5
25B
100
AcDbEntity
  8
LAY-1
  6
CONTINUOUS
 62
     2
100
AcDbCircle
 10
455.857676
 20
-86.686556
 30
0.0
 40
19.425563
100
AcDbArc
 50
71.545507
 51
108.464253
  0
ARC
  5
25C
100
AcDbEntity
  8
LAY-1
  6
CONTINUOUS
 62
     2
100
AcDbCircle
 10
450.70535
 20
-84.260993
 30
0.0
 40
1.0
100
AcDbArc
 50
180.0
 51
270.0
  0
ARC
  5
25D
100
AcDbEntity
  8
LAY-1
  6
CONTINUOUS
 62
     2
100
AcDbCircle
 10
450.70535
 20
-68.260993
 30
0.0
 40
1.0
100
AcDbArc
 50
90.0
 51
180.0
  0
ARC
  5
25E
100
AcDbEntity
  8
LAY-1
  6
CONTINUOUS
 62
     2
100
AcDbCircle
 10
490.70535
 20
-68.260993
 30
0.0
 40
1.0
100
AcDbArc
 50
0.0
 51
90.0
  0
ARC
  5
25F
100
AcDbEntity
  8
LAY-1
  6
CONTINUOUS
 62
     2
100
AcDbCircle
 10
490.70535
 20
-84.260993
 30
0.0
 40
1.0
100
AcDbArc
 50
270.0
 51
0.0
  0
ARC
  5
260
100
AcDbEntity
  8
LAY-1
  6
CONTINUOUS
 62
     2
100
AcDbCircle
 10
470.70535
 20
-105.631965
 30
0.0
 40
38.370972
100
AcDbArc
 50
76.897464
 51
103.102536
  0
ARC
  5
261
100
AcDbEntity
  8
LAY-1
  6
CONTINUOUS
 62
     2
100
AcDbCircle
 10
485.553023
 20
-86.686556
 30
0.0
 40
19.425563
100
AcDbArc
 50
71.535747
 51
108.454493
  0
ARC
  5
262
100
AcDbEntity
  8
LAY-1
  6
CONTINUOUS
 62
     2
100
AcDbCircle
 10
485.553023
 20
-65.83543
 30
0.0
 40
19.425563
100
AcDbArc
 50
251.545507
 51
288.464253
  0
ARC
  5
263
100
AcDbEntity
  8
LAY-1
  6
CONTINUOUS
 62
     2
100
AcDbCircle
 10
470.70535
 20
-46.890021
 30
0.0
 40
38.370972
100
AcDbArc
 50
256.897464
 51
283.102536
  0
ARC
  5
264
100
AcDbEntity
  8
LAY-1
  6
CONTINUOUS
 62
     2
100
AcDbCircle
 10
455.857676
 20
-65.83543
 30
0.0
 40
19.425563
100
AcDbArc
 50
251.535747
 51
288.454493
  0
LINE
  5
265
100
AcDbEntity
  8
LAY-1
  6
CONTINUOUS
 62
     2
100
AcDbLine
 10
461.176725
 20
-50.840993
 30
0.0
 11
480.233975
 21
-50.840993
 31
0.0
  0
LINE
  5
266
100
AcDbEntity
  8
LAY-1
  6
CONTINUOUS
 62
     2
100
AcDbLine
 10
458.888611
 20
-55.860993
 30
0.0
 11
482.522088
 21
-55.860993
 31
0.0
  0
ARC
  5
267
100
AcDbEntity
  8
LAY-1
  6
CONTINUOUS
 62
     2
100
AcDbCircle
 10
461.159408
 20
-60.881929
 30
0.0
 40
5.020936
100
AcDbArc
 50
38.046182
 51
141.953818
  0
ARC
  5
268
100
AcDbEntity
  8
LAY-1
  6
CONTINUOUS
 62
     2
100
AcDbCircle
 10
470.70535
 20
-64.939589
 30
0.0
 40
9.078596
100
AcDbArc
 50
51.979644
 51
128.020356
  0
ARC
  5
269
100
AcDbEntity
  8
LAY-1
  6
CONTINUOUS
 62
     2
100
AcDbCircle
 10
480.251291
 20
-60.881929
 30
0.0
 40
5.020936
100
AcDbArc
 50
38.046182
 51
141.953818
  0
LINE
  5
26A
100
AcDbEntity
  8
LAY-1
  6
CONTINUOUS
 62
     2
100
AcDbLine
 10
476.297233
 20
-67.260993
 30
0.0
 11
476.297233
 21
-57.787544
 31
0.0
  0
LINE
  5
26B
100
AcDbEntity
  8
LAY-1
  6
CONTINUOUS
 62
     2
100
AcDbLine
 10
465.113466
 20
-67.260993
 30
0.0
 11
465.113466
 21
-57.787544
 31
0.0
  0
ARC
  5
26C
100
AcDbEntity
  8
LAY-1
  6
CONTINUOUS
 62
     2
100
AcDbCircle
 10
482.522088
 20
-54.860993
 30
0.0
 40
1.0
100
AcDbArc
 50
181.789911
 51
270.0
  0
LINE
  5
26D
100
AcDbEntity
  8
LAY-1
  6
CONTINUOUS
 62
     2
100
AcDbLine
 10
470.70535
 20
-98.760993
 30
0.0
 11
483.20535
 21
-98.760993
 31
0.0
  0
LINE
  5
26E
100
AcDbEntity
  8
LAY-1
  6
CONTINUOUS
 62
     2
100
AcDbLine
 10
484.20535
 20
-67.260993
 30
0.0
 11
484.20535
 21
-56.860993
 31
0.0
  0
LINE
  5
26F
100
AcDbEntity
  8
LAY-1
  6
CONTINUOUS
 62
     2
100
AcDbLine
 10
484.20535
 20
-97.760993
 30
0.0
 11
484.20535
 21
-87.760993
 31
0.0
  0
LINE
  5
270
100
AcDbEntity
  8
LAY-1
  6
CONTINUOUS
 62
     2
100
AcDbLine
 10
483.20535
 20
-55.860993
 30
0.0
 11
482.522088
 21
-55.860993
 31
0.0
  0
LINE
  5
271
100
AcDbEntity
  8
LAY-1
  6
CONTINUOUS
 62
     2
100
AcDbLine
 10
481.522576
 20
-54.892228
 30
0.0
 11
481.237225
 21
-45.760993
 31
0.0
  0
LINE
  5
272
100
AcDbEntity
  8
LAY-1
  6
CONTINUOUS
 62
     2
100
AcDbLine
 10
491.70535
 20
-84.260993
 30
0.0
 11
491.70535
 21
-68.260993
 31
0.0
  0
LINE
  5
273
100
AcDbEntity
  8
LAY-1
  6
CONTINUOUS
 62
     2
100
AcDbLine
 10
470.70535
 20
-85.260993
 30
0.0
 11
490.70535
 21
-85.260993
 31
0.0
  0
LINE
  5
274
100
AcDbEntity
  8
LAY-1
  6
CONTINUOUS
 62
     1
100
AcDbLine
 10
480.233975
 20
-50.840993
 30
0.0
 11
481.462469
 21
-52.968807
 31
0.0
  0
ARC
  5
275
100
AcDbEntity
  8
LAY-1
  6
CONTINUOUS
 62
     2
100
AcDbCircle
 10
483.20535
 20
-56.860993
 30
0.0
 40
1.0
100
AcDbArc
 50
0.0
 51
90.0
  0
LINE
  5
276
100
AcDbEntity
  8
LAY-1
  6
CONTINUOUS
 62
     2
100
AcDbLine
 10
484.20535
 20
-86.760993
 30
0.0
 11
488.20535
 21
-86.760993
 31
0.0
  0
LINE
  5
277
100
AcDbEntity
  8
LAY-1
  6
CONTINUOUS
 62
     2
100
AcDbLine
 10
488.20535
 20
-86.760993
 30
0.0
 11
488.20535
 21
-85.260993
 31
0.0
  0
LINE
  5
278
100
AcDbEntity
  8
LAY-1
  6
CONTINUOUS
 62
     2
100
AcDbLine
 10
481.395975
 20
-50.840993
 30
0.0
 11
480.233975
 21
-50.840993
 31
0.0
  0
ARC
  5
279
100
AcDbEntity
  8
LAY-1
  6
CONTINUOUS
 62
     2
100
AcDbCircle
 10
458.20535
 20
-56.860993
 30
0.0
 40
1.0
100
AcDbArc
 50
90.0
 51
180.0
  0
LINE
  5
27A
100
AcDbEntity
  8
LAY-1
  6
CONTINUOUS
 62
     2
100
AcDbLine
 10
490.70535
 20
-67.260993
 30
0.0
 11
470.70535
 21
-67.260993
 31
0.0
  0
LINE
  5
27B
100
AcDbEntity
  8
LAY-1
  6
CONTINUOUS
 62
     2
100
AcDbLine
 10
457.20535
 20
-67.260993
 30
0.0
 11
457.20535
 21
-56.860993
 31
0.0
  0
LINE
  5
27C
100
AcDbEntity
  8
LAY-1
  6
CONTINUOUS
 62
     2
100
AcDbLine
 10
458.20535
 20
-55.860993
 30
0.0
 11
458.888611
 21
-55.860993
 31
0.0
  0
LINE
  5
27D
100
AcDbEntity
  8
LAY-1
  6
CONTINUOUS
 62
     2
100
AcDbLine
 10
459.888123
 20
-54.892228
 30
0.0
 11
460.173475
 21
-45.760993
 31
0.0
  0
LINE
  5
27E
100
AcDbEntity
  8
LAY-1
  6
CONTINUOUS
 62
     2
100
AcDbLine
 10
460.014725
 20
-50.840993
 30
0.0
 11
461.176725
 21
-50.840993
 31
0.0
  0
ARC
  5
27F
100
AcDbEntity
  8
LAY-1
  6
CONTINUOUS
 62
     2
100
AcDbCircle
 10
458.20535
 20
-97.760993
 30
0.0
 40
1.0
100
AcDbArc
 50
180.0
 51
270.0
  0
LINE
  5
280
100
AcDbEntity
  8
LAY-1
  6
CONTINUOUS
 62
     2
100
AcDbLine
 10
454.287882
 20
-86.760993
 30
0.0
 11
454.287882
 21
-85.197461
 31
0.0
  0
LINE
  5
281
100
AcDbEntity
  8
LAY-1
  6
CONTINUOUS
 62
     2
100
AcDbLine
 10
453.20535
 20
-86.760993
 30
0.0
 11
453.20535
 21
-85.260993
 31
0.0
  0
LINE
  5
282
100
AcDbEntity
  8
LAY-1
  6
CONTINUOUS
 62
     2
100
AcDbLine
 10
457.20535
 20
-86.760993
 30
0.0
 11
453.20535
 21
-86.760993
 31
0.0
  0
LINE
  5
283
100
AcDbEntity
  8
LAY-1
  6
CONTINUOUS
 62
     2
100
AcDbLine
 10
457.20535
 20
-97.760993
 30
0.0
 11
457.20535
 21
-87.760993
 31
0.0
  0
LINE
  5
284
100
AcDbEntity
  8
LAY-1
  6
CONTINUOUS
 62
     2
100
AcDbLine
 10
470.70535
 20
-98.760993
 30
0.0
 11
458.20535
 21
-98.760993
 31
0.0
  0
ARC
  5
285
100
AcDbEntity
  8
LAY-1
  6
CONTINUOUS
 62
     2
100
AcDbCircle
 10
483.20535
 20
-97.760993
 30
0.0
 40
1.0
100
AcDbArc
 50
270.0
 51
0.0
  0
ARC
  5
286
100
AcDbEntity
  8
LAY-1
  6
CONTINUOUS
 62
     2
100
AcDbCircle
 10
456.20535
 20
-87.760993
 30
0.0
 40
1.0
100
AcDbArc
 50
0.0
 51
90.0
  0
ARC
  5
287
100
AcDbEntity
  8
LAY-1
  6
CONTINUOUS
 62
     2
100
AcDbCircle
 10
485.20535
 20
-87.760993
 30
0.0
 40
1.0
100
AcDbArc
 50
90.0
 51
180.0
  0
ARC
  5
288
100
AcDbEntity
  8
LAY-1
  6
CONTINUOUS
 62
     2
100
AcDbCircle
 10
461.159408
 20
-86.266921
 30
0.0
 40
12.494073
100
AcDbArc
 50
251.550134
 51
288.449866
  0
ARC
  5
289
100
AcDbEntity
  8
LAY-1
  6
CONTINUOUS
 62
     2
100
AcDbCircle
 10
470.70535
 20
-74.09394
 30
0.0
 40
24.667053
100
AcDbArc
 50
256.897464
 51
283.102536
  0
ARC
  5
28A
100
AcDbEntity
  8
LAY-1
  6
CONTINUOUS
 62
     2
100
AcDbCircle
 10
480.251291
 20
-86.266921
 30
0.0
 40
12.494073
100
AcDbArc
 50
251.550134
 51
288.449866
  0
LINE
  5
28B
100
AcDbEntity
  8
LAY-1
  6
CONTINUOUS
 62
     2
100
AcDbLine
 10
487.122818
 20
-86.760993
 30
0.0
 11
487.122818
 21
-85.260993
 31
0.0
  0
LINE
  5
28C
100
AcDbEntity
  8
LAY-1
  6
CONTINUOUS
 62
     2
100
AcDbLine
 10
465.113466
 20
-98.118809
 30
0.0
 11
465.113466
 21
-86.760993
 31
0.0
  0
LINE
  5
28D
100
AcDbEntity
  8
LAY-1
  6
CONTINUOUS
 62
     2
100
AcDbLine
 10
476.297233
 20
-86.760993
 30
0.0
 11
476.297233
 21
-98.118809
 31
0.0
  0
LINE
  5
28E
100
AcDbEntity
  8
LAY-1
  6
CONTINUOUS
 62
     2
100
AcDbLine
 10
479.403834
 20
-68.259945
 30
0.0
 11
479.403834
 21
-84.262041
 31
0.0
  0
LINE
  5
28F
100
AcDbEntity
  8
LAY-1
  6
CONTINUOUS
 62
     2
100
AcDbLine
 10
462.006865
 20
-68.259945
 30
0.0
 11
462.006865
 21
-84.262041
 31
0.0
  0
LINE
  5
290
100
AcDbEntity
  8
LAY-1
  6
CONTINUOUS
 62
     2
100
AcDbLine
 10
449.20535
 20
-41.260993
 30
0.0
 11
449.20535
 21
-28.260993
 31
0.0
  0
LINE
  5
291
100
AcDbEntity
  8
LAY-1
  6
CONTINUOUS
 62
     2
100
AcDbLine
 10
450.20535
 20
-27.260993
 30
0.0
 11
457.70535
 21
-27.260993
 31
0.0
  0
ARC
  5
292
100
AcDbEntity
  8
LAY-1
  6
CONTINUOUS
 62
     2
100
AcDbCircle
 10
457.70535
 20
-26.260993
 30
0.0
 40
1.0
100
AcDbArc
 50
270.0
 51
0.0
  0
ARC
  5
293
100
AcDbEntity
  8
LAY-1
  6
CONTINUOUS
 62
     2
100
AcDbCircle
 10
450.20535
 20
-28.260993
 30
0.0
 40
1.0
100
AcDbArc
 50
90.0
 51
180.0
  0
ARC
  5
294
100
AcDbEntity
  8
LAY-1
  6
CONTINUOUS
 62
     2
100
AcDbCircle
 10
450.20535
 20
-41.260993
 30
0.0
 40
1.0
100
AcDbArc
 50
180.0
 51
270.0
  0
LINE
  5
295
100
AcDbEntity
  8
LAY-1
  6
CONTINUOUS
 62
     2
100
AcDbLine
 10
486.70535
 20
-32.760993
 30
0.0
 11
486.70535
 21
-44.760993
 31
0.0
  0
LINE
  5
296
100
AcDbEntity
  8
LAY-1
  6
CONTINUOUS
 62
     2
100
AcDbLine
 10
486.70535
 20
-32.760993
 30
0.0
 11
482.839324
 21
-26.064841
 31
0.0
  0
ARC
  5
297
100
AcDbEntity
  8
LAY-1
  6
CONTINUOUS
 62
     2
100
AcDbCircle
 10
485.70535
 20
-44.760993
 30
0.0
 40
1.0
100
AcDbArc
 50
270.0
 51
0.0
  0
LINE
  5
298
100
AcDbEntity
  8
LAY-1
  6
CONTINUOUS
 62
     2
100
AcDbLine
 10
482.70535
 20
-1.569891
 30
0.0
 11
482.70535
 21
-25.564841
 31
0.0
  0
LINE
  5
299
100
AcDbEntity
  8
LAY-1
  6
CONTINUOUS
 62
     2
100
AcDbLine
 10
458.70535
 20
-26.260993
 30
0.0
 11
458.70535
 21
-25.260993
 31
0.0
  0
ARC
  5
29A
100
AcDbEntity
  8
LAY-1
  6
CONTINUOUS
 62
     2
100
AcDbCircle
 10
457.70535
 20
-25.260993
 30
0.0
 40
1.0
100
AcDbArc
 50
0.0
 51
90.0
  0
LINE
  5
29B
100
AcDbEntity
  8
LAY-1
  6
CONTINUOUS
 62
     2
100
AcDbLine
 10
488.20535
 20
28.882608
 30
0.0
 11
488.20535
 21
3.595405
 31
0.0
  0
LINE
  5
29C
100
AcDbEntity
  8
LAY-1
  6
CONTINUOUS
 62
     2
100
AcDbLine
 10
455.70535
 20
56.739007
 30
0.0
 11
455.70535
 21
53.603818
 31
0.0
  0
ARC
  5
29D
100
AcDbEntity
  8
LAY-1
  6
CONTINUOUS
 62
     2
100
AcDbCircle
 10
456.70535
 20
57.739007
 30
0.0
 40
1.0
100
AcDbArc
 50
270.0
 51
0.0
  0
LINE
  5
29E
100
AcDbEntity
  8
LAY-1
  6
CONTINUOUS
 62
     2
100
AcDbLine
 10
482.70535
 20
34.047905
 30
0.0
 11
482.70535
 21
45.324793
 31
0.0
  0
LINE
  5
29F
100
AcDbEntity
  8
LAY-1
  6
CONTINUOUS
 62
     2
100
AcDbLine
 10
483.70535
 20
47.15322
 30
0.0
 11
483.70535
 21
60.239007
 31
0.0
  0
ARC
  5
2A0
100
AcDbEntity
  8
LAY-1
  6
CONTINUOUS
 62
     2
100
AcDbCircle
 10
484.20535
 20
28.882608
 30
0.0
 40
4.0
100
AcDbArc
 50
0.0
 51
80.0
  0
ARC
  5
2A1
100
AcDbEntity
  8
LAY-1
  6
CONTINUOUS
 62
     2
100
AcDbCircle
 10
483.70535
 20
34.047905
 30
0.0
 40
1.0
100
AcDbArc
 50
180.0
 51
260.0
  0
LINE
  5
2A2
100
AcDbEntity
  8
LAY-1
  6
CONTINUOUS
 62
     2
100
AcDbLine
 10
482.998243
 20
46.0319
 30
0.0
 11
483.412456
 21
46.446114
 31
0.0
  0
ARC
  5
2A3
100
AcDbEntity
  8
LAY-1
  6
CONTINUOUS
 62
     2
100
AcDbCircle
 10
484.20535
 20
3.595405
 30
0.0
 40
4.0
100
AcDbArc
 50
280.0
 51
0.0
  0
ARC
  5
2A4
100
AcDbEntity
  8
LAY-1
  6
CONTINUOUS
 62
     2
100
AcDbCircle
 10
483.70535
 20
-1.569891
 30
0.0
 40
1.0
100
AcDbArc
 50
100.0
 51
180.0
  0
ARC
  5
2A5
100
AcDbEntity
  8
LAY-1
  6
CONTINUOUS
 62
     2
100
AcDbCircle
 10
483.70535
 20
-25.564841
 30
0.0
 40
1.0
100
AcDbArc
 50
180.0
 51
210.0
  0
ARC
  5
2A6
100
AcDbEntity
  8
LAY-1
  6
CONTINUOUS
 62
     2
100
AcDbCircle
 10
483.70535
 20
45.324793
 30
0.0
 40
1.0
100
AcDbArc
 50
135.0
 51
180.0
  0
ARC
  5
2A7
100
AcDbEntity
  8
LAY-1
  6
CONTINUOUS
 62
     2
100
AcDbCircle
 10
482.70535
 20
47.15322
 30
0.0
 40
1.0
100
AcDbArc
 50
315.0
 51
0.0
  0
LINE
  5
2A8
100
AcDbEntity
  8
LAY-1
  6
CONTINUOUS
 62
     2
100
AcDbLine
 10
457.70535
 20
60.177757
 30
0.0
 11
457.70535
 21
57.739007
 31
0.0
  0
ARC
  5
2A9
100
AcDbEntity
  8
LAY-1
  6
CONTINUOUS
 62
     2
100
AcDbCircle
 10
458.70535
 20
54.739007
 30
0.0
 40
2.0
100
AcDbArc
 50
0.0
 51
90.0
  0
LINE
  5
2AA
100
AcDbEntity
  8
LAY-1
  6
CONTINUOUS
 62
     2
100
AcDbLine
 10
458.70535
 20
56.739007
 30
0.0
 11
455.70535
 21
56.739007
 31
0.0
  0
LINE
  5
2AB
100
AcDbEntity
  8
LAY-1
  6
CONTINUOUS
 62
     2
100
AcDbLine
 10
455.70535
 20
16.239007
 30
0.0
 11
455.70535
 21
-24.260993
 31
0.0
  0
LINE
  5
2AC
100
AcDbEntity
  8
LAY-1
  6
CONTINUOUS
 62
     2
100
AcDbLine
 10
455.70535
 20
53.603818
 30
0.0
 11
455.70535
 21
16.239007
 31
0.0
  0
ARC
  5
2AD
100
AcDbEntity
  8
LAY-1
  6
CONTINUOUS
 62
     2
100
AcDbCircle
 10
458.70535
 20
-22.260993
 30
0.0
 40
2.0
100
AcDbArc
 50
270.0
 51
0.0
  0
LINE
  5
2AE
100
AcDbEntity
  8
LAY-1
  6
CONTINUOUS
 62
     2
100
AcDbLine
 10
458.70535
 20
-24.260993
 30
0.0
 11
455.70535
 21
-24.260993
 31
0.0
  0
LINE
  5
2AF
100
AcDbEntity
  8
LAY-1
  6
CONTINUOUS
 62
     2
100
AcDbLine
 10
485.70535
 20
-45.760993
 30
0.0
 11
470.70535
 21
-45.760993
 31
0.0
  0
ARC
  5
2B0
100
AcDbEntity
  8
LAY-1
  6
CONTINUOUS
 62
     2
100
AcDbCircle
 10
459.70535
 20
60.177757
 30
0.0
 40
2.0
100
AcDbArc
 50
147.952324
 51
180.0
  0
ARC
  5
2B1
100
AcDbEntity
  8
LAY-1
  6
CONTINUOUS
 62
     2
100
AcDbCircle
 10
481.70535
 20
60.177757
 30
0.0
 40
2.0
100
AcDbArc
 50
0.0
 51
32.047676
  0
ARC
  5
2B2
100
AcDbEntity
  8
LAY-1
  6
CONTINUOUS
 62
     2
100
AcDbCircle
 10
459.77335
 20
-32.418681
 30
0.0
 40
13.342312
100
AcDbArc
 50
247.675967
 51
292.324033
  0
LINE
  5
2B3
100
AcDbEntity
  8
LAY-1
  6
CONTINUOUS
 62
     2
100
AcDbLine
 10
464.84135
 20
-33.760993
 30
0.0
 11
464.84135
 21
-44.760993
 31
0.0
  0
ARC
  5
2B4
100
AcDbEntity
  8
LAY-1
  6
CONTINUOUS
 62
     2
100
AcDbCircle
 10
469.90935
 20
-32.418681
 30
0.0
 40
13.342312
100
AcDbArc
 50
247.675967
 51
273.420287
  0
ARC
  5
2B5
100
AcDbEntity
  8
LAY-1
  6
CONTINUOUS
 62
     2
100
AcDbCircle
 10
471.50135
 20
-32.418681
 30
0.0
 40
13.342312
100
AcDbArc
 50
266.579713
 51
292.324033
  0
LINE
  5
2B6
100
AcDbEntity
  8
LAY-1
  6
CONTINUOUS
 62
     2
100
AcDbLine
 10
476.56935
 20
-33.760993
 30
0.0
 11
476.56935
 21
-44.760993
 31
0.0
  0
ARC
  5
2B7
100
AcDbEntity
  8
LAY-1
  6
CONTINUOUS
 62
     2
100
AcDbCircle
 10
481.63735
 20
-32.418681
 30
0.0
 40
13.342312
100
AcDbArc
 50
247.675967
 51
292.324033
  0
ARC
  5
2B8
100
AcDbEntity
  8
LAY-1
  6
CONTINUOUS
 62
     2
100
AcDbCircle
 10
481.63735
 20
-46.103305
 30
0.0
 40
13.342312
100
AcDbArc
 50
67.675967
 51
112.324033
  0
ARC
  5
2B9
100
AcDbEntity
  8
LAY-1
  6
CONTINUOUS
 62
     2
100
AcDbCircle
 10
471.50135
 20
-46.103305
 30
0.0
 40
13.342312
100
AcDbArc
 50
67.675967
 51
93.420287
  0
ARC
  5
2BA
100
AcDbEntity
  8
LAY-1
  6
CONTINUOUS
 62
     2
100
AcDbCircle
 10
469.90935
 20
-46.103305
 30
0.0
 40
13.342312
100
AcDbArc
 50
86.579713
 51
112.324033
  0
ARC
  5
2BB
100
AcDbEntity
  8
LAY-1
  6
CONTINUOUS
 62
     2
100
AcDbCircle
 10
453.70535
 20
-43.260993
 30
0.0
 40
1.0
100
AcDbArc
 50
0.0
 51
90.0
  0
ARC
  5
2BC
100
AcDbEntity
  8
LAY-1
  6
CONTINUOUS
 62
     2
100
AcDbCircle
 10
455.70535
 20
-44.760993
 30
0.0
 40
1.0
100
AcDbArc
 50
180.0
 51
270.0
  0
LINE
  5
2BD
100
AcDbEntity
  8
LAY-1
  6
CONTINUOUS
 62
     2
100
AcDbLine
 10
470.70535
 20
-45.760993
 30
0.0
 11
455.70535
 21
-45.760993
 31
0.0
  0
LINE
  5
2BE
100
AcDbEntity
  8
LAY-1
  6
CONTINUOUS
 62
     2
100
AcDbLine
 10
453.70535
 20
-42.260993
 30
0.0
 11
450.20535
 21
-42.260993
 31
0.0
  0
LINE
  5
2BF
100
AcDbEntity
  8
LAY-1
  6
CONTINUOUS
 62
     2
100
AcDbLine
 10
484.899942
 20
-0.343826
 30
0.0
 11
473.429495
 21
-2.366375
 31
0.0
  0
ARC
  5
2C0
100
AcDbEntity
  8
LAY-1
  6
CONTINUOUS
 62
     2
100
AcDbCircle
 10
475.165976
 20
-12.214452
 30
0.0
 40
10.0
100
AcDbArc
 50
100.0
 51
150.0
  0
LINE
  5
2C1
100
AcDbEntity
  8
LAY-1
  6
CONTINUOUS
 62
     2
100
AcDbLine
 10
460.70535
 20
-17.260993
 30
0.0
 11
466.505722
 21
-7.214452
 31
0.0
  0
LINE
  5
2C2
100
AcDbEntity
  8
LAY-1
  6
CONTINUOUS
 62
     2
100
AcDbLine
 10
460.70535
 20
49.739007
 30
0.0
 11
466.505722
 21
39.692466
 31
0.0
  0
ARC
  5
2C3
100
AcDbEntity
  8
LAY-1
  6
CONTINUOUS
 62
     2
100
AcDbCircle
 10
475.165976
 20
44.692466
 30
0.0
 40
10.0
100
AcDbArc
 50
210.0
 51
260.0
  0
LINE
  5
2C4
100
AcDbEntity
  8
LAY-1
  6
CONTINUOUS
 62
     2
100
AcDbLine
 10
484.899942
 20
32.821839
 30
0.0
 11
473.429495
 21
34.844389
 31
0.0
  0
LINE
  5
2C5
100
AcDbEntity
  8
LAY-1
  6
CONTINUOUS
 62
     2
100
AcDbLine
 10
460.70535
 20
-22.319335
 30
0.0
 11
460.70535
 21
54.739007
 31
0.0
  0
LINE
  5
2C6
100
AcDbEntity
  8
LAY-1
  6
CONTINUOUS
 62
     2
100
AcDbLine
 10
482.638423
 20
46.680665
 30
0.0
 11
462.471084
 21
46.680665
 31
0.0
  0
LINE
  5
2C7
100
AcDbEntity
  8
LAY-1
  6
CONTINUOUS
 62
     2
100
AcDbLine
 10
481.738423
 20
45.780665
 30
0.0
 11
462.990699
 21
45.780665
 31
0.0
  0
LINE
  5
2C8
100
AcDbEntity
  8
LAY-1
  6
CONTINUOUS
 62
     2
100
AcDbLine
 10
455.70535
 20
47.437986
 30
0.0
 11
455.70535
 21
-17.210993
 31
0.0
  0
LINE
  5
2C9
100
AcDbEntity
  8
LAY-1
  6
CONTINUOUS
 62
     2
100
AcDbLine
 10
419.562551
 20
1.40023
 30
0.0
 11
440.962387
 21
0.788806
 31
0.0
  0
ARC
  5
2CA
100
AcDbEntity
  8
LAY-1
  6
CONTINUOUS
 62
     2
100
AcDbCircle
 10
440.70535
 20
-8.207523
 30
0.0
 40
9.0
100
AcDbArc
 50
0.0
 51
88.363423
  0
LINE
  5
2CB
100
AcDbEntity
  8
LAY-1
  6
CONTINUOUS
 62
     2
100
AcDbLine
 10
454.70535
 20
-22.460993
 30
0.0
 11
454.70535
 21
-23.960993
 31
0.0
  0
LINE
  5
2CC
100
AcDbEntity
  8
LAY-1
  6
CONTINUOUS
 62
     2
100
AcDbLine
 10
419.562551
 20
31.677784
 30
0.0
 11
435.20535
 21
32.124721
 31
0.0
  0
ARC
  5
2CD
100
AcDbEntity
  8
LAY-1
  6
CONTINUOUS
 62
     2
100
AcDbCircle
 10
440.70535
 20
41.285537
 30
0.0
 40
9.0
100
AcDbArc
 50
271.636577
 51
0.0
  0
ARC
  5
2CE
100
AcDbEntity
  8
LAY-1
  6
CONTINUOUS
 62
     2
100
AcDbCircle
 10
454.70535
 20
52.039007
 30
0.0
 40
5.0
100
AcDbArc
 50
90.0
 51
180.0
  0
LINE
  5
2CF
100
AcDbEntity
  8
LAY-1
  6
CONTINUOUS
 62
     2
100
AcDbLine
 10
454.70535
 20
55.539007
 30
0.0
 11
454.70535
 21
57.039007
 31
0.0
  0
LINE
  5
2D0
100
AcDbEntity
  8
LAY-1
  6
CONTINUOUS
 62
     2
100
AcDbLine
 10
435.20535
 20
32.124721
 30
0.0
 11
440.962387
 21
32.289208
 31
0.0
  0
LINE
  5
2D1
100
AcDbEntity
  8
LAY-1
  6
CONTINUOUS
 62
     2
100
AcDbLine
 10
454.70535
 20
16.239007
 30
0.0
 11
454.70535
 21
-22.460993
 31
0.0
  0
LINE
  5
2D2
100
AcDbEntity
  8
LAY-1
  6
CONTINUOUS
 62
     2
100
AcDbLine
 10
454.70535
 20
55.539007
 30
0.0
 11
454.70535
 21
16.239007
 31
0.0
  0
LINE
  5
2D3
100
AcDbEntity
  8
LAY-1
  6
CONTINUOUS
 62
     2
100
AcDbLine
 10
455.70535
 20
-17.210993
 30
0.0
 11
454.70535
 21
-17.210993
 31
0.0
  0
LINE
  5
2D4
100
AcDbEntity
  8
LAY-1
  6
CONTINUOUS
 62
     2
100
AcDbLine
 10
455.70535
 20
50.289007
 30
0.0
 11
454.70535
 21
50.289007
 31
0.0
  0
LINE
  5
2D5
100
AcDbEntity
  8
LAY-1
  6
CONTINUOUS
 62
     2
100
AcDbLine
 10
451.20535
 20
10.779178
 30
0.0
 11
449.70535
 21
10.779178
 31
0.0
  0
LINE
  5
2D6
100
AcDbEntity
  8
LAY-1
  6
CONTINUOUS
 62
     2
100
AcDbLine
 10
451.20535
 20
21.698836
 30
0.0
 11
449.70535
 21
21.698836
 31
0.0
  0
LINE
  5
2D7
100
AcDbEntity
  8
LAY-1
  6
CONTINUOUS
 62
     2
100
AcDbLine
 10
451.20535
 20
47.288134
 30
0.0
 11
449.70535
 21
47.288134
 31
0.0
  0
LINE
  5
2D8
100
AcDbEntity
  8
LAY-1
  6
CONTINUOUS
 62
     2
100
AcDbLine
 10
451.20535
 20
-14.81012
 30
0.0
 11
449.70535
 21
-14.81012
 31
0.0
  0
LINE
  5
2D9
100
AcDbEntity
  8
LAY-1
  6
CONTINUOUS
 62
     2
100
AcDbLine
 10
451.20535
 20
-14.81012
 30
0.0
 11
451.20535
 21
-19.828835
 31
0.0
  0
LINE
  5
2DA
100
AcDbEntity
  8
LAY-1
  6
CONTINUOUS
 62
     2
100
AcDbLine
 10
451.20535
 20
52.306849
 30
0.0
 11
451.20535
 21
47.288134
 31
0.0
  0
LINE
  5
2DB
100
AcDbEntity
  8
LAY-1
  6
CONTINUOUS
 62
     2
100
AcDbLine
 10
451.20535
 20
21.698836
 30
0.0
 11
451.20535
 21
10.779178
 31
0.0
  0
ARC
  5
2DC
100
AcDbEntity
  8
LAY-1
  6
CONTINUOUS
 62
     2
100
AcDbCircle
 10
419.70535
 20
6.39819
 30
0.0
 40
5.0
100
AcDbArc
 50
180.0
 51
268.363423
  0
ARC
  5
2DD
100
AcDbEntity
  8
LAY-1
  6
CONTINUOUS
 62
     2
100
AcDbCircle
 10
419.70535
 20
26.679824
 30
0.0
 40
5.0
100
AcDbArc
 50
91.636577
 51
180.0
  0
LINE
  5
2DE
100
AcDbEntity
  8
LAY-1
  6
CONTINUOUS
 62
     2
100
AcDbLine
 10
483.400563
 20
61.239007
 30
0.0
 11
458.010136
 21
61.239007
 31
0.0
  0
LINE
  5
2DF
100
AcDbEntity
  8
LAY-1
  6
CONTINUOUS
 62
     2
100
AcDbLine
 10
451.20535
 20
12.239007
 30
0.0
 11
450.275222
 21
12.239007
 31
0.0
  0
ARC
  5
2E0
100
AcDbEntity
  8
LAY-1
  6
CONTINUOUS
 62
     2
100
AcDbCircle
 10
454.60535
 20
16.239007
 30
0.0
 40
6.5
100
AcDbArc
 50
180.0
 51
210.0
  0
ARC
  5
2E1
100
AcDbEntity
  8
LAY-1
  6
CONTINUOUS
 62
     2
100
AcDbCircle
 10
450.275222
 20
13.739007
 30
0.0
 40
1.5
100
AcDbArc
 50
210.0
 51
270.0
  0
LINE
  5
2E2
100
AcDbEntity
  8
LAY-1
  6
CONTINUOUS
 62
     2
100
AcDbLine
 10
451.20535
 20
20.239007
 30
0.0
 11
450.275222
 21
20.239007
 31
0.0
  0
ARC
  5
2E3
100
AcDbEntity
  8
LAY-1
  6
CONTINUOUS
 62
     2
100
AcDbCircle
 10
454.60535
 20
16.239007
 30
0.0
 40
6.5
100
AcDbArc
 50
150.0
 51
180.0
  0
ARC
  5
2E4
100
AcDbEntity
  8
LAY-1
  6
CONTINUOUS
 62
     2
100
AcDbCircle
 10
450.275222
 20
18.739007
 30
0.0
 40
1.5
100
AcDbArc
 50
90.0
 51
150.0
  0
LINE
  5
2E5
100
AcDbEntity
  8
LAY-1
  6
CONTINUOUS
 62
     2
100
AcDbLine
 10
451.20535
 20
-19.154414
 30
0.0
 11
450.275222
 21
-19.154414
 31
0.0
  0
ARC
  5
2E6
100
AcDbEntity
  8
LAY-1
  6
CONTINUOUS
 62
     2
100
AcDbCircle
 10
454.60535
 20
-15.154414
 30
0.0
 40
6.5
100
AcDbArc
 50
180.0
 51
210.0
  0
ARC
  5
2E7
100
AcDbEntity
  8
LAY-1
  6
CONTINUOUS
 62
     2
100
AcDbCircle
 10
450.275222
 20
-17.654414
 30
0.0
 40
1.5
100
AcDbArc
 50
210.0
 51
270.0
  0
ARC
  5
2E8
100
AcDbEntity
  8
LAY-1
  6
CONTINUOUS
 62
     2
100
AcDbCircle
 10
454.60535
 20
-15.154414
 30
0.0
 40
6.5
100
AcDbArc
 50
150.0
 51
180.0
  0
ARC
  5
2E9
100
AcDbEntity
  8
LAY-1
  6
CONTINUOUS
 62
     2
100
AcDbCircle
 10
450.275222
 20
-12.654414
 30
0.0
 40
1.5
100
AcDbArc
 50
112.328438
 51
150.0
  0
LINE
  5
2EA
100
AcDbEntity
  8
LAY-1
  6
CONTINUOUS
 62
     2
100
AcDbLine
 10
449.70535
 20
12.351475
 30
0.0
 11
449.70535
 21
-14.81012
 31
0.0
  0
LINE
  5
2EB
100
AcDbEntity
  8
LAY-1
  6
CONTINUOUS
 62
     2
100
AcDbLine
 10
451.20535
 20
51.632428
 30
0.0
 11
450.275222
 21
51.632428
 31
0.0
  0
ARC
  5
2EC
100
AcDbEntity
  8
LAY-1
  6
CONTINUOUS
 62
     2
100
AcDbCircle
 10
450.275222
 20
50.132428
 30
0.0
 40
1.5
100
AcDbArc
 50
90.0
 51
150.0
  0
ARC
  5
2ED
100
AcDbEntity
  8
LAY-1
  6
CONTINUOUS
 62
     2
100
AcDbCircle
 10
454.60535
 20
47.632428
 30
0.0
 40
6.5
100
AcDbArc
 50
150.0
 51
180.0
  0
ARC
  5
2EE
100
AcDbEntity
  8
LAY-1
  6
CONTINUOUS
 62
     2
100
AcDbCircle
 10
454.60535
 20
47.632428
 30
0.0
 40
6.5
100
AcDbArc
 50
180.0
 51
210.0
  0
ARC
  5
2EF
100
AcDbEntity
  8
LAY-1
  6
CONTINUOUS
 62
     2
100
AcDbCircle
 10
450.275222
 20
45.132428
 30
0.0
 40
1.5
100
AcDbArc
 50
210.0
 51
247.671562
  0
LINE
  5
2F0
100
AcDbEntity
  8
LAY-1
  6
CONTINUOUS
 62
     2
100
AcDbLine
 10
449.70535
 20
20.126539
 30
0.0
 11
449.70535
 21
47.288134
 31
0.0
  0
LINE
  5
2F1
100
AcDbEntity
  8
LAY-1
  6
CONTINUOUS
 62
     2
100
AcDbLine
 10
449.70535
 20
51.51996
 30
0.0
 11
449.70535
 21
52.039007
 31
0.0
  0
ARC
  5
2F2
100
AcDbEntity
  8
LAY-1
  6
CONTINUOUS
 62
     2
100
AcDbCircle
 10
459.77335
 20
-46.103305
 30
0.0
 40
13.342312
100
AcDbArc
 50
67.675967
 51
112.324033
  0
LINE
  5
2F3
100
AcDbEntity
  8
LAY-1
  6
CONTINUOUS
 62
     2
100
AcDbLine
 10
454.70535
 20
-32.760993
 30
0.0
 11
456.034772
 21
-30.458365
 31
0.0
  0
LINE
  5
2F4
100
AcDbEntity
  8
LAY-1
  6
CONTINUOUS
 62
     2
100
AcDbLine
 10
454.70535
 20
-44.760993
 30
0.0
 11
454.70535
 21
-32.760993
 31
0.0
  0
ARC
  5
2F5
100
AcDbEntity
  8
LAY-1
  6
CONTINUOUS
 62
     2
100
AcDbCircle
 10
454.70535
 20
-18.960993
 30
0.0
 40
5.0
100
AcDbArc
 50
180.930795
 51
270.0
  0
LINE
  5
2F6
100
AcDbEntity
  8
LAY-1
  6
CONTINUOUS
 62
     2
100
AcDbLine
 10
449.78124
 20
-19.828835
 30
0.0
 11
451.20535
 21
-19.828835
 31
0.0
  0
LINE
  5
2F7
100
AcDbEntity
  8
LAY-1
  6
CONTINUOUS
 62
     2
100
AcDbLine
 10
449.71585
 20
52.306849
 30
0.0
 11
451.20535
 21
52.306849
 31
0.0
  0
LINE
  5
2F8
100
AcDbEntity
  8
LAY-1
  6
EXLTYPE3
 62
     1
100
AcDbLine
 10
383.1
 20
16.239007
 30
0.0
 11
496.3
 21
16.239007
 31
0.0
  0
LINE
  5
2F9
100
AcDbEntity
  8
LAY-1
  6
CONTINUOUS
 62
     2
100
AcDbLine
 10
414.70535
 20
26.679824
 30
0.0
 11
414.70535
 21
6.39819
 31
0.0
  0
LINE
  5
2FA
100
AcDbEntity
  8
LAY-1
  6
EXLTYPE3
 62
     1
100
AcDbLine
 10
384.20535
 20
119.239007
 30
0.0
 11
486.20535
 21
119.239007
 31
0.0
  0
ARC
  5
2FB
100
AcDbEntity
  8
LAY-1
  6
CONTINUOUS
 62
     2
100
AcDbCircle
 10
428.70535
 20
145.906897
 30
0.0
 40
1.0
100
AcDbArc
 50
0.0
 51
93.0
  0
ARC
  5
2FC
100
AcDbEntity
  8
LAY-1
  6
CONTINUOUS
 62
     2
100
AcDbCircle
 10
428.70535
 20
92.571117
 30
0.0
 40
1.0
100
AcDbArc
 50
267.0
 51
0.0
  0
ARC
  5
2FD
100
AcDbEntity
  8
LAY-1
  6
CONTINUOUS
 62
     2
100
AcDbCircle
 10
422.20535
 20
148.114862
 30
0.0
 40
0.5
100
AcDbArc
 50
0.0
 51
93.0
  0
LINE
  5
2FE
100
AcDbEntity
  8
LAY-1
  6
CONTINUOUS
 62
     2
100
AcDbLine
 10
394.20535
 20
92.079542
 30
0.0
 11
394.20535
 21
87.236732
 31
0.0
  0
LINE
  5
2FF
100
AcDbEntity
  8
LAY-1
  6
CONTINUOUS
 62
     2
100
AcDbLine
 10
422.179182
 20
148.614176
 30
0.0
 11
407.527075
 21
147.846292
 31
0.0
  0
LINE
  5
300
100
AcDbEntity
  8
LAY-1
  6
CONTINUOUS
 62
     2
100
AcDbLine
 10
384.20535
 20
133.749361
 30
0.0
 11
384.20535
 21
119.239007
 31
0.0
  0
LINE
  5
301
100
AcDbEntity
  8
LAY-1
  6
CONTINUOUS
 62
     2
100
AcDbLine
 10
393.68199
 20
143.735657
 30
0.0
 11
403.757685
 21
144.263701
 31
0.0
  0
ARC
  5
302
100
AcDbEntity
  8
LAY-1
  6
CONTINUOUS
 62
     2
100
AcDbCircle
 10
403.70535
 20
145.262331
 30
0.0
 40
1.0
100
AcDbArc
 50
273.0
 51
354.089092
  0
ARC
  5
303
100
AcDbEntity
  8
LAY-1
  6
CONTINUOUS
 62
     2
100
AcDbCircle
 10
394.20535
 20
133.749361
 30
0.0
 40
10.0
100
AcDbArc
 50
93.0
 51
180.0
  0
ARC
  5
304
100
AcDbEntity
  8
LAY-1
  6
CONTINUOUS
 62
     2
100
AcDbCircle
 10
394.20535
 20
104.728653
 30
0.0
 40
10.0
100
AcDbArc
 50
180.0
 51
256.657636
  0
ARC
  5
305
100
AcDbEntity
  8
LAY-1
  6
CONTINUOUS
 62
     2
100
AcDbCircle
 10
391.20535
 20
92.079542
 30
0.0
 40
3.0
100
AcDbArc
 50
0.0
 51
76.657636
  0
LINE
  5
306
100
AcDbEntity
  8
LAY-1
  6
CONTINUOUS
 62
     2
100
AcDbLine
 10
384.20535
 20
119.239007
 30
0.0
 11
384.20535
 21
104.728653
 31
0.0
  0
ARC
  5
307
100
AcDbEntity
  8
LAY-1
  6
CONTINUOUS
 62
     2
100
AcDbCircle
 10
407.684082
 20
144.850403
 30
0.0
 40
3.0
100
AcDbArc
 50
93.0
 51
174.089092
  0
LINE
  5
308
100
AcDbEntity
  8
LAY-1
  6
CONTINUOUS
 62
     2
100
AcDbLine
 10
428.653014
 20
91.572487
 30
0.0
 11
422.70535
 21
91.884191
 31
0.0
  0
LINE
  5
309
100
AcDbEntity
  8
LAY-1
  6
CONTINUOUS
 62
     2
100
AcDbLine
 10
422.70535
 20
86.239007
 30
0.0
 11
394.205253
 21
87.236736
 31
0.0
  0
LINE
  5
30A
100
AcDbEntity
  8
LAY-1
  6
CONTINUOUS
 62
     2
100
AcDbLine
 10
422.70535
 20
86.239007
 30
0.0
 11
422.70535
 21
148.114862
 31
0.0
  0
LINE
  5
30B
100
AcDbEntity
  8
LAY-1
  6
CONTINUOUS
 62
     2
100
AcDbLine
 10
429.70535
 20
145.906897
 30
0.0
 11
429.70535
 21
92.571117
 31
0.0
  0
LINE
  5
30C
100
AcDbEntity
  8
LAY-1
  6
CONTINUOUS
 62
     2
100
AcDbLine
 10
428.653014
 20
146.905526
 30
0.0
 11
422.70535
 21
146.593822
 31
0.0
  0
LINE
  5
30D
100
AcDbEntity
  8
LAY-1
  6
CONTINUOUS
 62
     2
100
AcDbLine
 10
442.527632
 20
145.291533
 30
0.0
 11
429.70535
 21
144.843769
 31
0.0
  0
LINE
  5
30E
100
AcDbEntity
  8
LAY-1
  6
CONTINUOUS
 62
     2
100
AcDbLine
 10
442.527632
 20
93.186481
 30
0.0
 11
429.70535
 21
93.634245
 31
0.0
  0
LINE
  5
30F
100
AcDbEntity
  8
LAY-1
  6
CONTINUOUS
 62
     2
100
AcDbLine
 10
422.70535
 20
93.257841
 30
0.0
 11
397.606659
 21
94.136494
 31
0.0
  0
LINE
  5
310
100
AcDbEntity
  8
LAY-1
  6
CONTINUOUS
 62
     2
100
AcDbLine
 10
404.678811
 20
99.186863
 30
0.0
 11
404.678811
 21
140.680658
 31
0.0
  0
LINE
  5
311
100
AcDbEntity
  8
LAY-1
  6
CONTINUOUS
 62
     2
100
AcDbLine
 10
444.876184
 20
98.533163
 30
0.0
 11
446.20535
 21
98.533163
 31
0.0
  0
ARC
  5
312
100
AcDbEntity
  8
LAY-1
  6
CONTINUOUS
 62
     2
100
AcDbCircle
 10
450.50535
 20
93.783163
 30
0.0
 40
8.0
100
AcDbArc
 50
150.0
 51
180.0
  0
ARC
  5
313
100
AcDbEntity
  8
LAY-1
  6
CONTINUOUS
 62
     2
100
AcDbCircle
 10
444.876184
 20
97.033163
 30
0.0
 40
1.5
100
AcDbArc
 50
90.0
 51
150.0
  0
LINE
  5
314
100
AcDbEntity
  8
LAY-1
  6
CONTINUOUS
 62
     2
100
AcDbLine
 10
444.876184
 20
89.033163
 30
0.0
 11
446.20535
 21
89.033163
 31
0.0
  0
ARC
  5
315
100
AcDbEntity
  8
LAY-1
  6
CONTINUOUS
 62
     2
100
AcDbCircle
 10
450.50535
 20
93.783163
 30
0.0
 40
8.0
100
AcDbArc
 50
180.0
 51
210.0
  0
ARC
  5
316
100
AcDbEntity
  8
LAY-1
  6
CONTINUOUS
 62
     2
100
AcDbCircle
 10
444.876184
 20
90.533163
 30
0.0
 40
1.5
100
AcDbArc
 50
210.0
 51
270.0
  0
LINE
  5
317
100
AcDbEntity
  8
LAY-1
  6
CONTINUOUS
 62
     2
100
AcDbLine
 10
444.876184
 20
149.444851
 30
0.0
 11
446.20535
 21
149.444851
 31
0.0
  0
ARC
  5
318
100
AcDbEntity
  8
LAY-1
  6
CONTINUOUS
 62
     2
100
AcDbCircle
 10
450.50535
 20
144.694851
 30
0.0
 40
8.0
100
AcDbArc
 50
150.0
 51
180.0
  0
ARC
  5
319
100
AcDbEntity
  8
LAY-1
  6
CONTINUOUS
 62
     2
100
AcDbCircle
 10
444.876184
 20
147.944851
 30
0.0
 40
1.5
100
AcDbArc
 50
90.0
 51
150.0
  0
ARC
  5
31A
100
AcDbEntity
  8
LAY-1
  6
CONTINUOUS
 62
     2
100
AcDbCircle
 10
450.50535
 20
144.694851
 30
0.0
 40
8.0
100
AcDbArc
 50
180.0
 51
210.0
  0
ARC
  5
31B
100
AcDbEntity
  8
LAY-1
  6
CONTINUOUS
 62
     2
100
AcDbCircle
 10
444.876184
 20
141.444851
 30
0.0
 40
1.5
100
AcDbArc
 50
210.0
 51
270.0
  0
POLYLINE
  5
31C
100
AcDbEntity
  8
LAY-1
  6
CONTINUOUS
 62
     2
100
AcDb2dPolyline
 66
     1
 10
0.0
 20
0.0
 30
0.0
 70
   128
  0
VERTEX
  5
31D
100
AcDbEntity
  8
LAY-1
  6
CONTINUOUS
 62
     2
100
AcDbVertex
100
AcDb2dVertex
 10
401.20535
 20
77.65796
 30
0.0
  0
VERTEX
  5
31E
100
AcDbEntity
  8
LAY-1
  6
CONTINUOUS
 62
     2
100
AcDbVertex
100
AcDb2dVertex
 10
401.590664
 20
77.790015
 30
0.0
  0
SEQEND
  5
31F
100
AcDbEntity
  8
LAY-1
  6
CONTINUOUS
 62
     2
  0
ARC
  5
320
100
AcDbEntity
  8
LAY-1
  6
CONTINUOUS
 62
     2
100
AcDbCircle
 10
416.479048
 20
25.521621
 30
0.0
 40
54.347484
100
AcDbArc
 50
105.061144
 51
105.899331
  0
ARC
  5
321
100
AcDbEntity
  8
LAY-1
  6
CONTINUOUS
 62
     2
100
AcDbCircle
 10
403.452562
 20
68.442755
 30
0.0
 40
9.622052
100
AcDbArc
 50
92.041407
 51
96.538622
  0
ARC
  5
322
100
AcDbEntity
  8
LAY-1
  6
CONTINUOUS
 62
     2
100
AcDbCircle
 10
402.303653
 20
73.27675
 30
0.0
 40
4.849426
100
AcDbArc
 50
71.500375
 51
80.430882
  0
ARC
  5
323
100
AcDbEntity
  8
LAY-1
  6
CONTINUOUS
 62
     2
100
AcDbCircle
 10
401.56831
 20
71.557117
 30
0.0
 40
6.715235
100
AcDbArc
 50
63.499498
 51
70.205867
  0
ARC
  5
324
100
AcDbEntity
  8
LAY-1
  6
CONTINUOUS
 62
     2
100
AcDbCircle
 10
412.625101
 20
104.567155
 30
0.0
 40
28.177832
100
AcDbArc
 50
253.378068
 51
254.925439
  0
ARC
  5
325
100
AcDbEntity
  8
LAY-1
  6
CONTINUOUS
 62
     2
100
AcDbCircle
 10
405.506121
 20
81.62723
 30
0.0
 40
4.27339
100
AcDbArc
 50
267.191422
 51
277.317764
  0
ARC
  5
326
100
AcDbEntity
  8
LAY-1
  6
CONTINUOUS
 62
     2
100
AcDbCircle
 10
404.861268
 20
83.833835
 30
0.0
 40
6.553974
100
AcDbArc
 50
280.453745
 51
287.377824
  0
ARC
  5
327
100
AcDbEntity
  8
LAY-1
  6
CONTINUOUS
 62
     2
100
AcDbCircle
 10
404.420288
 20
85.85524
 30
0.0
 40
8.616763
100
AcDbArc
 50
286.161675
 51
288.857427
  0
LINE
  5
328
100
AcDbEntity
  8
LAY-1
  6
CONTINUOUS
 62
     2
100
AcDbLine
 10
407.20535
 20
86.78163
 30
0.0
 11
407.20535
 21
77.700975
 31
0.0
  0
LINE
  5
329
100
AcDbEntity
  8
LAY-1
  6
CONTINUOUS
 62
     2
100
AcDbLine
 10
401.20535
 20
77.65796
 30
0.0
 11
401.20535
 21
86.991677
 31
0.0
  0
LINE
  5
32A
100
AcDbEntity
  8
LAY-1
  6
EXLTYPE3
 62
     1
100
AcDbLine
 10
404.20535
 20
72.4
 30
0.0
 11
404.20535
 21
86.78163
 31
0.0
  0
LINE
  5
32B
100
AcDbEntity
  8
LAY-1
  6
CONTINUOUS
 62
     2
100
AcDbLine
 10
452.20535
 20
85.739007
 30
0.0
 11
446.70535
 21
85.739007
 31
0.0
  0
ARC
  5
32C
100
AcDbEntity
  8
LAY-1
  6
CONTINUOUS
 62
     2
100
AcDbCircle
 10
446.70535
 20
86.239007
 30
0.0
 40
0.5
100
AcDbArc
 50
180.0
 51
270.0
  0
ARC
  5
32D
100
AcDbEntity
  8
LAY-1
  6
CONTINUOUS
 62
     2
100
AcDbCircle
 10
446.70535
 20
152.239007
 30
0.0
 40
0.5
100
AcDbArc
 50
90.0
 51
180.0
  0
LINE
  5
32E
100
AcDbEntity
  8
LAY-1
  6
CONTINUOUS
 62
     2
100
AcDbLine
 10
452.20535
 20
152.739007
 30
0.0
 11
446.70535
 21
152.739007
 31
0.0
  0
LINE
  5
32F
100
AcDbEntity
  8
LAY-1
  6
CONTINUOUS
 62
     2
100
AcDbLine
 10
446.20535
 20
152.239007
 30
0.0
 11
446.20535
 21
119.239007
 31
0.0
  0
LINE
  5
330
100
AcDbEntity
  8
LAY-1
  6
CONTINUOUS
 62
     2
100
AcDbLine
 10
446.20535
 20
86.239007
 30
0.0
 11
446.20535
 21
119.239007
 31
0.0
  0
ARC
  5
331
100
AcDbEntity
  8
LAY-1
  6
CONTINUOUS
 62
     2
100
AcDbCircle
 10
480.70535
 20
97.943149
 30
0.0
 40
4.0
100
AcDbArc
 50
0.0
 51
87.0
  0
LINE
  5
332
100
AcDbEntity
  8
LAY-1
  6
CONTINUOUS
 62
     2
100
AcDbLine
 10
474.40846
 20
146.143364
 30
0.0
 11
484.15325
 21
140.671939
 31
0.0
  0
ARC
  5
333
100
AcDbEntity
  8
LAY-1
  6
CONTINUOUS
 62
     2
100
AcDbCircle
 10
481.70535
 20
136.312147
 30
0.0
 40
5.0
100
AcDbArc
 50
0.0
 51
60.687017
  0
ARC
  5
334
100
AcDbEntity
  8
LAY-1
  6
CONTINUOUS
 62
     2
100
AcDbCircle
 10
461.20535
 20
88.171684
 30
0.0
 40
3.0
100
AcDbArc
 50
93.0
 51
180.0
  0
ARC
  5
335
100
AcDbEntity
  8
LAY-1
  6
CONTINUOUS
 62
     2
100
AcDbCircle
 10
472.20535
 20
96.258463
 30
0.0
 40
4.5
100
AcDbArc
 50
273.0
 51
0.0
  0
LINE
  5
336
100
AcDbEntity
  8
LAY-1
  6
CONTINUOUS
 62
     2
100
AcDbLine
 10
461.048342
 20
91.167573
 30
0.0
 11
472.440861
 21
91.76463
 31
0.0
  0
ARC
  5
337
100
AcDbEntity
  8
LAY-1
  6
CONTINUOUS
 62
     2
100
AcDbCircle
 10
482.019058
 20
85.250675
 30
0.0
 40
8.988387
100
AcDbArc
 50
58.575686
 51
121.424314
  0
ARC
  5
338
100
AcDbEntity
  8
LAY-1
  6
CONTINUOUS
 62
     2
100
AcDbCircle
 10
470.70535
 20
76.920732
 30
0.0
 40
17.318275
100
AcDbArc
 50
67.5
 51
73.060841
  0
LINE
  5
339
100
AcDbEntity
  8
LAY-1
  6
CONTINUOUS
 62
     2
100
AcDbLine
 10
484.70535
 20
96.239007
 30
0.0
 11
486.70535
 21
94.239007
 31
0.0
  0
LINE
  5
33A
100
AcDbEntity
  8
LAY-1
  6
CONTINUOUS
 62
     2
100
AcDbLine
 10
484.70535
 20
96.239007
 30
0.0
 11
484.70535
 21
97.943149
 31
0.0
  0
LINE
  5
33B
100
AcDbEntity
  8
LAY-1
  6
CONTINUOUS
 62
     2
100
AcDbLine
 10
458.20535
 20
152.739007
 30
0.0
 11
458.20535
 21
136.967821
 31
0.0
  0
LINE
  5
33C
100
AcDbEntity
  8
LAY-1
  6
CONTINUOUS
 62
     2
100
AcDbLine
 10
452.20535
 20
152.739007
 30
0.0
 11
458.20535
 21
152.739007
 31
0.0
  0
LINE
  5
33D
100
AcDbEntity
  8
LAY-1
  6
CONTINUOUS
 62
     2
100
AcDbLine
 10
454.20535
 20
85.739007
 30
0.0
 11
452.20535
 21
85.739007
 31
0.0
  0
LINE
  5
33E
100
AcDbEntity
  8
LAY-1
  6
CONTINUOUS
 62
     2
100
AcDbLine
 10
461.048342
 20
147.310441
 30
0.0
 11
472.440861
 21
146.713384
 31
0.0
  0
ARC
  5
33F
100
AcDbEntity
  8
LAY-1
  6
CONTINUOUS
 62
     2
100
AcDbCircle
 10
457.20535
 20
86.739007
 30
0.0
 40
1.0
100
AcDbArc
 50
270.0
 51
0.0
  0
LINE
  5
340
100
AcDbEntity
  8
LAY-1
  6
CONTINUOUS
 62
     2
100
AcDbLine
 10
464.077933
 20
85.739007
 30
0.0
 11
454.20535
 21
85.739007
 31
0.0
  0
LINE
  5
341
100
AcDbEntity
  8
LAY-1
  6
CONTINUOUS
 62
     2
100
AcDbLine
 10
458.20535
 20
101.510193
 30
0.0
 11
458.20535
 21
86.739007
 31
0.0
  0
ARC
  5
342
100
AcDbEntity
  8
LAY-1
  6
CONTINUOUS
 62
     2
100
AcDbCircle
 10
472.20535
 20
142.219551
 30
0.0
 40
4.5
100
AcDbArc
 50
0.0
 51
87.0
  0
ARC
  5
343
100
AcDbEntity
  8
LAY-1
  6
CONTINUOUS
 62
     2
100
AcDbCircle
 10
470.70535
 20
91.557282
 30
0.0
 40
17.318275
100
AcDbArc
 50
247.5
 51
292.5
  0
ARC
  5
344
100
AcDbEntity
  8
LAY-1
  6
CONTINUOUS
 62
     2
100
AcDbCircle
 10
459.391641
 20
83.225334
 30
0.0
 40
8.986676
100
AcDbArc
 50
238.569021
 51
301.430979
  0
LINE
  5
345
100
AcDbEntity
  8
LAY-1
  6
CONTINUOUS
 62
     2
100
AcDbLine
 10
486.70535
 20
74.239007
 30
0.0
 11
454.70535
 21
74.239007
 31
0.0
  0
ARC
  5
346
100
AcDbEntity
  8
LAY-1
  6
CONTINUOUS
 62
     2
100
AcDbCircle
 10
461.20535
 20
150.306329
 30
0.0
 40
3.0
100
AcDbArc
 50
180.0
 51
267.0
  0
LINE
  5
347
100
AcDbEntity
  8
LAY-1
  6
CONTINUOUS
 62
     2
100
AcDbLine
 10
477.332767
 20
75.557282
 30
0.0
 11
477.332767
 21
92.920732
 31
0.0
  0
ARC
  5
348
100
AcDbEntity
  8
LAY-1
  6
CONTINUOUS
 62
     2
100
AcDbCircle
 10
482.019058
 20
83.227339
 30
0.0
 40
8.988387
100
AcDbArc
 50
238.575686
 51
301.424314
  0
LINE
  5
349
100
AcDbEntity
  8
LAY-1
  6
CONTINUOUS
 62
     2
100
AcDbLine
 10
464.077933
 20
85.739007
 30
0.0
 11
464.077933
 21
75.557282
 31
0.0
  0
LINE
  5
34A
100
AcDbEntity
  8
LAY-1
  6
CONTINUOUS
 62
     2
100
AcDbLine
 10
454.70535
 20
85.739007
 30
0.0
 11
454.70535
 21
74.239007
 31
0.0
  0
LINE
  5
34B
100
AcDbEntity
  8
LAY-1
  6
CONTINUOUS
 62
     2
100
AcDbLine
 10
486.70535
 20
74.239007
 30
0.0
 11
486.70535
 21
136.312147
 31
0.0
  0
ARC
  5
34C
100
AcDbEntity
  8
LAY-1
  6
CONTINUOUS
 62
     2
100
AcDbCircle
 10
476.45535
 20
52.630969
 30
0.0
 40
16.608038
100
AcDbArc
 50
69.743842
 51
110.256158
  0
ARC
  5
34D
100
AcDbEntity
  8
LAY-1
  6
CONTINUOUS
 62
     2
100
AcDbCircle
 10
476.45535
 20
77.847045
 30
0.0
 40
16.608038
100
AcDbArc
 50
249.743842
 51
290.256158
  0
ARC
  5
34E
100
AcDbEntity
  8
LAY-1
  6
CONTINUOUS
 62
     2
100
AcDbCircle
 10
464.95535
 20
77.847045
 30
0.0
 40
16.608038
100
AcDbArc
 50
249.743842
 51
290.256158
  0
ARC
  5
34F
100
AcDbEntity
  8
LAY-1
  6
CONTINUOUS
 62
     2
100
AcDbCircle
 10
464.95535
 20
52.630969
 30
0.0
 40
16.608038
100
AcDbArc
 50
69.743842
 51
110.256158
  0
LINE
  5
350
100
AcDbEntity
  8
LAY-1
  6
CONTINUOUS
 62
     2
100
AcDbLine
 10
482.20535
 20
69.239007
 30
0.0
 11
482.20535
 21
61.239007
 31
0.0
  0
LINE
  5
351
100
AcDbEntity
  8
LAY-1
  6
CONTINUOUS
 62
     2
100
AcDbLine
 10
459.20535
 20
69.239007
 30
0.0
 11
482.20535
 21
69.239007
 31
0.0
  0
LINE
  5
352
100
AcDbEntity
  8
LAY-1
  6
CONTINUOUS
 62
     2
100
AcDbLine
 10
459.20535
 20
61.239007
 30
0.0
 11
459.20535
 21
69.239007
 31
0.0
  0
LINE
  5
353
100
AcDbEntity
  8
LAY-1
  6
CONTINUOUS
 62
     1
100
AcDbLine
 10
460.92564
 20
71.739007
 30
0.0
 11
459.692839
 21
69.603733
 31
0.0
  0
LINE
  5
354
100
AcDbEntity
  8
LAY-1
  6
CONTINUOUS
 62
     1
100
AcDbLine
 10
480.485059
 20
71.739007
 30
0.0
 11
481.71786
 21
69.603733
 31
0.0
  0
LINE
  5
355
100
AcDbEntity
  8
LAY-1
  6
CONTINUOUS
 62
     2
100
AcDbLine
 10
481.647059
 20
71.739007
 30
0.0
 11
459.76364
 21
71.739007
 31
0.0
  0
LINE
  5
356
100
AcDbEntity
  8
LAY-1
  6
CONTINUOUS
 62
     2
100
AcDbLine
 10
459.680746
 20
69.239007
 30
0.0
 11
459.846035
 21
74.22394
 31
0.0
  0
LINE
  5
357
100
AcDbEntity
  8
LAY-1
  6
CONTINUOUS
 62
     1
100
AcDbLine
 10
480.485059
 20
71.739007
 30
0.0
 11
480.402174
 21
74.238713
 31
0.0
  0
LINE
  5
358
100
AcDbEntity
  8
LAY-1
  6
CONTINUOUS
 62
     2
100
AcDbLine
 10
481.729953
 20
69.239007
 30
0.0
 11
481.564664
 21
74.22394
 31
0.0
  0
LINE
  5
359
100
AcDbEntity
  8
LAY-1
  6
CONTINUOUS
 62
     2
100
AcDbLine
 10
452.20535
 20
85.739007
 30
0.0
 11
452.20535
 21
110.589585
 31
0.0
  0
LINE
  5
35A
100
AcDbEntity
  8
LAY-1
  6
CONTINUOUS
 62
     2
100
AcDbLine
 10
452.20535
 20
127.888429
 30
0.0
 11
452.20535
 21
152.739007
 31
0.0
  0
LINE
  5
35B
100
AcDbEntity
  8
LAY-1
  6
CONTINUOUS
 62
     2
100
AcDbLine
 10
476.70535
 20
96.258463
 30
0.0
 11
476.70535
 21
106.01025
 31
0.0
  0
LINE
  5
35C
100
AcDbEntity
  8
LAY-1
  6
CONTINUOUS
 62
     2
100
AcDbLine
 10
476.70535
 20
142.219551
 30
0.0
 11
476.70535
 21
132.467763
 31
0.0
  0
LINE
  5
35D
100
AcDbEntity
  8
LAY-1
  6
CONTINUOUS
 62
     2
100
AcDbLine
 10
77.666076
 20
8.239007
 30
0.0
 11
76.951545
 21
7.001403
 31
0.0
  0
LINE
  5
35E
100
AcDbEntity
  8
LAY-1
  6
CONTINUOUS
 62
     2
100
AcDbLine
 10
96.666076
 20
16.239007
 30
0.0
 11
96.666076
 21
24.239007
 31
0.0
  0
LINE
  5
35F
100
AcDbEntity
  8
LAY-1
  6
CONTINUOUS
 62
     2
100
AcDbLine
 10
96.666076
 20
24.239007
 30
0.0
 11
95.951545
 21
25.476611
 31
0.0
  0
LINE
  5
360
100
AcDbEntity
  8
LAY-1
  6
CONTINUOUS
 62
     1
100
AcDbLine
 10
89.294336
 20
11.239007
 30
0.0
 11
88.122604
 21
11.915507
 31
0.0
  0
LINE
  5
361
100
AcDbEntity
  8
LAY-1
  6
CONTINUOUS
 62
     2
100
AcDbLine
 10
88.122604
 20
21.239007
 30
0.0
 11
88.122604
 21
11.239007
 31
0.0
  0
LINE
  5
362
100
AcDbEntity
  8
LAY-1
  6
CONTINUOUS
 62
     2
100
AcDbLine
 10
89.666076
 20
25.476611
 30
0.0
 11
89.666076
 21
16.239007
 31
0.0
  0
LINE
  5
363
100
AcDbEntity
  8
LAY-1
  6
CONTINUOUS
 62
     2
100
AcDbLine
 10
95.951545
 20
25.476611
 30
0.0
 11
89.666076
 21
25.476611
 31
0.0
  0
LINE
  5
364
100
AcDbEntity
  8
LAY-1
  6
EXLTYPE3
 62
     1
100
AcDbLine
 10
13.666076
 20
98.598995
 30
0.0
 11
13.666076
 21
-106.230007
 31
0.0
  0
LINE
  5
365
100
AcDbEntity
  8
LAY-1
  6
CONTINUOUS
 62
     2
100
AcDbLine
 10
76.951545
 20
20.857809
 30
0.0
 11
69.666076
 21
20.857809
 31
0.0
  0
LINE
  5
366
100
AcDbEntity
  8
LAY-1
  6
CONTINUOUS
 62
     2
100
AcDbLine
 10
76.951545
 20
11.620205
 30
0.0
 11
69.666076
 21
11.620205
 31
0.0
  0
LINE
  5
367
100
AcDbEntity
  8
LAY-1
  6
CONTINUOUS
 62
     2
100
AcDbLine
 10
69.666076
 20
7.001403
 30
0.0
 11
76.951545
 21
7.001403
 31
0.0
  0
LINE
  5
368
100
AcDbEntity
  8
LAY-1
  6
CONTINUOUS
 62
     2
100
AcDbLine
 10
76.951545
 20
25.476611
 30
0.0
 11
69.666076
 21
25.476611
 31
0.0
  0
ARC
  5
369
100
AcDbEntity
  8
LAY-1
  6
CONTINUOUS
 62
     2
100
AcDbCircle
 10
73.576759
 20
23.16721
 30
0.0
 40
4.089316
100
AcDbArc
 50
325.615753
 51
25.615753
  0
ARC
  5
36A
100
AcDbEntity
  8
LAY-1
  6
CONTINUOUS
 62
     2
100
AcDbCircle
 10
62.380607
 20
16.239007
 30
0.0
 40
15.285469
100
AcDbArc
 50
342.412046
 51
17.587954
  0
LINE
  5
36B
100
AcDbEntity
  8
LAY-1
  6
CONTINUOUS
 62
     2
100
AcDbLine
 10
77.666076
 20
16.239007
 30
0.0
 11
77.666076
 21
24.239007
 31
0.0
  0
LINE
  5
36C
100
AcDbEntity
  8
LAY-1
  6
CONTINUOUS
 62
     2
100
AcDbLine
 10
77.666076
 20
11.239007
 30
0.0
 11
89.666076
 21
11.239007
 31
0.0
  0
ARC
  5
36D
100
AcDbEntity
  8
LAY-1
  6
CONTINUOUS
 62
     2
100
AcDbCircle
 10
73.576759
 20
9.310804
 30
0.0
 40
4.089316
100
AcDbArc
 50
334.384247
 51
34.384247
  0
LINE
  5
36E
100
AcDbEntity
  8
LAY-1
  6
CONTINUOUS
 62
     2
100
AcDbLine
 10
77.666076
 20
16.239007
 30
0.0
 11
77.666076
 21
8.239007
 31
0.0
  0
LINE
  5
36F
100
AcDbEntity
  8
LAY-1
  6
CONTINUOUS
 62
     2
100
AcDbLine
 10
77.666076
 20
21.239007
 30
0.0
 11
89.666076
 21
21.239007
 31
0.0
  0
LINE
  5
370
100
AcDbEntity
  8
LAY-1
  6
CONTINUOUS
 62
     2
100
AcDbLine
 10
77.666076
 20
24.239007
 30
0.0
 11
76.951545
 21
25.476611
 31
0.0
  0
LINE
  5
371
100
AcDbEntity
  8
LAY-1
  6
CONTINUOUS
 62
     1
100
AcDbLine
 10
88.122604
 20
11.915507
 30
0.0
 11
77.666076
 21
11.915507
 31
0.0
  0
LINE
  5
372
100
AcDbEntity
  8
LAY-1
  6
CONTINUOUS
 62
     1
100
AcDbLine
 10
88.122604
 20
20.562507
 30
0.0
 11
77.666076
 21
20.562507
 31
0.0
  0
LINE
  5
373
100
AcDbEntity
  8
LAY-1
  6
CONTINUOUS
 62
     1
100
AcDbLine
 10
89.294336
 20
21.239007
 30
0.0
 11
88.122604
 21
20.562507
 31
0.0
  0
LINE
  5
374
100
AcDbEntity
  8
LAY-1
  6
CONTINUOUS
 62
     2
100
AcDbLine
 10
95.951545
 20
11.620205
 30
0.0
 11
89.666076
 21
11.620205
 31
0.0
  0
LINE
  5
375
100
AcDbEntity
  8
LAY-1
  6
CONTINUOUS
 62
     2
100
AcDbLine
 10
95.951545
 20
20.857809
 30
0.0
 11
89.666076
 21
20.857809
 31
0.0
  0
ARC
  5
376
100
AcDbEntity
  8
LAY-1
  6
CONTINUOUS
 62
     2
100
AcDbCircle
 10
81.380607
 20
16.239007
 30
0.0
 40
15.285469
100
AcDbArc
 50
342.412046
 51
17.587954
  0
LINE
  5
377
100
AcDbEntity
  8
LAY-1
  6
CONTINUOUS
 62
     2
100
AcDbLine
 10
96.666076
 20
16.239007
 30
0.0
 11
96.666076
 21
8.239007
 31
0.0
  0
LINE
  5
378
100
AcDbEntity
  8
LAY-1
  6
CONTINUOUS
 62
     2
100
AcDbLine
 10
96.666076
 20
8.239007
 30
0.0
 11
95.951545
 21
7.001403
 31
0.0
  0
LINE
  5
379
100
AcDbEntity
  8
LAY-1
  6
CONTINUOUS
 62
     2
100
AcDbLine
 10
95.951545
 20
7.001403
 30
0.0
 11
89.666076
 21
7.001403
 31
0.0
  0
LINE
  5
37A
100
AcDbEntity
  8
LAY-1
  6
CONTINUOUS
 62
     2
100
AcDbLine
 10
89.666076
 20
7.001403
 30
0.0
 11
89.666076
 21
16.239007
 31
0.0
  0
ARC
  5
37B
100
AcDbEntity
  8
LAY-1
  6
CONTINUOUS
 62
     2
100
AcDbCircle
 10
92.576759
 20
9.310804
 30
0.0
 40
4.089316
100
AcDbArc
 50
334.384247
 51
34.384247
  0
ARC
  5
37C
100
AcDbEntity
  8
LAY-1
  6
CONTINUOUS
 62
     2
100
AcDbCircle
 10
92.576759
 20
23.16721
 30
0.0
 40
4.089316
100
AcDbArc
 50
325.615753
 51
25.615753
  0
ARC
  5
37D
100
AcDbEntity
  8
LAY-1
  6
CONTINUOUS
 62
     2
100
AcDbCircle
 10
25.482814
 20
-54.860993
 30
0.0
 40
1.0
100
AcDbArc
 50
181.789911
 51
270.0
  0
LINE
  5
37E
100
AcDbEntity
  8
LAY-1
  6
CONTINUOUS
 62
     1
100
AcDbLine
 10
23.194701
 20
-50.840993
 30
0.0
 11
24.423195
 21
-52.968807
 31
0.0
  0
LINE
  5
37F
100
AcDbEntity
  8
LAY-1
  6
CONTINUOUS
 62
     2
100
AcDbLine
 10
27.166076
 20
-86.760993
 30
0.0
 11
0.166076
 21
-86.760993
 31
0.0
  0
LINE
  5
380
100
AcDbEntity
  8
LAY-1
  6
CONTINUOUS
 62
     2
100
AcDbLine
 10
13.666076
 20
-85.260993
 30
0.0
 11
33.666076
 21
-85.260993
 31
0.0
  0
LINE
  5
381
100
AcDbEntity
  8
LAY-1
  6
CONTINUOUS
 62
     2
100
AcDbLine
 10
34.666076
 20
-84.260993
 30
0.0
 11
34.666076
 21
-68.260993
 31
0.0
  0
LINE
  5
382
100
AcDbEntity
  8
LAY-1
  6
CONTINUOUS
 62
     2
100
AcDbLine
 10
33.666076
 20
-67.260993
 30
0.0
 11
13.666076
 21
-67.260993
 31
0.0
  0
ARC
  5
383
100
AcDbEntity
  8
LAY-1
  6
CONTINUOUS
 62
     2
100
AcDbCircle
 10
28.513749
 20
-86.686556
 30
0.0
 40
19.425563
100
AcDbArc
 50
71.535747
 51
108.454493
  0
ARC
  5
384
100
AcDbEntity
  8
LAY-1
  6
CONTINUOUS
 62
     2
100
AcDbCircle
 10
33.666076
 20
-84.260993
 30
0.0
 40
1.0
100
AcDbArc
 50
270.0
 51
0.0
  0
ARC
  5
385
100
AcDbEntity
  8
LAY-1
  6
CONTINUOUS
 62
     2
100
AcDbCircle
 10
33.666076
 20
-68.260993
 30
0.0
 40
1.0
100
AcDbArc
 50
0.0
 51
90.0
  0
ARC
  5
386
100
AcDbEntity
  8
LAY-1
  6
CONTINUOUS
 62
     2
100
AcDbCircle
 10
-6.333924
 20
-68.260993
 30
0.0
 40
1.0
100
AcDbArc
 50
90.0
 51
180.0
  0
ARC
  5
387
100
AcDbEntity
  8
LAY-1
  6
CONTINUOUS
 62
     2
100
AcDbCircle
 10
-6.333924
 20
-84.260993
 30
0.0
 40
1.0
100
AcDbArc
 50
180.0
 51
270.0
  0
ARC
  5
388
100
AcDbEntity
  8
LAY-1
  6
CONTINUOUS
 62
     2
100
AcDbCircle
 10
13.666076
 20
-105.631965
 30
0.0
 40
38.370972
100
AcDbArc
 50
76.897464
 51
103.102536
  0
ARC
  5
389
100
AcDbEntity
  8
LAY-1
  6
CONTINUOUS
 62
     2
100
AcDbCircle
 10
-1.181597
 20
-86.686556
 30
0.0
 40
19.425563
100
AcDbArc
 50
71.545507
 51
108.464253
  0
ARC
  5
38A
100
AcDbEntity
  8
LAY-1
  6
CONTINUOUS
 62
     2
100
AcDbCircle
 10
-1.181597
 20
-65.83543
 30
0.0
 40
19.425563
100
AcDbArc
 50
251.535747
 51
288.454493
  0
ARC
  5
38B
100
AcDbEntity
  8
LAY-1
  6
CONTINUOUS
 62
     2
100
AcDbCircle
 10
13.666076
 20
-46.890021
 30
0.0
 40
38.370972
100
AcDbArc
 50
256.897464
 51
283.102536
  0
ARC
  5
38C
100
AcDbEntity
  8
LAY-1
  6
CONTINUOUS
 62
     2
100
AcDbCircle
 10
28.513749
 20
-65.83543
 30
0.0
 40
19.425563
100
AcDbArc
 50
251.545507
 51
288.464253
  0
LINE
  5
38D
100
AcDbEntity
  8
LAY-1
  6
CONTINUOUS
 62
     2
100
AcDbLine
 10
23.194701
 20
-50.840993
 30
0.0
 11
4.137451
 21
-50.840993
 31
0.0
  0
LINE
  5
38E
100
AcDbEntity
  8
LAY-1
  6
CONTINUOUS
 62
     2
100
AcDbLine
 10
25.482814
 20
-55.860993
 30
0.0
 11
1.849338
 21
-55.860993
 31
0.0
  0
ARC
  5
38F
100
AcDbEntity
  8
LAY-1
  6
CONTINUOUS
 62
     2
100
AcDbCircle
 10
23.212017
 20
-60.881929
 30
0.0
 40
5.020936
100
AcDbArc
 50
38.046182
 51
141.953818
  0
ARC
  5
390
100
AcDbEntity
  8
LAY-1
  6
CONTINUOUS
 62
     2
100
AcDbCircle
 10
13.666076
 20
-64.939589
 30
0.0
 40
9.078596
100
AcDbArc
 50
51.979644
 51
128.020356
  0
ARC
  5
391
100
AcDbEntity
  8
LAY-1
  6
CONTINUOUS
 62
     2
100
AcDbCircle
 10
4.120134
 20
-60.881929
 30
0.0
 40
5.020936
100
AcDbArc
 50
38.046182
 51
141.953818
  0
LINE
  5
392
100
AcDbEntity
  8
LAY-1
  6
CONTINUOUS
 62
     2
100
AcDbLine
 10
8.074193
 20
-67.260993
 30
0.0
 11
8.074193
 21
-57.787544
 31
0.0
  0
LINE
  5
393
100
AcDbEntity
  8
LAY-1
  6
CONTINUOUS
 62
     2
100
AcDbLine
 10
19.257959
 20
-67.260993
 30
0.0
 11
19.257959
 21
-57.787544
 31
0.0
  0
ARC
  5
394
100
AcDbEntity
  8
LAY-1
  6
CONTINUOUS
 62
     2
100
AcDbCircle
 10
1.849338
 20
-54.860993
 30
0.0
 40
1.0
100
AcDbArc
 50
270.0
 51
358.210089
  0
LINE
  5
395
100
AcDbEntity
  8
LAY-1
  6
CONTINUOUS
 62
     2
100
AcDbLine
 10
13.666076
 20
-98.760993
 30
0.0
 11
1.166076
 21
-98.760993
 31
0.0
  0
LINE
  5
396
100
AcDbEntity
  8
LAY-1
  6
CONTINUOUS
 62
     2
100
AcDbLine
 10
0.166076
 20
-67.260993
 30
0.0
 11
0.166076
 21
-56.860993
 31
0.0
  0
LINE
  5
397
100
AcDbEntity
  8
LAY-1
  6
CONTINUOUS
 62
     2
100
AcDbLine
 10
0.166076
 20
-97.760993
 30
0.0
 11
0.166076
 21
-87.760993
 31
0.0
  0
LINE
  5
398
100
AcDbEntity
  8
LAY-1
  6
CONTINUOUS
 62
     2
100
AcDbLine
 10
1.166076
 20
-55.860993
 30
0.0
 11
1.849338
 21
-55.860993
 31
0.0
  0
LINE
  5
399
100
AcDbEntity
  8
LAY-1
  6
CONTINUOUS
 62
     2
100
AcDbLine
 10
2.84885
 20
-54.892228
 30
0.0
 11
3.134201
 21
-45.760993
 31
0.0
  0
LINE
  5
39A
100
AcDbEntity
  8
LAY-1
  6
CONTINUOUS
 62
     2
100
AcDbLine
 10
-7.333924
 20
-84.260993
 30
0.0
 11
-7.333924
 21
-68.260993
 31
0.0
  0
LINE
  5
39B
100
AcDbEntity
  8
LAY-1
  6
CONTINUOUS
 62
     2
100
AcDbLine
 10
13.666076
 20
-85.260993
 30
0.0
 11
-6.333924
 21
-85.260993
 31
0.0
  0
LINE
  5
39C
100
AcDbEntity
  8
LAY-1
  6
CONTINUOUS
 62
     1
100
AcDbLine
 10
4.296201
 20
-45.760993
 30
0.0
 11
4.137451
 21
-50.840993
 31
0.0
  0
LINE
  5
39D
100
AcDbEntity
  8
LAY-1
  6
CONTINUOUS
 62
     1
100
AcDbLine
 10
4.137451
 20
-50.840993
 30
0.0
 11
2.908957
 21
-52.968807
 31
0.0
  0
ARC
  5
39E
100
AcDbEntity
  8
LAY-1
  6
CONTINUOUS
 62
     2
100
AcDbCircle
 10
1.166076
 20
-56.860993
 30
0.0
 40
1.0
100
AcDbArc
 50
90.0
 51
180.0
  0
LINE
  5
39F
100
AcDbEntity
  8
LAY-1
  6
CONTINUOUS
 62
     2
100
AcDbLine
 10
0.166076
 20
-86.760993
 30
0.0
 11
-3.833924
 21
-86.760993
 31
0.0
  0
LINE
  5
3A0
100
AcDbEntity
  8
LAY-1
  6
CONTINUOUS
 62
     2
100
AcDbLine
 10
-3.833924
 20
-86.760993
 30
0.0
 11
-3.833924
 21
-85.260993
 31
0.0
  0
LINE
  5
3A1
100
AcDbEntity
  8
LAY-1
  6
CONTINUOUS
 62
     2
100
AcDbLine
 10
2.975451
 20
-50.840993
 30
0.0
 11
4.137451
 21
-50.840993
 31
0.0
  0
ARC
  5
3A2
100
AcDbEntity
  8
LAY-1
  6
CONTINUOUS
 62
     2
100
AcDbCircle
 10
26.166076
 20
-56.860993
 30
0.0
 40
1.0
100
AcDbArc
 50
0.0
 51
90.0
  0
LINE
  5
3A3
100
AcDbEntity
  8
LAY-1
  6
CONTINUOUS
 62
     2
100
AcDbLine
 10
-6.333924
 20
-67.260993
 30
0.0
 11
13.666076
 21
-67.260993
 31
0.0
  0
LINE
  5
3A4
100
AcDbEntity
  8
LAY-1
  6
CONTINUOUS
 62
     2
100
AcDbLine
 10
27.166076
 20
-67.260993
 30
0.0
 11
27.166076
 21
-56.860993
 31
0.0
  0
LINE
  5
3A5
100
AcDbEntity
  8
LAY-1
  6
CONTINUOUS
 62
     2
100
AcDbLine
 10
26.166076
 20
-55.860993
 30
0.0
 11
25.482814
 21
-55.860993
 31
0.0
  0
LINE
  5
3A6
100
AcDbEntity
  8
LAY-1
  6
CONTINUOUS
 62
     2
100
AcDbLine
 10
24.483302
 20
-54.892228
 30
0.0
 11
24.197951
 21
-45.760993
 31
0.0
  0
LINE
  5
3A7
100
AcDbEntity
  8
LAY-1
  6
CONTINUOUS
 62
     2
100
AcDbLine
 10
24.356701
 20
-50.840993
 30
0.0
 11
23.194701
 21
-50.840993
 31
0.0
  0
ARC
  5
3A8
100
AcDbEntity
  8
LAY-1
  6
CONTINUOUS
 62
     2
100
AcDbCircle
 10
26.166076
 20
-97.760993
 30
0.0
 40
1.0
100
AcDbArc
 50
270.0
 51
0.0
  0
LINE
  5
3A9
100
AcDbEntity
  8
LAY-1
  6
CONTINUOUS
 62
     2
100
AcDbLine
 10
30.083544
 20
-86.760993
 30
0.0
 11
30.083544
 21
-85.197461
 31
0.0
  0
LINE
  5
3AA
100
AcDbEntity
  8
LAY-1
  6
CONTINUOUS
 62
     2
100
AcDbLine
 10
31.166076
 20
-86.760993
 30
0.0
 11
31.166076
 21
-85.260993
 31
0.0
  0
LINE
  5
3AB
100
AcDbEntity
  8
LAY-1
  6
CONTINUOUS
 62
     2
100
AcDbLine
 10
27.166076
 20
-86.760993
 30
0.0
 11
31.166076
 21
-86.760993
 31
0.0
  0
LINE
  5
3AC
100
AcDbEntity
  8
LAY-1
  6
CONTINUOUS
 62
     2
100
AcDbLine
 10
27.166076
 20
-97.760993
 30
0.0
 11
27.166076
 21
-87.760993
 31
0.0
  0
LINE
  5
3AD
100
AcDbEntity
  8
LAY-1
  6
CONTINUOUS
 62
     2
100
AcDbLine
 10
13.666076
 20
-98.760993
 30
0.0
 11
26.166076
 21
-98.760993
 31
0.0
  0
ARC
  5
3AE
100
AcDbEntity
  8
LAY-1
  6
CONTINUOUS
 62
     2
100
AcDbCircle
 10
1.166076
 20
-97.760993
 30
0.0
 40
1.0
100
AcDbArc
 50
180.0
 51
270.0
  0
ARC
  5
3AF
100
AcDbEntity
  8
LAY-1
  6
CONTINUOUS
 62
     2
100
AcDbCircle
 10
28.166076
 20
-87.760993
 30
0.0
 40
1.0
100
AcDbArc
 50
90.0
 51
180.0
  0
ARC
  5
3B0
100
AcDbEntity
  8
LAY-1
  6
CONTINUOUS
 62
     2
100
AcDbCircle
 10
-0.833924
 20
-87.760993
 30
0.0
 40
1.0
100
AcDbArc
 50
0.0
 51
90.0
  0
ARC
  5
3B1
100
AcDbEntity
  8
LAY-1
  6
CONTINUOUS
 62
     2
100
AcDbCircle
 10
23.212017
 20
-86.266921
 30
0.0
 40
12.494073
100
AcDbArc
 50
251.550134
 51
288.449866
  0
ARC
  5
3B2
100
AcDbEntity
  8
LAY-1
  6
CONTINUOUS
 62
     2
100
AcDbCircle
 10
13.666076
 20
-74.09394
 30
0.0
 40
24.667053
100
AcDbArc
 50
256.897464
 51
283.102536
  0
ARC
  5
3B3
100
AcDbEntity
  8
LAY-1
  6
CONTINUOUS
 62
     2
100
AcDbCircle
 10
4.120134
 20
-86.266921
 30
0.0
 40
12.494073
100
AcDbArc
 50
251.550134
 51
288.449866
  0
LINE
  5
3B4
100
AcDbEntity
  8
LAY-1
  6
CONTINUOUS
 62
     2
100
AcDbLine
 10
-2.751392
 20
-86.760993
 30
0.0
 11
-2.751392
 21
-85.260993
 31
0.0
  0
LINE
  5
3B5
100
AcDbEntity
  8
LAY-1
  6
CONTINUOUS
 62
     2
100
AcDbLine
 10
19.257959
 20
-98.118809
 30
0.0
 11
19.257959
 21
-86.760993
 31
0.0
  0
LINE
  5
3B6
100
AcDbEntity
  8
LAY-1
  6
CONTINUOUS
 62
     2
100
AcDbLine
 10
8.074193
 20
-86.760993
 30
0.0
 11
8.074193
 21
-98.118809
 31
0.0
  0
LINE
  5
3B7
100
AcDbEntity
  8
LAY-1
  6
CONTINUOUS
 62
     2
100
AcDbLine
 10
4.967591
 20
-68.259945
 30
0.0
 11
4.967591
 21
-84.262041
 31
0.0
  0
LINE
  5
3B8
100
AcDbEntity
  8
LAY-1
  6
CONTINUOUS
 62
     2
100
AcDbLine
 10
22.364561
 20
-68.259945
 30
0.0
 11
22.364561
 21
-84.262041
 31
0.0
  0
LINE
  5
3B9
100
AcDbEntity
  8
LAY-1
  6
CONTINUOUS
 62
     2
100
AcDbLine
 10
35.166076
 20
-41.260993
 30
0.0
 11
35.166076
 21
-28.260993
 31
0.0
  0
LINE
  5
3BA
100
AcDbEntity
  8
LAY-1
  6
CONTINUOUS
 62
     2
100
AcDbLine
 10
34.166076
 20
-27.260993
 30
0.0
 11
26.666076
 21
-27.260993
 31
0.0
  0
ARC
  5
3BB
100
AcDbEntity
  8
LAY-1
  6
CONTINUOUS
 62
     2
100
AcDbCircle
 10
26.666076
 20
-26.260993
 30
0.0
 40
1.0
100
AcDbArc
 50
180.0
 51
270.0
  0
ARC
  5
3BC
100
AcDbEntity
  8
LAY-1
  6
CONTINUOUS
 62
     2
100
AcDbCircle
 10
34.166076
 20
-28.260993
 30
0.0
 40
1.0
100
AcDbArc
 50
0.0
 51
90.0
  0
ARC
  5
3BD
100
AcDbEntity
  8
LAY-1
  6
CONTINUOUS
 62
     2
100
AcDbCircle
 10
34.166076
 20
-41.260993
 30
0.0
 40
1.0
100
AcDbArc
 50
270.0
 51
0.0
  0
LINE
  5
3BE
100
AcDbEntity
  8
LAY-1
  6
CONTINUOUS
 62
     2
100
AcDbLine
 10
-2.333924
 20
-32.760993
 30
0.0
 11
-2.333924
 21
-44.760993
 31
0.0
  0
LINE
  5
3BF
100
AcDbEntity
  8
LAY-1
  6
CONTINUOUS
 62
     2
100
AcDbLine
 10
-2.333924
 20
-32.760993
 30
0.0
 11
1.532101
 21
-26.064841
 31
0.0
  0
ARC
  5
3C0
100
AcDbEntity
  8
LAY-1
  6
CONTINUOUS
 62
     2
100
AcDbCircle
 10
-1.333924
 20
-44.760993
 30
0.0
 40
1.0
100
AcDbArc
 50
180.0
 51
270.0
  0
LINE
  5
3C1
100
AcDbEntity
  8
LAY-1
  6
CONTINUOUS
 62
     2
100
AcDbLine
 10
1.666076
 20
-1.569891
 30
0.0
 11
1.666076
 21
-25.564841
 31
0.0
  0
LINE
  5
3C2
100
AcDbEntity
  8
LAY-1
  6
CONTINUOUS
 62
     2
100
AcDbLine
 10
25.666076
 20
-26.260993
 30
0.0
 11
25.666076
 21
-25.260993
 31
0.0
  0
ARC
  5
3C3
100
AcDbEntity
  8
LAY-1
  6
CONTINUOUS
 62
     2
100
AcDbCircle
 10
26.666076
 20
-25.260993
 30
0.0
 40
1.0
100
AcDbArc
 50
90.0
 51
180.0
  0
LINE
  5
3C4
100
AcDbEntity
  8
LAY-1
  6
CONTINUOUS
 62
     2
100
AcDbLine
 10
-3.833924
 20
28.882608
 30
0.0
 11
-3.833924
 21
3.595405
 31
0.0
  0
LINE
  5
3C5
100
AcDbEntity
  8
LAY-1
  6
CONTINUOUS
 62
     2
100
AcDbLine
 10
28.666076
 20
56.739007
 30
0.0
 11
28.666076
 21
53.603818
 31
0.0
  0
ARC
  5
3C6
100
AcDbEntity
  8
LAY-1
  6
CONTINUOUS
 62
     2
100
AcDbCircle
 10
27.666076
 20
57.739007
 30
0.0
 40
1.0
100
AcDbArc
 50
180.0
 51
270.0
  0
LINE
  5
3C7
100
AcDbEntity
  8
LAY-1
  6
CONTINUOUS
 62
     2
100
AcDbLine
 10
1.666076
 20
34.047905
 30
0.0
 11
1.666076
 21
45.324793
 31
0.0
  0
LINE
  5
3C8
100
AcDbEntity
  8
LAY-1
  6
CONTINUOUS
 62
     2
100
AcDbLine
 10
0.666076
 20
47.15322
 30
0.0
 11
0.666076
 21
60.239007
 31
0.0
  0
ARC
  5
3C9
100
AcDbEntity
  8
LAY-1
  6
CONTINUOUS
 62
     2
100
AcDbCircle
 10
0.166076
 20
28.882608
 30
0.0
 40
4.0
100
AcDbArc
 50
100.0
 51
180.0
  0
ARC
  5
3CA
100
AcDbEntity
  8
LAY-1
  6
CONTINUOUS
 62
     2
100
AcDbCircle
 10
0.666076
 20
34.047905
 30
0.0
 40
1.0
100
AcDbArc
 50
280.0
 51
0.0
  0
LINE
  5
3CB
100
AcDbEntity
  8
LAY-1
  6
CONTINUOUS
 62
     2
100
AcDbLine
 10
1.373183
 20
46.0319
 30
0.0
 11
0.958969
 21
46.446114
 31
0.0
  0
ARC
  5
3CC
100
AcDbEntity
  8
LAY-1
  6
CONTINUOUS
 62
     2
100
AcDbCircle
 10
0.166076
 20
3.595405
 30
0.0
 40
4.0
100
AcDbArc
 50
180.0
 51
260.0
  0
ARC
  5
3CD
100
AcDbEntity
  8
LAY-1
  6
CONTINUOUS
 62
     2
100
AcDbCircle
 10
0.666076
 20
-1.569891
 30
0.0
 40
1.0
100
AcDbArc
 50
0.0
 51
80.0
  0
ARC
  5
3CE
100
AcDbEntity
  8
LAY-1
  6
CONTINUOUS
 62
     2
100
AcDbCircle
 10
0.666076
 20
-25.564841
 30
0.0
 40
1.0
100
AcDbArc
 50
330.0
 51
0.0
  0
ARC
  5
3CF
100
AcDbEntity
  8
LAY-1
  6
CONTINUOUS
 62
     2
100
AcDbCircle
 10
0.666076
 20
45.324793
 30
0.0
 40
1.0
100
AcDbArc
 50
0.0
 51
45.0
  0
ARC
  5
3D0
100
AcDbEntity
  8
LAY-1
  6
CONTINUOUS
 62
     2
100
AcDbCircle
 10
1.666076
 20
47.15322
 30
0.0
 40
1.0
100
AcDbArc
 50
180.0
 51
225.0
  0
LINE
  5
3D1
100
AcDbEntity
  8
LAY-1
  6
CONTINUOUS
 62
     2
100
AcDbLine
 10
26.666076
 20
60.177757
 30
0.0
 11
26.666076
 21
57.739007
 31
0.0
  0
ARC
  5
3D2
100
AcDbEntity
  8
LAY-1
  6
CONTINUOUS
 62
     2
100
AcDbCircle
 10
25.666076
 20
54.739007
 30
0.0
 40
2.0
100
AcDbArc
 50
90.0
 51
180.0
  0
LINE
  5
3D3
100
AcDbEntity
  8
LAY-1
  6
CONTINUOUS
 62
     2
100
AcDbLine
 10
25.666076
 20
56.739007
 30
0.0
 11
28.666076
 21
56.739007
 31
0.0
  0
LINE
  5
3D4
100
AcDbEntity
  8
LAY-1
  6
CONTINUOUS
 62
     2
100
AcDbLine
 10
28.666076
 20
16.239007
 30
0.0
 11
28.666076
 21
-24.260993
 31
0.0
  0
LINE
  5
3D5
100
AcDbEntity
  8
LAY-1
  6
CONTINUOUS
 62
     2
100
AcDbLine
 10
28.666076
 20
53.603818
 30
0.0
 11
28.666076
 21
16.239007
 31
0.0
  0
ARC
  5
3D6
100
AcDbEntity
  8
LAY-1
  6
CONTINUOUS
 62
     2
100
AcDbCircle
 10
25.666076
 20
-22.260993
 30
0.0
 40
2.0
100
AcDbArc
 50
180.0
 51
270.0
  0
LINE
  5
3D7
100
AcDbEntity
  8
LAY-1
  6
CONTINUOUS
 62
     2
100
AcDbLine
 10
25.666076
 20
-24.260993
 30
0.0
 11
28.666076
 21
-24.260993
 31
0.0
  0
LINE
  5
3D8
100
AcDbEntity
  8
LAY-1
  6
CONTINUOUS
 62
     2
100
AcDbLine
 10
-1.333924
 20
-45.760993
 30
0.0
 11
13.666076
 21
-45.760993
 31
0.0
  0
ARC
  5
3D9
100
AcDbEntity
  8
LAY-1
  6
CONTINUOUS
 62
     2
100
AcDbCircle
 10
24.666076
 20
60.177757
 30
0.0
 40
2.0
100
AcDbArc
 50
0.0
 51
32.047676
  0
ARC
  5
3DA
100
AcDbEntity
  8
LAY-1
  6
CONTINUOUS
 62
     2
100
AcDbCircle
 10
2.666076
 20
60.177757
 30
0.0
 40
2.0
100
AcDbArc
 50
147.952324
 51
180.0
  0
ARC
  5
3DB
100
AcDbEntity
  8
LAY-1
  6
CONTINUOUS
 62
     2
100
AcDbCircle
 10
24.598076
 20
-32.418681
 30
0.0
 40
13.342312
100
AcDbArc
 50
247.675967
 51
292.324033
  0
LINE
  5
3DC
100
AcDbEntity
  8
LAY-1
  6
CONTINUOUS
 62
     2
100
AcDbLine
 10
19.530076
 20
-33.760993
 30
0.0
 11
19.530076
 21
-44.760993
 31
0.0
  0
ARC
  5
3DD
100
AcDbEntity
  8
LAY-1
  6
CONTINUOUS
 62
     2
100
AcDbCircle
 10
14.462076
 20
-32.418681
 30
0.0
 40
13.342312
100
AcDbArc
 50
266.579713
 51
292.324033
  0
ARC
  5
3DE
100
AcDbEntity
  8
LAY-1
  6
CONTINUOUS
 62
     2
100
AcDbCircle
 10
12.870076
 20
-32.418681
 30
0.0
 40
13.342312
100
AcDbArc
 50
247.675967
 51
273.420287
  0
LINE
  5
3DF
100
AcDbEntity
  8
LAY-1
  6
CONTINUOUS
 62
     2
100
AcDbLine
 10
7.802076
 20
-33.760993
 30
0.0
 11
7.802076
 21
-44.760993
 31
0.0
  0
ARC
  5
3E0
100
AcDbEntity
  8
LAY-1
  6
CONTINUOUS
 62
     2
100
AcDbCircle
 10
2.734076
 20
-32.418681
 30
0.0
 40
13.342312
100
AcDbArc
 50
247.675967
 51
292.324033
  0
ARC
  5
3E1
100
AcDbEntity
  8
LAY-1
  6
CONTINUOUS
 62
     2
100
AcDbCircle
 10
2.734076
 20
-46.103305
 30
0.0
 40
13.342312
100
AcDbArc
 50
67.675967
 51
112.324033
  0
ARC
  5
3E2
100
AcDbEntity
  8
LAY-1
  6
CONTINUOUS
 62
     2
100
AcDbCircle
 10
12.870076
 20
-46.103305
 30
0.0
 40
13.342312
100
AcDbArc
 50
86.579713
 51
112.324033
  0
ARC
  5
3E3
100
AcDbEntity
  8
LAY-1
  6
CONTINUOUS
 62
     2
100
AcDbCircle
 10
14.462076
 20
-46.103305
 30
0.0
 40
13.342312
100
AcDbArc
 50
67.675967
 51
93.420287
  0
ARC
  5
3E4
100
AcDbEntity
  8
LAY-1
  6
CONTINUOUS
 62
     2
100
AcDbCircle
 10
30.666076
 20
-43.260993
 30
0.0
 40
1.0
100
AcDbArc
 50
90.0
 51
180.0
  0
ARC
  5
3E5
100
AcDbEntity
  8
LAY-1
  6
CONTINUOUS
 62
     2
100
AcDbCircle
 10
28.666076
 20
-44.760993
 30
0.0
 40
1.0
100
AcDbArc
 50
270.0
 51
0.0
  0
LINE
  5
3E6
100
AcDbEntity
  8
LAY-1
  6
CONTINUOUS
 62
     2
100
AcDbLine
 10
13.666076
 20
-45.760993
 30
0.0
 11
28.666076
 21
-45.760993
 31
0.0
  0
LINE
  5
3E7
100
AcDbEntity
  8
LAY-1
  6
CONTINUOUS
 62
     2
100
AcDbLine
 10
30.666076
 20
-42.260993
 30
0.0
 11
34.166076
 21
-42.260993
 31
0.0
  0
LINE
  5
3E8
100
AcDbEntity
  8
LAY-1
  6
CONTINUOUS
 62
     2
100
AcDbLine
 10
-0.528517
 20
-0.343826
 30
0.0
 11
10.941931
 21
-2.366375
 31
0.0
  0
ARC
  5
3E9
100
AcDbEntity
  8
LAY-1
  6
CONTINUOUS
 62
     2
100
AcDbCircle
 10
9.205449
 20
-12.214452
 30
0.0
 40
10.0
100
AcDbArc
 50
30.0
 51
80.0
  0
LINE
  5
3EA
100
AcDbEntity
  8
LAY-1
  6
CONTINUOUS
 62
     2
100
AcDbLine
 10
23.666076
 20
-17.260993
 30
0.0
 11
17.865703
 21
-7.214452
 31
0.0
  0
LINE
  5
3EB
100
AcDbEntity
  8
LAY-1
  6
CONTINUOUS
 62
     2
100
AcDbLine
 10
23.666076
 20
49.739007
 30
0.0
 11
17.865703
 21
39.692466
 31
0.0
  0
ARC
  5
3EC
100
AcDbEntity
  8
LAY-1
  6
CONTINUOUS
 62
     2
100
AcDbCircle
 10
9.205449
 20
44.692466
 30
0.0
 40
10.0
100
AcDbArc
 50
280.0
 51
330.0
  0
LINE
  5
3ED
100
AcDbEntity
  8
LAY-1
  6
CONTINUOUS
 62
     2
100
AcDbLine
 10
-0.528517
 20
32.821839
 30
0.0
 11
10.941931
 21
34.844389
 31
0.0
  0
LINE
  5
3EE
100
AcDbEntity
  8
LAY-1
  6
CONTINUOUS
 62
     2
100
AcDbLine
 10
23.666076
 20
-22.319335
 30
0.0
 11
23.666076
 21
54.739007
 31
0.0
  0
LINE
  5
3EF
100
AcDbEntity
  8
LAY-1
  6
CONTINUOUS
 62
     2
100
AcDbLine
 10
1.733003
 20
46.680665
 30
0.0
 11
21.900342
 21
46.680665
 31
0.0
  0
LINE
  5
3F0
100
AcDbEntity
  8
LAY-1
  6
CONTINUOUS
 62
     2
100
AcDbLine
 10
2.633003
 20
45.780665
 30
0.0
 11
21.380726
 21
45.780665
 31
0.0
  0
LINE
  5
3F1
100
AcDbEntity
  8
LAY-1
  6
CONTINUOUS
 62
     2
100
AcDbLine
 10
28.666076
 20
47.437986
 30
0.0
 11
28.666076
 21
-17.210993
 31
0.0
  0
LINE
  5
3F2
100
AcDbEntity
  8
LAY-1
  6
CONTINUOUS
 62
     2
100
AcDbLine
 10
64.808875
 20
1.40023
 30
0.0
 11
43.409038
 21
0.788806
 31
0.0
  0
ARC
  5
3F3
100
AcDbEntity
  8
LAY-1
  6
CONTINUOUS
 62
     2
100
AcDbCircle
 10
43.666076
 20
-8.207523
 30
0.0
 40
9.0
100
AcDbArc
 50
91.636577
 51
180.0
  0
LINE
  5
3F4
100
AcDbEntity
  8
LAY-1
  6
CONTINUOUS
 62
     2
100
AcDbLine
 10
29.666076
 20
-22.460993
 30
0.0
 11
29.666076
 21
-23.960993
 31
0.0
  0
LINE
  5
3F5
100
AcDbEntity
  8
LAY-1
  6
CONTINUOUS
 62
     2
100
AcDbLine
 10
64.808875
 20
31.677784
 30
0.0
 11
49.166076
 21
32.124721
 31
0.0
  0
ARC
  5
3F6
100
AcDbEntity
  8
LAY-1
  6
CONTINUOUS
 62
     2
100
AcDbCircle
 10
43.666076
 20
41.285537
 30
0.0
 40
9.0
100
AcDbArc
 50
180.0
 51
268.363423
  0
ARC
  5
3F7
100
AcDbEntity
  8
LAY-1
  6
CONTINUOUS
 62
     2
100
AcDbCircle
 10
29.666076
 20
52.039007
 30
0.0
 40
5.0
100
AcDbArc
 50
0.0
 51
90.0
  0
LINE
  5
3F8
100
AcDbEntity
  8
LAY-1
  6
CONTINUOUS
 62
     2
100
AcDbLine
 10
29.666076
 20
55.539007
 30
0.0
 11
29.666076
 21
57.039007
 31
0.0
  0
LINE
  5
3F9
100
AcDbEntity
  8
LAY-1
  6
CONTINUOUS
 62
     2
100
AcDbLine
 10
49.166076
 20
32.124721
 30
0.0
 11
43.409038
 21
32.289208
 31
0.0
  0
LINE
  5
3FA
100
AcDbEntity
  8
LAY-1
  6
CONTINUOUS
 62
     2
100
AcDbLine
 10
29.666076
 20
16.239007
 30
0.0
 11
29.666076
 21
-22.460993
 31
0.0
  0
LINE
  5
3FB
100
AcDbEntity
  8
LAY-1
  6
CONTINUOUS
 62
     2
100
AcDbLine
 10
29.666076
 20
55.539007
 30
0.0
 11
29.666076
 21
16.239007
 31
0.0
  0
LINE
  5
3FC
100
AcDbEntity
  8
LAY-1
  6
CONTINUOUS
 62
     2
100
AcDbLine
 10
28.666076
 20
-17.210993
 30
0.0
 11
29.666076
 21
-17.210993
 31
0.0
  0
LINE
  5
3FD
100
AcDbEntity
  8
LAY-1
  6
CONTINUOUS
 62
     2
100
AcDbLine
 10
28.666076
 20
50.289007
 30
0.0
 11
29.666076
 21
50.289007
 31
0.0
  0
LINE
  5
3FE
100
AcDbEntity
  8
LAY-1
  6
CONTINUOUS
 62
     2
100
AcDbLine
 10
33.166076
 20
10.779178
 30
0.0
 11
34.666076
 21
10.779178
 31
0.0
  0
LINE
  5
3FF
100
AcDbEntity
  8
LAY-1
  6
CONTINUOUS
 62
     2
100
AcDbLine
 10
33.166076
 20
21.698836
 30
0.0
 11
34.666076
 21
21.698836
 31
0.0
  0
LINE
  5
400
100
AcDbEntity
  8
LAY-1
  6
CONTINUOUS
 62
     2
100
AcDbLine
 10
33.166076
 20
47.288134
 30
0.0
 11
34.666076
 21
47.288134
 31
0.0
  0
LINE
  5
401
100
AcDbEntity
  8
LAY-1
  6
CONTINUOUS
 62
     2
100
AcDbLine
 10
33.166076
 20
-14.81012
 30
0.0
 11
34.666076
 21
-14.81012
 31
0.0
  0
LINE
  5
402
100
AcDbEntity
  8
LAY-1
  6
CONTINUOUS
 62
     2
100
AcDbLine
 10
33.166076
 20
-14.81012
 30
0.0
 11
33.166076
 21
-19.828835
 31
0.0
  0
LINE
  5
403
100
AcDbEntity
  8
LAY-1
  6
CONTINUOUS
 62
     2
100
AcDbLine
 10
33.166076
 20
52.306849
 30
0.0
 11
33.166076
 21
47.288134
 31
0.0
  0
LINE
  5
404
100
AcDbEntity
  8
LAY-1
  6
CONTINUOUS
 62
     2
100
AcDbLine
 10
33.166076
 20
21.698836
 30
0.0
 11
33.166076
 21
10.779178
 31
0.0
  0
ARC
  5
405
100
AcDbEntity
  8
LAY-1
  6
CONTINUOUS
 62
     2
100
AcDbCircle
 10
64.666076
 20
6.39819
 30
0.0
 40
5.0
100
AcDbArc
 50
271.636577
 51
0.0
  0
ARC
  5
406
100
AcDbEntity
  8
LAY-1
  6
CONTINUOUS
 62
     2
100
AcDbCircle
 10
64.666076
 20
26.679824
 30
0.0
 40
5.0
100
AcDbArc
 50
0.0
 51
88.363423
  0
LINE
  5
407
100
AcDbEntity
  8
LAY-1
  6
CONTINUOUS
 62
     2
100
AcDbLine
 10
0.970862
 20
61.239007
 30
0.0
 11
26.361289
 21
61.239007
 31
0.0
  0
LINE
  5
408
100
AcDbEntity
  8
LAY-1
  6
CONTINUOUS
 62
     2
100
AcDbLine
 10
33.166076
 20
12.239007
 30
0.0
 11
34.096203
 21
12.239007
 31
0.0
  0
ARC
  5
409
100
AcDbEntity
  8
LAY-1
  6
CONTINUOUS
 62
     2
100
AcDbCircle
 10
29.766076
 20
16.239007
 30
0.0
 40
6.5
100
AcDbArc
 50
330.0
 51
0.0
  0
ARC
  5
40A
100
AcDbEntity
  8
LAY-1
  6
CONTINUOUS
 62
     2
100
AcDbCircle
 10
34.096203
 20
13.739007
 30
0.0
 40
1.5
100
AcDbArc
 50
270.0
 51
330.0
  0
LINE
  5
40B
100
AcDbEntity
  8
LAY-1
  6
CONTINUOUS
 62
     2
100
AcDbLine
 10
33.166076
 20
20.239007
 30
0.0
 11
34.096203
 21
20.239007
 31
0.0
  0
ARC
  5
40C
100
AcDbEntity
  8
LAY-1
  6
CONTINUOUS
 62
     2
100
AcDbCircle
 10
29.766076
 20
16.239007
 30
0.0
 40
6.5
100
AcDbArc
 50
0.0
 51
30.0
  0
ARC
  5
40D
100
AcDbEntity
  8
LAY-1
  6
CONTINUOUS
 62
     2
100
AcDbCircle
 10
34.096203
 20
18.739007
 30
0.0
 40
1.5
100
AcDbArc
 50
30.0
 51
90.0
  0
LINE
  5
40E
100
AcDbEntity
  8
LAY-1
  6
CONTINUOUS
 62
     2
100
AcDbLine
 10
33.166076
 20
-19.154414
 30
0.0
 11
34.096203
 21
-19.154414
 31
0.0
  0
ARC
  5
40F
100
AcDbEntity
  8
LAY-1
  6
CONTINUOUS
 62
     2
100
AcDbCircle
 10
29.766076
 20
-15.154414
 30
0.0
 40
6.5
100
AcDbArc
 50
330.0
 51
0.0
  0
ARC
  5
410
100
AcDbEntity
  8
LAY-1
  6
CONTINUOUS
 62
     2
100
AcDbCircle
 10
34.096203
 20
-17.654414
 30
0.0
 40
1.5
100
AcDbArc
 50
270.0
 51
330.0
  0
ARC
  5
411
100
AcDbEntity
  8
LAY-1
  6
CONTINUOUS
 62
     2
100
AcDbCircle
 10
29.766076
 20
-15.154414
 30
0.0
 40
6.5
100
AcDbArc
 50
0.0
 51
30.0
  0
ARC
  5
412
100
AcDbEntity
  8
LAY-1
  6
CONTINUOUS
 62
     2
100
AcDbCircle
 10
34.096203
 20
-12.654414
 30
0.0
 40
1.5
100
AcDbArc
 50
30.0
 51
67.671562
  0
LINE
  5
413
100
AcDbEntity
  8
LAY-1
  6
CONTINUOUS
 62
     2
100
AcDbLine
 10
34.666076
 20
12.351475
 30
0.0
 11
34.666076
 21
-14.81012
 31
0.0
  0
LINE
  5
414
100
AcDbEntity
  8
LAY-1
  6
CONTINUOUS
 62
     2
100
AcDbLine
 10
33.166076
 20
51.632428
 30
0.0
 11
34.096203
 21
51.632428
 31
0.0
  0
ARC
  5
415
100
AcDbEntity
  8
LAY-1
  6
CONTINUOUS
 62
     2
100
AcDbCircle
 10
34.096203
 20
50.132428
 30
0.0
 40
1.5
100
AcDbArc
 50
30.0
 51
90.0
  0
ARC
  5
416
100
AcDbEntity
  8
LAY-1
  6
CONTINUOUS
 62
     2
100
AcDbCircle
 10
29.766076
 20
47.632428
 30
0.0
 40
6.5
100
AcDbArc
 50
0.0
 51
30.0
  0
ARC
  5
417
100
AcDbEntity
  8
LAY-1
  6
CONTINUOUS
 62
     2
100
AcDbCircle
 10
29.766076
 20
47.632428
 30
0.0
 40
6.5
100
AcDbArc
 50
330.0
 51
0.0
  0
ARC
  5
418
100
AcDbEntity
  8
LAY-1
  6
CONTINUOUS
 62
     2
100
AcDbCircle
 10
34.096203
 20
45.132428
 30
0.0
 40
1.5
100
AcDbArc
 50
292.328438
 51
330.0
  0
LINE
  5
419
100
AcDbEntity
  8
LAY-1
  6
CONTINUOUS
 62
     2
100
AcDbLine
 10
34.666076
 20
20.126539
 30
0.0
 11
34.666076
 21
47.288134
 31
0.0
  0
LINE
  5
41A
100
AcDbEntity
  8
LAY-1
  6
CONTINUOUS
 62
     2
100
AcDbLine
 10
34.666076
 20
51.51996
 30
0.0
 11
34.666076
 21
52.039007
 31
0.0
  0
ARC
  5
41B
100
AcDbEntity
  8
LAY-1
  6
CONTINUOUS
 62
     2
100
AcDbCircle
 10
24.598076
 20
-46.103305
 30
0.0
 40
13.342312
100
AcDbArc
 50
67.675967
 51
112.324033
  0
LINE
  5
41C
100
AcDbEntity
  8
LAY-1
  6
CONTINUOUS
 62
     2
100
AcDbLine
 10
29.666076
 20
-32.760993
 30
0.0
 11
28.336653
 21
-30.458365
 31
0.0
  0
LINE
  5
41D
100
AcDbEntity
  8
LAY-1
  6
CONTINUOUS
 62
     2
100
AcDbLine
 10
29.666076
 20
-44.760993
 30
0.0
 11
29.666076
 21
-32.760993
 31
0.0
  0
ARC
  5
41E
100
AcDbEntity
  8
LAY-1
  6
CONTINUOUS
 62
     2
100
AcDbCircle
 10
29.666076
 20
-18.960993
 30
0.0
 40
5.0
100
AcDbArc
 50
270.0
 51
359.069205
  0
LINE
  5
41F
100
AcDbEntity
  8
LAY-1
  6
CONTINUOUS
 62
     2
100
AcDbLine
 10
34.590185
 20
-19.828835
 30
0.0
 11
33.166076
 21
-19.828835
 31
0.0
  0
LINE
  5
420
100
AcDbEntity
  8
LAY-1
  6
CONTINUOUS
 62
     2
100
AcDbLine
 10
34.655576
 20
52.306849
 30
0.0
 11
33.166076
 21
52.306849
 31
0.0
  0
LINE
  5
421
100
AcDbEntity
  8
LAY-1
  6
EXLTYPE3
 62
     1
100
AcDbLine
 10
101.271425
 20
16.239007
 30
0.0
 11
-11.928575
 21
16.239007
 31
0.0
  0
LINE
  5
422
100
AcDbEntity
  8
LAY-1
  6
CONTINUOUS
 62
     2
100
AcDbLine
 10
69.666076
 20
26.679824
 30
0.0
 11
69.666076
 21
6.39819
 31
0.0
  0
LINE
  5
423
100
AcDbEntity
  8
LAY-1
  6
EXLTYPE3
 62
     1
100
AcDbLine
 10
100.166076
 20
119.239007
 30
0.0
 11
-1.833924
 21
119.239007
 31
0.0
  0
LINE
  5
424
100
AcDbEntity
  8
LAY-1
  6
EXLTYPE3
 62
     1
100
AcDbLine
 10
80.166076
 20
72.4
 30
0.0
 11
80.166076
 21
86.78163
 31
0.0
  0
LINE
  5
425
100
AcDbEntity
  8
LAY-1
  6
CONTINUOUS
 62
     2
100
AcDbLine
 10
32.166076
 20
85.739007
 30
0.0
 11
37.666076
 21
85.739007
 31
0.0
  0
LINE
  5
426
100
AcDbEntity
  8
LAY-1
  6
CONTINUOUS
 62
     2
100
AcDbLine
 10
32.166076
 20
152.739007
 30
0.0
 11
37.666076
 21
152.739007
 31
0.0
  0
ARC
  5
427
100
AcDbEntity
  8
LAY-1
  6
CONTINUOUS
 62
     2
100
AcDbCircle
 10
3.666076
 20
97.943149
 30
0.0
 40
4.0
100
AcDbArc
 50
93.0
 51
180.0
  0
LINE
  5
428
100
AcDbEntity
  8
LAY-1
  6
CONTINUOUS
 62
     2
100
AcDbLine
 10
9.962966
 20
146.143364
 30
0.0
 11
0.218176
 21
140.671939
 31
0.0
  0
ARC
  5
429
100
AcDbEntity
  8
LAY-1
  6
CONTINUOUS
 62
     2
100
AcDbCircle
 10
2.666076
 20
136.312147
 30
0.0
 40
5.0
100
AcDbArc
 50
119.312983
 51
180.0
  0
ARC
  5
42A
100
AcDbEntity
  8
LAY-1
  6
CONTINUOUS
 62
     2
100
AcDbCircle
 10
23.166076
 20
88.171684
 30
0.0
 40
3.0
100
AcDbArc
 50
0.0
 51
87.0
  0
ARC
  5
42B
100
AcDbEntity
  8
LAY-1
  6
CONTINUOUS
 62
     2
100
AcDbCircle
 10
12.166076
 20
96.258463
 30
0.0
 40
4.5
100
AcDbArc
 50
180.0
 51
267.0
  0
LINE
  5
42C
100
AcDbEntity
  8
LAY-1
  6
CONTINUOUS
 62
     2
100
AcDbLine
 10
23.323084
 20
91.167573
 30
0.0
 11
11.930564
 21
91.76463
 31
0.0
  0
ARC
  5
42D
100
AcDbEntity
  8
LAY-1
  6
CONTINUOUS
 62
     2
100
AcDbCircle
 10
2.352367
 20
85.250675
 30
0.0
 40
8.988387
100
AcDbArc
 50
58.575686
 51
121.424314
  0
ARC
  5
42E
100
AcDbEntity
  8
LAY-1
  6
CONTINUOUS
 62
     2
100
AcDbCircle
 10
13.666076
 20
76.920732
 30
0.0
 40
17.318275
100
AcDbArc
 50
106.939159
 51
112.5
  0
LINE
  5
42F
100
AcDbEntity
  8
LAY-1
  6
CONTINUOUS
 62
     2
100
AcDbLine
 10
-0.333924
 20
96.239007
 30
0.0
 11
-2.333924
 21
94.239007
 31
0.0
  0
LINE
  5
430
100
AcDbEntity
  8
LAY-1
  6
CONTINUOUS
 62
     2
100
AcDbLine
 10
-0.333924
 20
96.239007
 30
0.0
 11
-0.333924
 21
97.943149
 31
0.0
  0
LINE
  5
431
100
AcDbEntity
  8
LAY-1
  6
CONTINUOUS
 62
     2
100
AcDbLine
 10
26.166076
 20
152.739007
 30
0.0
 11
26.166076
 21
136.967821
 31
0.0
  0
LINE
  5
432
100
AcDbEntity
  8
LAY-1
  6
CONTINUOUS
 62
     2
100
AcDbLine
 10
32.166076
 20
152.739007
 30
0.0
 11
26.166076
 21
152.739007
 31
0.0
  0
LINE
  5
433
100
AcDbEntity
  8
LAY-1
  6
CONTINUOUS
 62
     2
100
AcDbLine
 10
30.166076
 20
85.739007
 30
0.0
 11
32.166076
 21
85.739007
 31
0.0
  0
LINE
  5
434
100
AcDbEntity
  8
LAY-1
  6
CONTINUOUS
 62
     2
100
AcDbLine
 10
23.323084
 20
147.310441
 30
0.0
 11
11.930564
 21
146.713384
 31
0.0
  0
ARC
  5
435
100
AcDbEntity
  8
LAY-1
  6
CONTINUOUS
 62
     2
100
AcDbCircle
 10
27.166076
 20
86.739007
 30
0.0
 40
1.0
100
AcDbArc
 50
180.0
 51
270.0
  0
LINE
  5
436
100
AcDbEntity
  8
LAY-1
  6
CONTINUOUS
 62
     2
100
AcDbLine
 10
20.293493
 20
85.739007
 30
0.0
 11
30.166076
 21
85.739007
 31
0.0
  0
LINE
  5
437
100
AcDbEntity
  8
LAY-1
  6
CONTINUOUS
 62
     2
100
AcDbLine
 10
26.166076
 20
101.510193
 30
0.0
 11
26.166076
 21
86.739007
 31
0.0
  0
ARC
  5
438
100
AcDbEntity
  8
LAY-1
  6
CONTINUOUS
 62
     2
100
AcDbCircle
 10
12.166076
 20
142.219551
 30
0.0
 40
4.5
100
AcDbArc
 50
93.0
 51
180.0
  0
ARC
  5
439
100
AcDbEntity
  8
LAY-1
  6
CONTINUOUS
 62
     2
100
AcDbCircle
 10
13.666076
 20
91.557282
 30
0.0
 40
17.318275
100
AcDbArc
 50
247.5
 51
292.5
  0
ARC
  5
43A
100
AcDbEntity
  8
LAY-1
  6
CONTINUOUS
 62
     2
100
AcDbCircle
 10
24.979784
 20
83.225334
 30
0.0
 40
8.986676
100
AcDbArc
 50
238.569021
 51
301.430979
  0
LINE
  5
43B
100
AcDbEntity
  8
LAY-1
  6
CONTINUOUS
 62
     2
100
AcDbLine
 10
-2.333924
 20
74.239007
 30
0.0
 11
29.666076
 21
74.239007
 31
0.0
  0
ARC
  5
43C
100
AcDbEntity
  8
LAY-1
  6
CONTINUOUS
 62
     2
100
AcDbCircle
 10
23.166076
 20
150.306329
 30
0.0
 40
3.0
100
AcDbArc
 50
273.0
 51
0.0
  0
LINE
  5
43D
100
AcDbEntity
  8
LAY-1
  6
CONTINUOUS
 62
     2
100
AcDbLine
 10
7.038659
 20
75.557282
 30
0.0
 11
7.038659
 21
92.920732
 31
0.0
  0
ARC
  5
43E
100
AcDbEntity
  8
LAY-1
  6
CONTINUOUS
 62
     2
100
AcDbCircle
 10
2.352367
 20
83.227339
 30
0.0
 40
8.988387
100
AcDbArc
 50
238.575686
 51
301.424314
  0
LINE
  5
43F
100
AcDbEntity
  8
LAY-1
  6
CONTINUOUS
 62
     2
100
AcDbLine
 10
20.293493
 20
85.739007
 30
0.0
 11
20.293493
 21
75.557282
 31
0.0
  0
LINE
  5
440
100
AcDbEntity
  8
LAY-1
  6
CONTINUOUS
 62
     2
100
AcDbLine
 10
29.666076
 20
85.739007
 30
0.0
 11
29.666076
 21
74.239007
 31
0.0
  0
LINE
  5
441
100
AcDbEntity
  8
LAY-1
  6
CONTINUOUS
 62
     2
100
AcDbLine
 10
-2.333924
 20
74.239007
 30
0.0
 11
-2.333924
 21
136.312147
 31
0.0
  0
ARC
  5
442
100
AcDbEntity
  8
LAY-1
  6
CONTINUOUS
 62
     2
100
AcDbCircle
 10
7.916076
 20
52.630969
 30
0.0
 40
16.608038
100
AcDbArc
 50
69.743842
 51
110.256158
  0
ARC
  5
443
100
AcDbEntity
  8
LAY-1
  6
CONTINUOUS
 62
     2
100
AcDbCircle
 10
7.916076
 20
77.847045
 30
0.0
 40
16.608038
100
AcDbArc
 50
249.743842
 51
290.256158
  0
ARC
  5
444
100
AcDbEntity
  8
LAY-1
  6
CONTINUOUS
 62
     2
100
AcDbCircle
 10
19.416076
 20
77.847045
 30
0.0
 40
16.608038
100
AcDbArc
 50
249.743842
 51
290.256158
  0
ARC
  5
445
100
AcDbEntity
  8
LAY-1
  6
CONTINUOUS
 62
     2
100
AcDbCircle
 10
19.416076
 20
52.630969
 30
0.0
 40
16.608038
100
AcDbArc
 50
69.743842
 51
110.256158
  0
LINE
  5
446
100
AcDbEntity
  8
LAY-1
  6
CONTINUOUS
 62
     2
100
AcDbLine
 10
2.166076
 20
69.239007
 30
0.0
 11
2.166076
 21
61.239007
 31
0.0
  0
LINE
  5
447
100
AcDbEntity
  8
LAY-1
  6
CONTINUOUS
 62
     2
100
AcDbLine
 10
25.166076
 20
69.239007
 30
0.0
 11
2.166076
 21
69.239007
 31
0.0
  0
LINE
  5
448
100
AcDbEntity
  8
LAY-1
  6
CONTINUOUS
 62
     2
100
AcDbLine
 10
25.166076
 20
61.239007
 30
0.0
 11
25.166076
 21
69.239007
 31
0.0
  0
LINE
  5
449
100
AcDbEntity
  8
LAY-1
  6
CONTINUOUS
 62
     1
100
AcDbLine
 10
23.445785
 20
71.739007
 30
0.0
 11
24.678586
 21
69.603733
 31
0.0
  0
LINE
  5
44A
100
AcDbEntity
  8
LAY-1
  6
CONTINUOUS
 62
     1
100
AcDbLine
 10
3.886367
 20
71.739007
 30
0.0
 11
2.653566
 21
69.603733
 31
0.0
  0
LINE
  5
44B
100
AcDbEntity
  8
LAY-1
  6
CONTINUOUS
 62
     2
100
AcDbLine
 10
2.724367
 20
71.739007
 30
0.0
 11
24.607785
 21
71.739007
 31
0.0
  0
LINE
  5
44C
100
AcDbEntity
  8
LAY-1
  6
CONTINUOUS
 62
     2
100
AcDbLine
 10
24.690679
 20
69.239007
 30
0.0
 11
24.52539
 21
74.22394
 31
0.0
  0
LINE
  5
44D
100
AcDbEntity
  8
LAY-1
  6
CONTINUOUS
 62
     1
100
AcDbLine
 10
3.886367
 20
71.739007
 30
0.0
 11
3.969251
 21
74.238713
 31
0.0
  0
LINE
  5
44E
100
AcDbEntity
  8
LAY-1
  6
CONTINUOUS
 62
     2
100
AcDbLine
 10
2.641472
 20
69.239007
 30
0.0
 11
2.806762
 21
74.22394
 31
0.0
  0
LINE
  5
44F
100
AcDbEntity
  8
LAY-1
  6
CONTINUOUS
 62
     2
100
AcDbLine
 10
32.166076
 20
85.739007
 30
0.0
 11
32.166076
 21
110.589585
 31
0.0
  0
LINE
  5
450
100
AcDbEntity
  8
LAY-1
  6
CONTINUOUS
 62
     2
100
AcDbLine
 10
32.166076
 20
127.888429
 30
0.0
 11
32.166076
 21
152.739007
 31
0.0
  0
LINE
  5
451
100
AcDbEntity
  8
LAY-1
  6
CONTINUOUS
 62
     2
100
AcDbLine
 10
7.666076
 20
96.258463
 30
0.0
 11
7.666076
 21
106.01025
 31
0.0
  0
LINE
  5
452
100
AcDbEntity
  8
LAY-1
  6
CONTINUOUS
 62
     2
100
AcDbLine
 10
7.666076
 20
142.219551
 30
0.0
 11
7.666076
 21
132.467763
 31
0.0
  0
LINE
  5
453
100
AcDbEntity
  8
LAY-1
  6
CONTINUOUS
 62
     1
100
AcDbLine
 10
461.335475
 20
-45.760993
 30
0.0
 11
461.176725
 21
-50.840993
 31
0.0
  0
LINE
  5
454
100
AcDbEntity
  8
LAY-1
  6
CONTINUOUS
 62
     1
100
AcDbLine
 10
480.075225
 20
-45.760993
 30
0.0
 11
480.233975
 21
-50.840993
 31
0.0
  0
LINE
  5
455
100
AcDbEntity
  8
LAY-1
  6
CONTINUOUS
 62
     1
100
AcDbLine
 10
23.035951
 20
-45.760993
 30
0.0
 11
23.194701
 21
-50.840993
 31
0.0
  0
ARC
  5
456
100
AcDbEntity
  8
LAY-1
  6
CONTINUOUS
 62
     2
100
AcDbCircle
 10
-1.833924
 20
115.739007
 30
0.0
 40
0.5
100
AcDbArc
 50
180.0
 51
270.0
  0
LINE
  5
457
100
AcDbEntity
  8
LAY-1
  6
CONTINUOUS
 62
     2
100
AcDbLine
 10
3.87542
 20
101.959609
 30
0.0
 11
3.456732
 21
101.937667
 31
0.0
  0
ARC
  5
458
100
AcDbEntity
  8
LAY-1
  6
CONTINUOUS
 62
     2
100
AcDbCircle
 10
3.666076
 20
105.954127
 30
0.0
 40
4.0
100
AcDbArc
 50
273.0
 51
0.0
  0
LINE
  5
459
100
AcDbEntity
  8
LAY-1
  6
CONTINUOUS
 62
     2
100
AcDbLine
 10
0.627061
 20
115.239007
 30
0.0
 11
-1.833924
 21
115.239007
 31
0.0
  0
LINE
  5
45A
100
AcDbEntity
  8
LAY-1
  6
CONTINUOUS
 62
     2
100
AcDbLine
 10
0.627061
 20
123.239007
 30
0.0
 11
-1.833924
 21
123.239007
 31
0.0
  0
ARC
  5
45B
100
AcDbEntity
  8
LAY-1
  6
CONTINUOUS
 62
     2
100
AcDbCircle
 10
23.166076
 20
136.967821
 30
0.0
 40
3.0
100
AcDbArc
 50
272.0
 51
0.0
  0
ARC
  5
45C
100
AcDbEntity
  8
LAY-1
  6
CONTINUOUS
 62
     2
100
AcDbCircle
 10
23.166076
 20
101.510193
 30
0.0
 40
3.0
100
AcDbArc
 50
0.0
 51
88.0
  0
CIRCLE
  5
45D
100
AcDbEntity
  8
LAY-1
  6
CONTINUOUS
 62
     2
100
AcDbCircle
 10
16.666076
 20
119.239007
 30
0.0
 40
9.0
  0
ARC
  5
45E
100
AcDbEntity
  8
LAY-1
  6
CONTINUOUS
 62
     2
100
AcDbCircle
 10
-1.833924
 20
122.739007
 30
0.0
 40
0.5
100
AcDbArc
 50
90.0
 51
180.0
  0
POLYLINE
  5
45F
100
AcDbEntity
  8
LAY-1
  6
CONTINUOUS
 62
     2
100
AcDb2dPolyline
 66
     1
 10
0.0
 20
0.0
 30
0.0
 70
   128
  0
VERTEX
  5
460
100
AcDbEntity
  8
LAY-1
  6
CONTINUOUS
 62
     2
100
AcDbVertex
100
AcDb2dVertex
 10
32.666076
 20
126.92422
 30
0.0
  0
VERTEX
  5
461
100
AcDbEntity
  8
LAY-1
  6
CONTINUOUS
 62
     2
100
AcDbVertex
100
AcDb2dVertex
 10
32.666076
 20
111.553794
 30
0.0
  0
SEQEND
  5
462
100
AcDbEntity
  8
LAY-1
  6
CONTINUOUS
 62
     2
  0
ARC
  5
463
100
AcDbEntity
  8
LAY-1
  6
CONTINUOUS
 62
     2
100
AcDbCircle
 10
16.666076
 20
119.239007
 30
0.0
 40
17.75
100
AcDbArc
 50
25.656176
 51
34.343824
  0
POLYLINE
  5
464
100
AcDbEntity
  8
LAY-1
  6
CONTINUOUS
 62
     2
100
AcDb2dPolyline
 66
     1
 10
0.0
 20
0.0
 30
0.0
 70
   128
  0
VERTEX
  5
465
100
AcDbEntity
  8
LAY-1
  6
CONTINUOUS
 62
     2
100
AcDbVertex
100
AcDb2dVertex
 10
18.010486
 20
136.93802
 30
0.0
  0
VERTEX
  5
466
100
AcDbEntity
  8
LAY-1
  6
CONTINUOUS
 62
     2
100
AcDbVertex
100
AcDb2dVertex
 10
31.321666
 20
129.252807
 30
0.0
  0
SEQEND
  5
467
100
AcDbEntity
  8
LAY-1
  6
CONTINUOUS
 62
     2
  0
ARC
  5
468
100
AcDbEntity
  8
LAY-1
  6
CONTINUOUS
 62
     2
100
AcDbCircle
 10
16.666076
 20
119.239007
 30
0.0
 40
17.75
100
AcDbArc
 50
85.656176
 51
94.343824
  0
POLYLINE
  5
469
100
AcDbEntity
  8
LAY-1
  6
CONTINUOUS
 62
     2
100
AcDb2dPolyline
 66
     1
 10
0.0
 20
0.0
 30
0.0
 70
   128
  0
VERTEX
  5
46A
100
AcDbEntity
  8
LAY-1
  6
CONTINUOUS
 62
     2
100
AcDbVertex
100
AcDb2dVertex
 10
2.010486
 20
129.252807
 30
0.0
  0
VERTEX
  5
46B
100
AcDbEntity
  8
LAY-1
  6
CONTINUOUS
 62
     2
100
AcDbVertex
100
AcDb2dVertex
 10
15.321666
 20
136.93802
 30
0.0
  0
SEQEND
  5
46C
100
AcDbEntity
  8
LAY-1
  6
CONTINUOUS
 62
     2
  0
ARC
  5
46D
100
AcDbEntity
  8
LAY-1
  6
CONTINUOUS
 62
     2
100
AcDbCircle
 10
16.666076
 20
119.239007
 30
0.0
 40
17.75
100
AcDbArc
 50
145.656176
 51
154.343824
  0
POLYLINE
  5
46E
100
AcDbEntity
  8
LAY-1
  6
CONTINUOUS
 62
     2
100
AcDb2dPolyline
 66
     1
 10
0.0
 20
0.0
 30
0.0
 70
   128
  0
VERTEX
  5
46F
100
AcDbEntity
  8
LAY-1
  6
CONTINUOUS
 62
     2
100
AcDbVertex
100
AcDb2dVertex
 10
0.666076
 20
111.553794
 30
0.0
  0
VERTEX
  5
470
100
AcDbEntity
  8
LAY-1
  6
CONTINUOUS
 62
     2
100
AcDbVertex
100
AcDb2dVertex
 10
0.666076
 20
126.92422
 30
0.0
  0
SEQEND
  5
471
100
AcDbEntity
  8
LAY-1
  6
CONTINUOUS
 62
     2
  0
ARC
  5
472
100
AcDbEntity
  8
LAY-1
  6
CONTINUOUS
 62
     2
100
AcDbCircle
 10
16.666076
 20
119.239007
 30
0.0
 40
17.75
100
AcDbArc
 50
205.656176
 51
214.343824
  0
POLYLINE
  5
473
100
AcDbEntity
  8
LAY-1
  6
CONTINUOUS
 62
     2
100
AcDb2dPolyline
 66
     1
 10
0.0
 20
0.0
 30
0.0
 70
   128
  0
VERTEX
  5
474
100
AcDbEntity
  8
LAY-1
  6
CONTINUOUS
 62
     2
100
AcDbVertex
100
AcDb2dVertex
 10
15.321666
 20
101.539994
 30
0.0
  0
VERTEX
  5
475
100
AcDbEntity
  8
LAY-1
  6
CONTINUOUS
 62
     2
100
AcDbVertex
100
AcDb2dVertex
 10
2.010486
 20
109.225207
 30
0.0
  0
SEQEND
  5
476
100
AcDbEntity
  8
LAY-1
  6
CONTINUOUS
 62
     2
  0
POLYLINE
  5
477
100
AcDbEntity
  8
LAY-1
  6
CONTINUOUS
 62
     2
100
AcDb2dPolyline
 66
     1
 10
0.0
 20
0.0
 30
0.0
 70
   128
  0
VERTEX
  5
478
100
AcDbEntity
  8
LAY-1
  6
CONTINUOUS
 62
     2
100
AcDbVertex
100
AcDb2dVertex
 10
31.321666
 20
109.225207
 30
0.0
  0
VERTEX
  5
479
100
AcDbEntity
  8
LAY-1
  6
CONTINUOUS
 62
     2
100
AcDbVertex
100
AcDb2dVertex
 10
18.010486
 20
101.539994
 30
0.0
  0
SEQEND
  5
47A
100
AcDbEntity
  8
LAY-1
  6
CONTINUOUS
 62
     2
  0
ARC
  5
47B
100
AcDbEntity
  8
LAY-1
  6
CONTINUOUS
 62
     2
100
AcDbCircle
 10
16.666076
 20
119.239007
 30
0.0
 40
17.75
100
AcDbArc
 50
265.656176
 51
274.343824
  0
ARC
  5
47C
100
AcDbEntity
  8
LAY-1
  6
CONTINUOUS
 62
     2
100
AcDbCircle
 10
16.666076
 20
119.239007
 30
0.0
 40
17.75
100
AcDbArc
 50
325.656176
 51
334.343824
  0
LINE
  5
47D
100
AcDbEntity
  8
LAY-1
  6
CONTINUOUS
 62
     2
100
AcDbLine
 10
22.938988
 20
104.519952
 30
0.0
 11
23.270774
 21
104.508366
 31
0.0
  0
CIRCLE
  5
47E
100
AcDbEntity
  8
LAY-1
  6
CONTINUOUS
 62
     2
100
AcDbCircle
 10
16.666076
 20
119.239007
 30
0.0
 40
16.0
  0
ARC
  5
47F
100
AcDbEntity
  8
LAY-1
  6
CONTINUOUS
 62
     2
100
AcDbCircle
 10
0.627061
 20
126.239007
 30
0.0
 40
3.0
100
AcDbArc
 50
270.0
 51
270.745151
  0
ARC
  5
480
100
AcDbEntity
  8
LAY-1
  6
CONTINUOUS
 62
     2
100
AcDbCircle
 10
0.627061
 20
112.239007
 30
0.0
 40
3.0
100
AcDbArc
 50
89.254849
 51
90.0
  0
LINE
  5
481
100
AcDbEntity
  8
LAY-1
  6
CONTINUOUS
 62
     2
100
AcDbLine
 10
22.938988
 20
133.958062
 30
0.0
 11
23.270774
 21
133.969648
 31
0.0
  0
LINE
  5
482
100
AcDbEntity
  8
LAY-1
  6
CONTINUOUS
 62
     2
100
AcDbLine
 10
444.876184
 20
139.944851
 30
0.0
 11
446.20535
 21
139.944851
 31
0.0
  0
ARC
  5
483
100
AcDbEntity
  8
LAY-1
  6
CONTINUOUS
 62
     2
100
AcDbCircle
 10
486.20535
 20
115.739007
 30
0.0
 40
0.5
100
AcDbArc
 50
270.0
 51
0.0
  0
LINE
  5
484
100
AcDbEntity
  8
LAY-1
  6
CONTINUOUS
 62
     2
100
AcDbLine
 10
480.496006
 20
101.959609
 30
0.0
 11
480.914693
 21
101.937667
 31
0.0
  0
ARC
  5
485
100
AcDbEntity
  8
LAY-1
  6
CONTINUOUS
 62
     2
100
AcDbCircle
 10
480.70535
 20
105.954127
 30
0.0
 40
4.0
100
AcDbArc
 50
180.0
 51
267.0
  0
LINE
  5
486
100
AcDbEntity
  8
LAY-1
  6
CONTINUOUS
 62
     2
100
AcDbLine
 10
483.744364
 20
115.239007
 30
0.0
 11
486.20535
 21
115.239007
 31
0.0
  0
LINE
  5
487
100
AcDbEntity
  8
LAY-1
  6
CONTINUOUS
 62
     2
100
AcDbLine
 10
483.744364
 20
123.239007
 30
0.0
 11
486.20535
 21
123.239007
 31
0.0
  0
ARC
  5
488
100
AcDbEntity
  8
LAY-1
  6
CONTINUOUS
 62
     2
100
AcDbCircle
 10
461.20535
 20
136.967821
 30
0.0
 40
3.0
100
AcDbArc
 50
180.0
 51
268.0
  0
ARC
  5
489
100
AcDbEntity
  8
LAY-1
  6
CONTINUOUS
 62
     2
100
AcDbCircle
 10
461.20535
 20
101.510193
 30
0.0
 40
3.0
100
AcDbArc
 50
92.0
 51
180.0
  0
CIRCLE
  5
48A
100
AcDbEntity
  8
LAY-1
  6
CONTINUOUS
 62
     2
100
AcDbCircle
 10
467.70535
 20
119.239007
 30
0.0
 40
9.0
  0
ARC
  5
48B
100
AcDbEntity
  8
LAY-1
  6
CONTINUOUS
 62
     2
100
AcDbCircle
 10
486.20535
 20
122.739007
 30
0.0
 40
0.5
100
AcDbArc
 50
0.0
 51
90.0
  0
POLYLINE
  5
48C
100
AcDbEntity
  8
LAY-1
  6
CONTINUOUS
 62
     2
100
AcDb2dPolyline
 66
     1
 10
0.0
 20
0.0
 30
0.0
 70
   128
  0
VERTEX
  5
48D
100
AcDbEntity
  8
LAY-1
  6
CONTINUOUS
 62
     2
100
AcDbVertex
100
AcDb2dVertex
 10
451.70535
 20
126.92422
 30
0.0
  0
VERTEX
  5
48E
100
AcDbEntity
  8
LAY-1
  6
CONTINUOUS
 62
     2
100
AcDbVertex
100
AcDb2dVertex
 10
451.70535
 20
111.553794
 30
0.0
  0
SEQEND
  5
48F
100
AcDbEntity
  8
LAY-1
  6
CONTINUOUS
 62
     2
  0
ARC
  5
490
100
AcDbEntity
  8
LAY-1
  6
CONTINUOUS
 62
     2
100
AcDbCircle
 10
467.70535
 20
119.239007
 30
0.0
 40
17.75
100
AcDbArc
 50
145.656176
 51
154.343824
  0
POLYLINE
  5
491
100
AcDbEntity
  8
LAY-1
  6
CONTINUOUS
 62
     2
100
AcDb2dPolyline
 66
     1
 10
0.0
 20
0.0
 30
0.0
 70
   128
  0
VERTEX
  5
492
100
AcDbEntity
  8
LAY-1
  6
CONTINUOUS
 62
     2
100
AcDbVertex
100
AcDb2dVertex
 10
466.360939
 20
136.93802
 30
0.0
  0
VERTEX
  5
493
100
AcDbEntity
  8
LAY-1
  6
CONTINUOUS
 62
     2
100
AcDbVertex
100
AcDb2dVertex
 10
453.04976
 20
129.252807
 30
0.0
  0
SEQEND
  5
494
100
AcDbEntity
  8
LAY-1
  6
CONTINUOUS
 62
     2
  0
ARC
  5
495
100
AcDbEntity
  8
LAY-1
  6
CONTINUOUS
 62
     2
100
AcDbCircle
 10
467.70535
 20
119.239007
 30
0.0
 40
17.75
100
AcDbArc
 50
85.656176
 51
94.343824
  0
POLYLINE
  5
496
100
AcDbEntity
  8
LAY-1
  6
CONTINUOUS
 62
     2
100
AcDb2dPolyline
 66
     1
 10
0.0
 20
0.0
 30
0.0
 70
   128
  0
VERTEX
  5
497
100
AcDbEntity
  8
LAY-1
  6
CONTINUOUS
 62
     2
100
AcDbVertex
100
AcDb2dVertex
 10
482.360939
 20
129.252807
 30
0.0
  0
VERTEX
  5
498
100
AcDbEntity
  8
LAY-1
  6
CONTINUOUS
 62
     2
100
AcDbVertex
100
AcDb2dVertex
 10
469.04976
 20
136.93802
 30
0.0
  0
SEQEND
  5
499
100
AcDbEntity
  8
LAY-1
  6
CONTINUOUS
 62
     2
  0
ARC
  5
49A
100
AcDbEntity
  8
LAY-1
  6
CONTINUOUS
 62
     2
100
AcDbCircle
 10
467.70535
 20
119.239007
 30
0.0
 40
17.75
100
AcDbArc
 50
25.656176
 51
34.343824
  0
POLYLINE
  5
49B
100
AcDbEntity
  8
LAY-1
  6
CONTINUOUS
 62
     2
100
AcDb2dPolyline
 66
     1
 10
0.0
 20
0.0
 30
0.0
 70
   128
  0
VERTEX
  5
49C
100
AcDbEntity
  8
LAY-1
  6
CONTINUOUS
 62
     2
100
AcDbVertex
100
AcDb2dVertex
 10
483.70535
 20
111.553794
 30
0.0
  0
VERTEX
  5
49D
100
AcDbEntity
  8
LAY-1
  6
CONTINUOUS
 62
     2
100
AcDbVertex
100
AcDb2dVertex
 10
483.70535
 20
126.92422
 30
0.0
  0
SEQEND
  5
49E
100
AcDbEntity
  8
LAY-1
  6
CONTINUOUS
 62
     2
  0
ARC
  5
49F
100
AcDbEntity
  8
LAY-1
  6
CONTINUOUS
 62
     2
100
AcDbCircle
 10
467.70535
 20
119.239007
 30
0.0
 40
17.75
100
AcDbArc
 50
325.656176
 51
334.343824
  0
POLYLINE
  5
4A0
100
AcDbEntity
  8
LAY-1
  6
CONTINUOUS
 62
     2
100
AcDb2dPolyline
 66
     1
 10
0.0
 20
0.0
 30
0.0
 70
   128
  0
VERTEX
  5
4A1
100
AcDbEntity
  8
LAY-1
  6
CONTINUOUS
 62
     2
100
AcDbVertex
100
AcDb2dVertex
 10
469.04976
 20
101.539994
 30
0.0
  0
VERTEX
  5
4A2
100
AcDbEntity
  8
LAY-1
  6
CONTINUOUS
 62
     2
100
AcDbVertex
100
AcDb2dVertex
 10
482.360939
 20
109.225207
 30
0.0
  0
SEQEND
  5
4A3
100
AcDbEntity
  8
LAY-1
  6
CONTINUOUS
 62
     2
  0
POLYLINE
  5
4A4
100
AcDbEntity
  8
LAY-1
  6
CONTINUOUS
 62
     2
100
AcDb2dPolyline
 66
     1
 10
0.0
 20
0.0
 30
0.0
 70
   128
  0
VERTEX
  5
4A5
100
AcDbEntity
  8
LAY-1
  6
CONTINUOUS
 62
     2
100
AcDbVertex
100
AcDb2dVertex
 10
453.04976
 20
109.225207
 30
0.0
  0
VERTEX
  5
4A6
100
AcDbEntity
  8
LAY-1
  6
CONTINUOUS
 62
     2
100
AcDbVertex
100
AcDb2dVertex
 10
466.360939
 20
101.539994
 30
0.0
  0
SEQEND
  5
4A7
100
AcDbEntity
  8
LAY-1
  6
CONTINUOUS
 62
     2
  0
ARC
  5
4A8
100
AcDbEntity
  8
LAY-1
  6
CONTINUOUS
 62
     2
100
AcDbCircle
 10
467.70535
 20
119.239007
 30
0.0
 40
17.75
100
AcDbArc
 50
265.656176
 51
274.343824
  0
ARC
  5
4A9
100
AcDbEntity
  8
LAY-1
  6
CONTINUOUS
 62
     2
100
AcDbCircle
 10
467.70535
 20
119.239007
 30
0.0
 40
17.75
100
AcDbArc
 50
205.656176
 51
214.343824
  0
LINE
  5
4AA
100
AcDbEntity
  8
LAY-1
  6
CONTINUOUS
 62
     2
100
AcDbLine
 10
461.432438
 20
104.519952
 30
0.0
 11
461.100651
 21
104.508366
 31
0.0
  0
CIRCLE
  5
4AB
100
AcDbEntity
  8
LAY-1
  6
CONTINUOUS
 62
     2
100
AcDbCircle
 10
467.70535
 20
119.239007
 30
0.0
 40
16.0
  0
ARC
  5
4AC
100
AcDbEntity
  8
LAY-1
  6
CONTINUOUS
 62
     2
100
AcDbCircle
 10
483.744364
 20
126.239007
 30
0.0
 40
3.0
100
AcDbArc
 50
269.254849
 51
270.0
  0
ARC
  5
4AD
100
AcDbEntity
  8
LAY-1
  6
CONTINUOUS
 62
     2
100
AcDbCircle
 10
483.744364
 20
112.239007
 30
0.0
 40
3.0
100
AcDbArc
 50
90.0
 51
90.745151
  0
LINE
  5
4AE
100
AcDbEntity
  8
LAY-1
  6
CONTINUOUS
 62
     2
100
AcDbLine
 10
461.432438
 20
133.958062
 30
0.0
 11
461.100651
 21
133.969648
 31
0.0
  0
LINE
  5
4AF
100
AcDbEntity
  8
LAY-1
  6
EXLTYPE3
 62
     1
100
AcDbLine
 10
467.70535
 20
96.0
 30
0.0
 11
467.70535
 21
141.5
 31
0.0
  0
LINE
  5
4B0
100
AcDbEntity
  8
LAY-1
  6
EXLTYPE3
 62
     1
100
AcDbLine
 10
16.666076
 20
94.8
 30
0.0
 11
16.666076
 21
141.5
 31
0.0
  0
ARC
  5
4B1
100
AcDbEntity
  8
LAY-1
  6
CONTINUOUS
 62
     2
100
AcDbCircle
 10
55.666076
 20
145.906897
 30
0.0
 40
1.0
100
AcDbArc
 50
87.0
 51
180.0
  0
ARC
  5
4B2
100
AcDbEntity
  8
LAY-1
  6
CONTINUOUS
 62
     2
100
AcDbCircle
 10
55.666076
 20
92.571117
 30
0.0
 40
1.0
100
AcDbArc
 50
180.0
 51
273.0
  0
ARC
  5
4B3
100
AcDbEntity
  8
LAY-1
  6
CONTINUOUS
 62
     2
100
AcDbCircle
 10
62.166076
 20
148.114862
 30
0.0
 40
0.5
100
AcDbArc
 50
87.0
 51
180.0
  0
LINE
  5
4B4
100
AcDbEntity
  8
LAY-1
  6
CONTINUOUS
 62
     2
100
AcDbLine
 10
90.166076
 20
92.079542
 30
0.0
 11
90.166076
 21
87.236732
 31
0.0
  0
LINE
  5
4B5
100
AcDbEntity
  8
LAY-1
  6
CONTINUOUS
 62
     2
100
AcDbLine
 10
62.192244
 20
148.614176
 30
0.0
 11
76.844351
 21
147.846292
 31
0.0
  0
LINE
  5
4B6
100
AcDbEntity
  8
LAY-1
  6
CONTINUOUS
 62
     2
100
AcDbLine
 10
100.166076
 20
133.749361
 30
0.0
 11
100.166076
 21
119.239007
 31
0.0
  0
LINE
  5
4B7
100
AcDbEntity
  8
LAY-1
  6
CONTINUOUS
 62
     2
100
AcDbLine
 10
90.689435
 20
143.735657
 30
0.0
 11
80.61374
 21
144.263701
 31
0.0
  0
ARC
  5
4B8
100
AcDbEntity
  8
LAY-1
  6
CONTINUOUS
 62
     2
100
AcDbCircle
 10
80.666076
 20
145.262331
 30
0.0
 40
1.0
100
AcDbArc
 50
185.910908
 51
267.0
  0
ARC
  5
4B9
100
AcDbEntity
  8
LAY-1
  6
CONTINUOUS
 62
     2
100
AcDbCircle
 10
90.166076
 20
133.749361
 30
0.0
 40
10.0
100
AcDbArc
 50
0.0
 51
87.0
  0
ARC
  5
4BA
100
AcDbEntity
  8
LAY-1
  6
CONTINUOUS
 62
     2
100
AcDbCircle
 10
90.166076
 20
104.728653
 30
0.0
 40
10.0
100
AcDbArc
 50
283.342364
 51
0.0
  0
ARC
  5
4BB
100
AcDbEntity
  8
LAY-1
  6
CONTINUOUS
 62
     2
100
AcDbCircle
 10
93.166076
 20
92.079542
 30
0.0
 40
3.0
100
AcDbArc
 50
103.342364
 51
180.0
  0
LINE
  5
4BC
100
AcDbEntity
  8
LAY-1
  6
CONTINUOUS
 62
     2
100
AcDbLine
 10
100.166076
 20
119.239007
 30
0.0
 11
100.166076
 21
104.728653
 31
0.0
  0
ARC
  5
4BD
100
AcDbEntity
  8
LAY-1
  6
CONTINUOUS
 62
     2
100
AcDbCircle
 10
37.666076
 20
86.239007
 30
0.0
 40
0.5
100
AcDbArc
 50
270.0
 51
0.0
  0
ARC
  5
4BE
100
AcDbEntity
  8
LAY-1
  6
CONTINUOUS
 62
     2
100
AcDbCircle
 10
37.666076
 20
152.239007
 30
0.0
 40
0.5
100
AcDbArc
 50
0.0
 51
90.0
  0
ARC
  5
4BF
100
AcDbEntity
  8
LAY-1
  6
CONTINUOUS
 62
     2
100
AcDbCircle
 10
76.687343
 20
144.850403
 30
0.0
 40
3.0
100
AcDbArc
 50
5.910908
 51
87.0
  0
LINE
  5
4C0
100
AcDbEntity
  8
LAY-1
  6
CONTINUOUS
 62
     2
100
AcDbLine
 10
55.718412
 20
91.572487
 30
0.0
 11
61.666076
 21
91.884191
 31
0.0
  0
LINE
  5
4C1
100
AcDbEntity
  8
LAY-1
  6
CONTINUOUS
 62
     2
100
AcDbLine
 10
61.666076
 20
86.239007
 30
0.0
 11
90.166172
 21
87.236736
 31
0.0
  0
LINE
  5
4C2
100
AcDbEntity
  8
LAY-1
  6
CONTINUOUS
 62
     2
100
AcDbLine
 10
54.666076
 20
145.906897
 30
0.0
 11
54.666076
 21
92.571117
 31
0.0
  0
LINE
  5
4C3
100
AcDbEntity
  8
LAY-1
  6
CONTINUOUS
 62
     2
100
AcDbLine
 10
55.718412
 20
146.905526
 30
0.0
 11
61.666076
 21
146.593822
 31
0.0
  0
LINE
  5
4C4
100
AcDbEntity
  8
LAY-1
  6
CONTINUOUS
 62
     2
100
AcDbLine
 10
38.166076
 20
152.239007
 30
0.0
 11
38.166076
 21
119.239007
 31
0.0
  0
LINE
  5
4C5
100
AcDbEntity
  8
LAY-1
  6
CONTINUOUS
 62
     2
100
AcDbLine
 10
38.166076
 20
86.239007
 30
0.0
 11
38.166076
 21
119.239007
 31
0.0
  0
LINE
  5
4C6
100
AcDbEntity
  8
LAY-1
  6
CONTINUOUS
 62
     2
100
AcDbLine
 10
41.843793
 20
145.291533
 30
0.0
 11
54.666076
 21
144.843769
 31
0.0
  0
LINE
  5
4C7
100
AcDbEntity
  8
LAY-1
  6
CONTINUOUS
 62
     2
100
AcDbLine
 10
41.843793
 20
93.186481
 30
0.0
 11
54.666076
 21
93.634245
 31
0.0
  0
LINE
  5
4C8
100
AcDbEntity
  8
LAY-1
  6
CONTINUOUS
 62
     2
100
AcDbLine
 10
61.666076
 20
93.257841
 30
0.0
 11
86.764766
 21
94.136494
 31
0.0
  0
LINE
  5
4C9
100
AcDbEntity
  8
LAY-1
  6
CONTINUOUS
 62
     2
100
AcDbLine
 10
79.692614
 20
99.186863
 30
0.0
 11
79.692614
 21
140.680658
 31
0.0
  0
LINE
  5
4CA
100
AcDbEntity
  8
LAY-1
  6
CONTINUOUS
 62
     2
100
AcDbLine
 10
66.823084
 20
128.601885
 30
0.0
 11
55.718412
 21
129.183856
 31
0.0
  0
LINE
  5
4CB
100
AcDbEntity
  8
LAY-1
  6
CONTINUOUS
 62
     2
100
AcDbLine
 10
69.666076
 20
112.872017
 30
0.0
 11
69.666076
 21
125.605997
 31
0.0
  0
LINE
  5
4CC
100
AcDbEntity
  8
LAY-1
  6
CONTINUOUS
 62
     2
100
AcDbLine
 10
55.718412
 20
109.294157
 30
0.0
 11
66.823084
 21
109.876129
 31
0.0
  0
ARC
  5
4CD
100
AcDbEntity
  8
LAY-1
  6
CONTINUOUS
 62
     2
100
AcDbCircle
 10
66.666076
 20
112.872017
 30
0.0
 40
3.0
100
AcDbArc
 50
273.0
 51
0.0
  0
ARC
  5
4CE
100
AcDbEntity
  8
LAY-1
  6
CONTINUOUS
 62
     2
100
AcDbCircle
 10
55.666076
 20
128.185227
 30
0.0
 40
1.0
100
AcDbArc
 50
87.0
 51
180.0
  0
ARC
  5
4CF
100
AcDbEntity
  8
LAY-1
  6
CONTINUOUS
 62
     2
100
AcDbCircle
 10
55.666076
 20
110.292787
 30
0.0
 40
1.0
100
AcDbArc
 50
180.0
 51
273.0
  0
ARC
  5
4D0
100
AcDbEntity
  8
LAY-1
  6
CONTINUOUS
 62
     2
100
AcDbCircle
 10
66.666076
 20
125.605997
 30
0.0
 40
3.0
100
AcDbArc
 50
0.0
 51
87.0
  0
LINE
  5
4D1
100
AcDbEntity
  8
LAY-1
  6
CONTINUOUS
 62
     2
100
AcDbLine
 10
61.666076
 20
128.872152
 30
0.0
 11
61.666076
 21
148.114862
 31
0.0
  0
LINE
  5
4D2
100
AcDbEntity
  8
LAY-1
  6
CONTINUOUS
 62
     2
100
AcDbLine
 10
61.666076
 20
86.239007
 30
0.0
 11
61.666076
 21
109.605861
 31
0.0
  0
LINE
  5
4D3
100
AcDbEntity
  8
LAY-1
  6
CONTINUOUS
 62
     2
100
AcDbLine
 10
39.495241
 20
98.533163
 30
0.0
 11
38.166076
 21
98.533163
 31
0.0
  0
ARC
  5
4D4
100
AcDbEntity
  8
LAY-1
  6
CONTINUOUS
 62
     2
100
AcDbCircle
 10
33.866076
 20
93.783163
 30
0.0
 40
8.0
100
AcDbArc
 50
0.0
 51
30.0
  0
ARC
  5
4D5
100
AcDbEntity
  8
LAY-1
  6
CONTINUOUS
 62
     2
100
AcDbCircle
 10
39.495241
 20
97.033163
 30
0.0
 40
1.5
100
AcDbArc
 50
30.0
 51
90.0
  0
LINE
  5
4D6
100
AcDbEntity
  8
LAY-1
  6
CONTINUOUS
 62
     2
100
AcDbLine
 10
39.495241
 20
89.033163
 30
0.0
 11
38.166076
 21
89.033163
 31
0.0
  0
ARC
  5
4D7
100
AcDbEntity
  8
LAY-1
  6
CONTINUOUS
 62
     2
100
AcDbCircle
 10
33.866076
 20
93.783163
 30
0.0
 40
8.0
100
AcDbArc
 50
330.0
 51
0.0
  0
ARC
  5
4D8
100
AcDbEntity
  8
LAY-1
  6
CONTINUOUS
 62
     2
100
AcDbCircle
 10
39.495241
 20
90.533163
 30
0.0
 40
1.5
100
AcDbArc
 50
270.0
 51
330.0
  0
LINE
  5
4D9
100
AcDbEntity
  8
LAY-1
  6
CONTINUOUS
 62
     2
100
AcDbLine
 10
39.495241
 20
149.444851
 30
0.0
 11
38.166076
 21
149.444851
 31
0.0
  0
ARC
  5
4DA
100
AcDbEntity
  8
LAY-1
  6
CONTINUOUS
 62
     2
100
AcDbCircle
 10
33.866076
 20
144.694851
 30
0.0
 40
8.0
100
AcDbArc
 50
0.0
 51
30.0
  0
ARC
  5
4DB
100
AcDbEntity
  8
LAY-1
  6
CONTINUOUS
 62
     2
100
AcDbCircle
 10
39.495241
 20
147.944851
 30
0.0
 40
1.5
100
AcDbArc
 50
30.0
 51
90.0
  0
LINE
  5
4DC
100
AcDbEntity
  8
LAY-1
  6
CONTINUOUS
 62
     2
100
AcDbLine
 10
39.495241
 20
139.944851
 30
0.0
 11
38.166076
 21
139.944851
 31
0.0
  0
ARC
  5
4DD
100
AcDbEntity
  8
LAY-1
  6
CONTINUOUS
 62
     2
100
AcDbCircle
 10
33.866076
 20
144.694851
 30
0.0
 40
8.0
100
AcDbArc
 50
330.0
 51
0.0
  0
ARC
  5
4DE
100
AcDbEntity
  8
LAY-1
  6
CONTINUOUS
 62
     2
100
AcDbCircle
 10
39.495241
 20
141.444851
 30
0.0
 40
1.5
100
AcDbArc
 50
270.0
 51
330.0
  0
POLYLINE
  5
4DF
100
AcDbEntity
  8
LAY-1
  6
CONTINUOUS
 62
     2
100
AcDb2dPolyline
 66
     1
 10
0.0
 20
0.0
 30
0.0
 70
   128
  0
VERTEX
  5
4E0
100
AcDbEntity
  8
LAY-1
  6
CONTINUOUS
 62
     2
100
AcDbVertex
100
AcDb2dVertex
 10
83.166076
 20
77.65796
 30
0.0
  0
VERTEX
  5
4E1
100
AcDbEntity
  8
LAY-1
  6
CONTINUOUS
 62
     2
100
AcDbVertex
100
AcDb2dVertex
 10
82.780761
 20
77.790015
 30
0.0
  0
SEQEND
  5
4E2
100
AcDbEntity
  8
LAY-1
  6
CONTINUOUS
 62
     2
  0
ARC
  5
4E3
100
AcDbEntity
  8
LAY-1
  6
CONTINUOUS
 62
     2
100
AcDbCircle
 10
67.892377
 20
25.521621
 30
0.0
 40
54.347484
100
AcDbArc
 50
74.100669
 51
74.938856
  0
ARC
  5
4E4
100
AcDbEntity
  8
LAY-1
  6
CONTINUOUS
 62
     2
100
AcDbCircle
 10
80.918863
 20
68.442755
 30
0.0
 40
9.622052
100
AcDbArc
 50
83.461378
 51
87.958593
  0
ARC
  5
4E5
100
AcDbEntity
  8
LAY-1
  6
CONTINUOUS
 62
     2
100
AcDbCircle
 10
82.067773
 20
73.27675
 30
0.0
 40
4.849426
100
AcDbArc
 50
99.569118
 51
108.499625
  0
ARC
  5
4E6
100
AcDbEntity
  8
LAY-1
  6
CONTINUOUS
 62
     2
100
AcDbCircle
 10
82.803115
 20
71.557117
 30
0.0
 40
6.715235
100
AcDbArc
 50
109.794133
 51
116.500502
  0
ARC
  5
4E7
100
AcDbEntity
  8
LAY-1
  6
CONTINUOUS
 62
     2
100
AcDbCircle
 10
71.746324
 20
104.567155
 30
0.0
 40
28.177832
100
AcDbArc
 50
285.074561
 51
286.621932
  0
ARC
  5
4E8
100
AcDbEntity
  8
LAY-1
  6
CONTINUOUS
 62
     2
100
AcDbCircle
 10
78.865304
 20
81.62723
 30
0.0
 40
4.27339
100
AcDbArc
 50
262.682236
 51
272.808578
  0
ARC
  5
4E9
100
AcDbEntity
  8
LAY-1
  6
CONTINUOUS
 62
     2
100
AcDbCircle
 10
79.510157
 20
83.833835
 30
0.0
 40
6.553974
100
AcDbArc
 50
252.622176
 51
259.546255
  0
ARC
  5
4EA
100
AcDbEntity
  8
LAY-1
  6
CONTINUOUS
 62
     2
100
AcDbCircle
 10
79.951137
 20
85.85524
 30
0.0
 40
8.616763
100
AcDbArc
 50
251.142573
 51
253.838325
  0
LINE
  5
4EB
100
AcDbEntity
  8
LAY-1
  6
CONTINUOUS
 62
     2
100
AcDbLine
 10
77.166076
 20
86.78163
 30
0.0
 11
77.166076
 21
77.700975
 31
0.0
  0
LINE
  5
4EC
100
AcDbEntity
  8
LAY-1
  6
CONTINUOUS
 62
     2
100
AcDbLine
 10
83.166076
 20
77.65796
 30
0.0
 11
83.166076
 21
86.991677
 31
0.0
  0
TEXT
  5
4ED
100
AcDbEntity
  8
LAY-1
  6
CONTINUOUS
 62
     3
100
AcDbText
 10
405.892
 20
-182.272
 30
0.0
 40
8.0
  1
'１４年　９月　２日
 41
0.8132
  7
EXCADSTD
 72
     5
 11
481.892
 21
-182.272
 31
0.0
100
AcDbText
  0
TEXT
  5
4EE
100
AcDbEntity
  8
LAY-1
  6
CONTINUOUS
 62
     3
100
AcDbText
 10
401.6616
 20
-204.4736
 30
0.0
 40
8.0
  1
可変型自動切替式一体型調整器（発信機能付）
 41
0.568512
  7
EXCADSTD
 72
     5
 11
515.363965
 21
-204.4736
 31
0.0
100
AcDbText
  0
ARC
  5
4EF
100
AcDbEntity
  8
LAY-1
  6
CONTINUOUS
 62
     2
100
AcDbCircle
 10
292.685713
 20
131.739007
 30
0.0
 40
2.5
100
AcDbArc
 50
53.130102
 51
90.0
  0
ARC
  5
4F0
100
AcDbEntity
  8
LAY-1
  6
CONTINUOUS
 62
     2
100
AcDbCircle
 10
292.685713
 20
106.739007
 30
0.0
 40
2.5
100
AcDbArc
 50
270.0
 51
306.869898
  0
LINE
  5
4F1
100
AcDbEntity
  8
LAY-1
  6
CONTINUOUS
 62
     2
100
AcDbLine
 10
295.196076
 20
111.001403
 30
0.0
 11
295.196076
 21
109.001403
 31
0.0
  0
LINE
  5
4F2
100
AcDbEntity
  8
LAY-1
  6
CONTINUOUS
 62
     2
100
AcDbLine
 10
295.196076
 20
111.001403
 30
0.0
 11
315.435713
 21
111.001403
 31
0.0
  0
LINE
  5
4F3
100
AcDbEntity
  8
LAY-1
  6
CONTINUOUS
 62
     2
100
AcDbLine
 10
315.435713
 20
109.001403
 30
0.0
 11
295.196076
 21
109.001403
 31
0.0
  0
LINE
  5
4F4
100
AcDbEntity
  8
LAY-1
  6
CONTINUOUS
 62
     2
100
AcDbLine
 10
315.435713
 20
111.001403
 30
0.0
 11
315.435713
 21
109.001403
 31
0.0
  0
LINE
  5
4F5
100
AcDbEntity
  8
LAY-1
  6
CONTINUOUS
 62
     2
100
AcDbLine
 10
295.196076
 20
129.476611
 30
0.0
 11
295.196076
 21
127.476611
 31
0.0
  0
LINE
  5
4F6
100
AcDbEntity
  8
LAY-1
  6
CONTINUOUS
 62
     2
100
AcDbLine
 10
295.196076
 20
101.489007
 30
0.0
 11
294.185713
 21
103.239007
 31
0.0
  0
LINE
  5
4F7
100
AcDbEntity
  8
LAY-1
  6
CONTINUOUS
 62
     2
100
AcDbLine
 10
317.185713
 20
135.239007
 30
0.0
 11
317.185713
 21
103.239007
 31
0.0
  0
LINE
  5
4F8
100
AcDbEntity
  8
LAY-1
  6
CONTINUOUS
 62
     2
100
AcDbLine
 10
315.435713
 20
136.989007
 30
0.0
 11
317.185713
 21
135.239007
 31
0.0
  0
LINE
  5
4F9
100
AcDbEntity
  8
LAY-1
  6
CONTINUOUS
 62
     2
100
AcDbLine
 10
295.196076
 20
136.989007
 30
0.0
 11
315.435713
 21
136.989007
 31
0.0
  0
LINE
  5
4FA
100
AcDbEntity
  8
LAY-1
  6
CONTINUOUS
 62
     2
100
AcDbLine
 10
294.185713
 20
135.239007
 30
0.0
 11
295.196076
 21
136.989007
 31
0.0
  0
LINE
  5
4FB
100
AcDbEntity
  8
LAY-1
  6
CONTINUOUS
 62
     2
100
AcDbLine
 10
317.185713
 20
103.239007
 30
0.0
 11
315.435713
 21
101.489007
 31
0.0
  0
LINE
  5
4FC
100
AcDbEntity
  8
LAY-1
  6
CONTINUOUS
 62
     2
100
AcDbLine
 10
315.435713
 20
129.476611
 30
0.0
 11
315.435713
 21
127.476611
 31
0.0
  0
LINE
  5
4FD
100
AcDbEntity
  8
LAY-1
  6
CONTINUOUS
 62
     2
100
AcDbLine
 10
315.435713
 20
127.476611
 30
0.0
 11
295.196076
 21
127.476611
 31
0.0
  0
LINE
  5
4FE
100
AcDbEntity
  8
LAY-1
  6
CONTINUOUS
 62
     2
100
AcDbLine
 10
295.196076
 20
129.476611
 30
0.0
 11
315.435713
 21
129.476611
 31
0.0
  0
LINE
  5
4FF
100
AcDbEntity
  8
LAY-1
  6
CONTINUOUS
 62
     2
100
AcDbLine
 10
294.185713
 20
103.239007
 30
0.0
 11
294.185713
 21
135.239007
 31
0.0
  0
LINE
  5
500
100
AcDbEntity
  8
LAY-1
  6
CONTINUOUS
 62
     2
100
AcDbLine
 10
315.435713
 20
101.489007
 30
0.0
 11
295.196076
 21
101.489007
 31
0.0
  0
ARC
  5
501
100
AcDbEntity
  8
LAY-1
  6
CONTINUOUS
 62
     2
100
AcDbCircle
 10
296.922677
 20
119.239007
 30
0.0
 40
20.263036
100
AcDbArc
 50
336.012735
 51
23.987265
  0
ARC
  5
502
100
AcDbEntity
  8
LAY-1
  6
CONTINUOUS
 62
     2
100
AcDbCircle
 10
328.271957
 20
119.239007
 30
0.0
 40
34.086244
100
AcDbArc
 50
166.014906
 51
193.985094
  0
ARC
  5
503
100
AcDbEntity
  8
LAY-1
  6
CONTINUOUS
 62
     2
100
AcDbCircle
 10
306.715499
 20
135.27181
 30
0.0
 40
10.470265
100
AcDbArc
 50
326.393153
 51
359.820495
  0
ARC
  5
504
100
AcDbEntity
  8
LAY-1
  6
CONTINUOUS
 62
     2
100
AcDbCircle
 10
311.186981
 20
135.250189
 30
0.0
 40
17.001272
100
AcDbArc
 50
180.037683
 51
199.85231
  0
ARC
  5
505
100
AcDbEntity
  8
LAY-1
  6
CONTINUOUS
 62
     2
100
AcDbCircle
 10
311.186981
 20
103.227825
 30
0.0
 40
17.001272
100
AcDbArc
 50
160.14769
 51
179.962317
  0
ARC
  5
506
100
AcDbEntity
  8
LAY-1
  6
CONTINUOUS
 62
     2
100
AcDbCircle
 10
306.715499
 20
103.206204
 30
0.0
 40
10.470265
100
AcDbArc
 50
0.179505
 51
33.606847
  0
ARC
  5
507
100
AcDbEntity
  8
LAY-1
  6
CONTINUOUS
 62
     2
100
AcDbCircle
 10
191.685713
 20
131.739007
 30
0.0
 40
2.5
100
AcDbArc
 50
90.0
 51
126.869898
  0
ARC
  5
508
100
AcDbEntity
  8
LAY-1
  6
CONTINUOUS
 62
     2
100
AcDbCircle
 10
191.685713
 20
106.739007
 30
0.0
 40
2.5
100
AcDbArc
 50
233.130102
 51
270.0
  0
LINE
  5
509
100
AcDbEntity
  8
LAY-1
  6
CONTINUOUS
 62
     2
100
AcDbLine
 10
189.17535
 20
111.001403
 30
0.0
 11
189.17535
 21
109.001403
 31
0.0
  0
LINE
  5
50A
100
AcDbEntity
  8
LAY-1
  6
CONTINUOUS
 62
     2
100
AcDbLine
 10
189.17535
 20
111.001403
 30
0.0
 11
168.935713
 21
111.001403
 31
0.0
  0
LINE
  5
50B
100
AcDbEntity
  8
LAY-1
  6
CONTINUOUS
 62
     2
100
AcDbLine
 10
168.935713
 20
109.001403
 30
0.0
 11
189.17535
 21
109.001403
 31
0.0
  0
LINE
  5
50C
100
AcDbEntity
  8
LAY-1
  6
CONTINUOUS
 62
     2
100
AcDbLine
 10
168.935713
 20
111.001403
 30
0.0
 11
168.935713
 21
109.001403
 31
0.0
  0
LINE
  5
50D
100
AcDbEntity
  8
LAY-1
  6
CONTINUOUS
 62
     2
100
AcDbLine
 10
189.17535
 20
129.476611
 30
0.0
 11
189.17535
 21
127.476611
 31
0.0
  0
LINE
  5
50E
100
AcDbEntity
  8
LAY-1
  6
CONTINUOUS
 62
     2
100
AcDbLine
 10
189.17535
 20
101.489007
 30
0.0
 11
190.185713
 21
103.239007
 31
0.0
  0
LINE
  5
50F
100
AcDbEntity
  8
LAY-1
  6
CONTINUOUS
 62
     2
100
AcDbLine
 10
167.185713
 20
135.239007
 30
0.0
 11
167.185713
 21
103.239007
 31
0.0
  0
LINE
  5
510
100
AcDbEntity
  8
LAY-1
  6
CONTINUOUS
 62
     2
100
AcDbLine
 10
168.935713
 20
136.989007
 30
0.0
 11
167.185713
 21
135.239007
 31
0.0
  0
LINE
  5
511
100
AcDbEntity
  8
LAY-1
  6
CONTINUOUS
 62
     2
100
AcDbLine
 10
189.17535
 20
136.989007
 30
0.0
 11
168.935713
 21
136.989007
 31
0.0
  0
LINE
  5
512
100
AcDbEntity
  8
LAY-1
  6
CONTINUOUS
 62
     2
100
AcDbLine
 10
190.185713
 20
135.239007
 30
0.0
 11
189.17535
 21
136.989007
 31
0.0
  0
LINE
  5
513
100
AcDbEntity
  8
LAY-1
  6
CONTINUOUS
 62
     2
100
AcDbLine
 10
167.185713
 20
103.239007
 30
0.0
 11
168.935713
 21
101.489007
 31
0.0
  0
LINE
  5
514
100
AcDbEntity
  8
LAY-1
  6
CONTINUOUS
 62
     2
100
AcDbLine
 10
168.935713
 20
129.476611
 30
0.0
 11
168.935713
 21
127.476611
 31
0.0
  0
LINE
  5
515
100
AcDbEntity
  8
LAY-1
  6
CONTINUOUS
 62
     2
100
AcDbLine
 10
168.935713
 20
127.476611
 30
0.0
 11
189.17535
 21
127.476611
 31
0.0
  0
LINE
  5
516
100
AcDbEntity
  8
LAY-1
  6
CONTINUOUS
 62
     2
100
AcDbLine
 10
189.17535
 20
129.476611
 30
0.0
 11
168.935713
 21
129.476611
 31
0.0
  0
LINE
  5
517
100
AcDbEntity
  8
LAY-1
  6
CONTINUOUS
 62
     2
100
AcDbLine
 10
190.185713
 20
103.239007
 30
0.0
 11
190.185713
 21
135.239007
 31
0.0
  0
LINE
  5
518
100
AcDbEntity
  8
LAY-1
  6
CONTINUOUS
 62
     2
100
AcDbLine
 10
168.935713
 20
101.489007
 30
0.0
 11
189.17535
 21
101.489007
 31
0.0
  0
ARC
  5
519
100
AcDbEntity
  8
LAY-1
  6
CONTINUOUS
 62
     2
100
AcDbCircle
 10
187.448748
 20
119.239007
 30
0.0
 40
20.263036
100
AcDbArc
 50
156.012735
 51
203.987265
  0
ARC
  5
51A
100
AcDbEntity
  8
LAY-1
  6
CONTINUOUS
 62
     2
100
AcDbCircle
 10
156.099468
 20
119.239007
 30
0.0
 40
34.086244
100
AcDbArc
 50
346.014906
 51
13.985094
  0
ARC
  5
51B
100
AcDbEntity
  8
LAY-1
  6
CONTINUOUS
 62
     2
100
AcDbCircle
 10
177.655927
 20
135.27181
 30
0.0
 40
10.470265
100
AcDbArc
 50
180.179505
 51
213.606847
  0
ARC
  5
51C
100
AcDbEntity
  8
LAY-1
  6
CONTINUOUS
 62
     2
100
AcDbCircle
 10
173.184444
 20
135.250189
 30
0.0
 40
17.001272
100
AcDbArc
 50
340.14769
 51
359.962317
  0
ARC
  5
51D
100
AcDbEntity
  8
LAY-1
  6
CONTINUOUS
 62
     2
100
AcDbCircle
 10
173.184444
 20
103.227825
 30
0.0
 40
17.001272
100
AcDbArc
 50
0.037683
 51
19.85231
  0
ARC
  5
51E
100
AcDbEntity
  8
LAY-1
  6
CONTINUOUS
 62
     2
100
AcDbCircle
 10
177.655927
 20
103.206204
 30
0.0
 40
10.470265
100
AcDbArc
 50
146.393153
 51
179.820495
  0
ARC
  5
51F
100
AcDbEntity
  8
LAY-1
  6
CONTINUOUS
 62
     2
100
AcDbCircle
 10
213.309858
 20
224.5
 30
0.0
 40
0.5
100
AcDbArc
 50
90.0
 51
183.0
  0
ARC
  5
520
100
AcDbEntity
  8
LAY-1
  6
CONTINUOUS
 62
     2
100
AcDbCircle
 10
227.675358
 20
196.5
 30
0.0
 40
10.0
100
AcDbArc
 50
183.0
 51
270.0
  0
ARC
  5
521
100
AcDbEntity
  8
LAY-1
  6
CONTINUOUS
 62
     2
100
AcDbCircle
 10
216.162389
 20
206.0
 30
0.0
 40
1.0
100
AcDbArc
 50
3.0
 51
84.089092
  0
ARC
  5
522
100
AcDbEntity
  8
LAY-1
  6
CONTINUOUS
 62
     2
100
AcDbCircle
 10
216.574316
 20
209.978733
 30
0.0
 40
3.0
100
AcDbArc
 50
183.0
 51
264.089092
  0
ARC
  5
523
100
AcDbEntity
  8
LAY-1
  6
CONTINUOUS
 62
     2
100
AcDbCircle
 10
271.061567
 20
224.5
 30
0.0
 40
0.5
100
AcDbArc
 50
357.0
 51
90.0
  0
LINE
  5
524
100
AcDbEntity
  8
LAY-1
  6
CONTINUOUS
 62
     2
100
AcDbLine
 10
217.689063
 20
195.97664
 30
0.0
 11
217.161018
 21
206.052336
 31
0.0
  0
LINE
  5
525
100
AcDbEntity
  8
LAY-1
  6
CONTINUOUS
 62
     2
100
AcDbLine
 10
227.675358
 20
186.5
 30
0.0
 11
242.185713
 21
186.5
 31
0.0
  0
LINE
  5
526
100
AcDbEntity
  8
LAY-1
  6
CONTINUOUS
 62
     2
100
AcDbLine
 10
212.810543
 20
224.473832
 30
0.0
 11
213.578428
 21
209.821725
 31
0.0
  0
LINE
  5
527
100
AcDbEntity
  8
LAY-1
  6
CONTINUOUS
 62
     2
100
AcDbLine
 10
271.560882
 20
224.473832
 30
0.0
 11
270.792998
 21
209.821725
 31
0.0
  0
LINE
  5
528
100
AcDbEntity
  8
LAY-1
  6
CONTINUOUS
 62
     2
100
AcDbLine
 10
256.696067
 20
186.5
 30
0.0
 11
242.185713
 21
186.5
 31
0.0
  0
LINE
  5
529
100
AcDbEntity
  8
LAY-1
  6
CONTINUOUS
 62
     2
100
AcDbLine
 10
266.682362
 20
195.97664
 30
0.0
 11
267.210407
 21
206.052336
 31
0.0
  0
ARC
  5
52A
100
AcDbEntity
  8
LAY-1
  6
CONTINUOUS
 62
     2
100
AcDbCircle
 10
267.797109
 20
209.978733
 30
0.0
 40
3.0
100
AcDbArc
 50
275.910908
 51
357.0
  0
ARC
  5
52B
100
AcDbEntity
  8
LAY-1
  6
CONTINUOUS
 62
     2
100
AcDbCircle
 10
268.209037
 20
206.0
 30
0.0
 40
1.0
100
AcDbArc
 50
95.910908
 51
177.0
  0
ARC
  5
52C
100
AcDbEntity
  8
LAY-1
  6
CONTINUOUS
 62
     2
100
AcDbCircle
 10
256.696067
 20
196.5
 30
0.0
 40
10.0
100
AcDbArc
 50
270.0
 51
357.0
  0
LINE
  5
52D
100
AcDbEntity
  8
LAY-1
  6
CONTINUOUS
 62
     2
100
AcDbLine
 10
275.685713
 20
254.5
 30
0.0
 11
275.685713
 21
249.0
 31
0.0
  0
ARC
  5
52E
100
AcDbEntity
  8
LAY-1
  6
CONTINUOUS
 62
     2
100
AcDbCircle
 10
275.185713
 20
249.0
 30
0.0
 40
0.5
100
AcDbArc
 50
270.0
 51
0.0
  0
ARC
  5
52F
100
AcDbEntity
  8
LAY-1
  6
CONTINUOUS
 62
     2
100
AcDbCircle
 10
209.185713
 20
249.0
 30
0.0
 40
0.5
100
AcDbArc
 50
180.0
 51
270.0
  0
LINE
  5
530
100
AcDbEntity
  8
LAY-1
  6
CONTINUOUS
 62
     2
100
AcDbLine
 10
208.685713
 20
254.5
 30
0.0
 11
208.685713
 21
249.0
 31
0.0
  0
LINE
  5
531
100
AcDbEntity
  8
LAY-1
  6
CONTINUOUS
 62
     2
100
AcDbLine
 10
214.251599
 20
227.0
 30
0.0
 11
211.60772
 21
227.0
 31
0.0
  0
LINE
  5
532
100
AcDbEntity
  8
LAY-1
  6
CONTINUOUS
 62
     2
100
AcDbLine
 10
197.918723
 20
217.0
 30
0.0
 11
206.338819
 21
217.0
 31
0.0
  0
ARC
  5
533
100
AcDbEntity
  8
LAY-1
  6
CONTINUOUS
 62
     2
100
AcDbCircle
 10
214.251599
 20
226.5
 30
0.0
 40
0.5
100
AcDbArc
 50
3.0
 51
90.0
  0
ARC
  5
534
100
AcDbEntity
  8
LAY-1
  6
CONTINUOUS
 62
     2
100
AcDbCircle
 10
206.338819
 20
220.0
 30
0.0
 40
3.0
100
AcDbArc
 50
270.0
 51
357.0
  0
ARC
  5
535
100
AcDbEntity
  8
LAY-1
  6
CONTINUOUS
 62
     2
100
AcDbCircle
 10
211.60772
 20
225.0
 30
0.0
 40
2.0
100
AcDbArc
 50
90.0
 51
177.0
  0
LINE
  5
536
100
AcDbEntity
  8
LAY-1
  6
CONTINUOUS
 62
     2
100
AcDbLine
 10
209.334708
 20
219.842992
 30
0.0
 11
209.610461
 21
225.104672
 31
0.0
  0
ARC
  5
537
100
AcDbEntity
  8
LAY-1
  6
CONTINUOUS
 62
     2
100
AcDbCircle
 10
268.853603
 20
231.0
 30
0.0
 40
1.0
100
AcDbArc
 50
357.0
 51
90.0
  0
LINE
  5
538
100
AcDbEntity
  8
LAY-1
  6
CONTINUOUS
 62
     2
100
AcDbLine
 10
194.340863
 20
230.947664
 30
0.0
 11
194.922834
 21
219.842992
 31
0.0
  0
ARC
  5
539
100
AcDbEntity
  8
LAY-1
  6
CONTINUOUS
 62
     2
100
AcDbCircle
 10
197.918723
 20
220.0
 30
0.0
 40
3.0
100
AcDbArc
 50
183.0
 51
270.0
  0
ARC
  5
53A
100
AcDbEntity
  8
LAY-1
  6
CONTINUOUS
 62
     2
100
AcDbCircle
 10
195.339493
 20
231.0
 30
0.0
 40
1.0
100
AcDbArc
 50
90.0
 51
183.0
  0
LINE
  5
53B
100
AcDbEntity
  8
LAY-1
  6
CONTINUOUS
 62
     2
100
AcDbLine
 10
214.330211
 20
225.5
 30
0.0
 11
210.10772
 21
225.5
 31
0.0
  0
ARC
  5
53C
100
AcDbEntity
  8
LAY-1
  6
CONTINUOUS
 62
     2
100
AcDbCircle
 10
214.330211
 20
225.0
 30
0.0
 40
0.5
100
AcDbArc
 50
3.0
 51
90.0
  0
ARC
  5
53D
100
AcDbEntity
  8
LAY-1
  6
CONTINUOUS
 62
     2
100
AcDbCircle
 10
210.10772
 20
225.0
 30
0.0
 40
0.5
100
AcDbArc
 50
90.0
 51
180.0
  0
LINE
  5
53E
100
AcDbEntity
  8
LAY-1
  6
CONTINUOUS
 62
     2
100
AcDbLine
 10
275.685713
 20
254.5
 30
0.0
 11
208.685713
 21
254.5
 31
0.0
  0
LINE
  5
53F
100
AcDbEntity
  8
LAY-1
  6
CONTINUOUS
 62
     2
100
AcDbLine
 10
209.185713
 20
248.5
 30
0.0
 11
242.185713
 21
248.5
 31
0.0
  0
LINE
  5
540
100
AcDbEntity
  8
LAY-1
  6
CONTINUOUS
 62
     2
100
AcDbLine
 10
275.185713
 20
248.5
 30
0.0
 11
242.185713
 21
248.5
 31
0.0
  0
LINE
  5
541
100
AcDbEntity
  8
LAY-1
  6
CONTINUOUS
 62
     2
100
AcDbLine
 10
195.339493
 20
232.0
 30
0.0
 11
268.853603
 21
232.0
 31
0.0
  0
LINE
  5
542
100
AcDbEntity
  8
LAY-1
  6
CONTINUOUS
 62
     2
100
AcDbLine
 10
213.309858
 20
225.0
 30
0.0
 11
271.061567
 21
225.0
 31
0.0
  0
LINE
  5
543
100
AcDbEntity
  8
LAY-1
  6
CONTINUOUS
 62
     2
100
AcDbLine
 10
214.830897
 20
225.0
 30
0.0
 11
214.750914
 21
226.526168
 31
0.0
  0
LINE
  5
544
100
AcDbEntity
  8
LAY-1
  6
CONTINUOUS
 62
     2
100
AcDbLine
 10
269.852232
 20
230.947664
 30
0.0
 11
269.540528
 21
225.0
 31
0.0
  0
LINE
  5
545
100
AcDbEntity
  8
LAY-1
  6
CONTINUOUS
 62
     2
100
AcDbLine
 10
234.185713
 20
260.5
 30
0.0
 11
234.185713
 21
254.5
 31
0.0
  0
LINE
  5
546
100
AcDbEntity
  8
LAY-1
  6
CONTINUOUS
 62
     2
100
AcDbLine
 10
250.185713
 20
260.5
 30
0.0
 11
250.185713
 21
254.5
 31
0.0
  0
ARC
  5
547
100
AcDbEntity
  8
LAY-1
  6
CONTINUOUS
 62
     2
100
AcDbCircle
 10
274.685713
 20
259.499999
 30
0.0
 40
1.0
100
AcDbArc
 50
0.0
 51
90.0
  0
ARC
  5
548
100
AcDbEntity
  8
LAY-1
  6
CONTINUOUS
 62
     2
100
AcDbCircle
 10
209.685712
 20
259.499999
 30
0.0
 40
1.0
100
AcDbArc
 50
90.0
 51
180.0
  0
ARC
  5
549
100
AcDbEntity
  8
LAY-1
  6
CONTINUOUS
 62
     2
100
AcDbCircle
 10
275.385713
 20
254.8
 30
0.0
 40
0.3
100
AcDbArc
 50
270.0
 51
0.0
  0
LINE
  5
54A
100
AcDbEntity
  8
LAY-1
  6
CONTINUOUS
 62
     2
100
AcDbLine
 10
275.685713
 20
254.8
 30
0.0
 11
275.685713
 21
259.5
 31
0.0
  0
ARC
  5
54B
100
AcDbEntity
  8
LAY-1
  6
CONTINUOUS
 62
     2
100
AcDbCircle
 10
208.985712
 20
254.8
 30
0.0
 40
0.3
100
AcDbArc
 50
180.0
 51
270.0
  0
LINE
  5
54C
100
AcDbEntity
  8
LAY-1
  6
CONTINUOUS
 62
     2
100
AcDbLine
 10
208.685712
 20
259.5
 30
0.0
 11
208.685712
 21
254.8
 31
0.0
  0
LINE
  5
54D
100
AcDbEntity
  8
LAY-1
  6
CONTINUOUS
 62
     2
100
AcDbLine
 10
216.133186
 20
244.822283
 30
0.0
 11
216.58095
 21
232.0
 31
0.0
  0
LINE
  5
54E
100
AcDbEntity
  8
LAY-1
  6
CONTINUOUS
 62
     2
100
AcDbLine
 10
268.238239
 20
244.822283
 30
0.0
 11
267.790475
 21
232.0
 31
0.0
  0
LINE
  5
54F
100
AcDbEntity
  8
LAY-1
  6
CONTINUOUS
 62
     2
100
AcDbLine
 10
263.473089
 20
206.787993
 30
0.0
 11
220.073089
 21
206.787993
 31
0.0
  0
LINE
  5
550
100
AcDbEntity
  8
LAY-1
  6
CONTINUOUS
 62
     2
100
AcDbLine
 10
262.891557
 20
247.170835
 30
0.0
 11
262.891557
 21
248.5
 31
0.0
  0
ARC
  5
551
100
AcDbEntity
  8
LAY-1
  6
CONTINUOUS
 62
     2
100
AcDbCircle
 10
267.641557
 20
252.8
 30
0.0
 40
8.0
100
AcDbArc
 50
240.0
 51
270.0
  0
ARC
  5
552
100
AcDbEntity
  8
LAY-1
  6
CONTINUOUS
 62
     2
100
AcDbCircle
 10
264.391557
 20
247.170835
 30
0.0
 40
1.5
100
AcDbArc
 50
180.0
 51
240.0
  0
LINE
  5
553
100
AcDbEntity
  8
LAY-1
  6
CONTINUOUS
 62
     2
100
AcDbLine
 10
272.391557
 20
247.170835
 30
0.0
 11
272.391557
 21
248.5
 31
0.0
  0
ARC
  5
554
100
AcDbEntity
  8
LAY-1
  6
CONTINUOUS
 62
     2
100
AcDbCircle
 10
267.641557
 20
252.8
 30
0.0
 40
8.0
100
AcDbArc
 50
270.0
 51
300.0
  0
ARC
  5
555
100
AcDbEntity
  8
LAY-1
  6
CONTINUOUS
 62
     2
100
AcDbCircle
 10
270.891557
 20
247.170835
 30
0.0
 40
1.5
100
AcDbArc
 50
300.0
 51
0.0
  0
LINE
  5
556
100
AcDbEntity
  8
LAY-1
  6
CONTINUOUS
 62
     2
100
AcDbLine
 10
211.979869
 20
247.170835
 30
0.0
 11
211.979869
 21
248.5
 31
0.0
  0
ARC
  5
557
100
AcDbEntity
  8
LAY-1
  6
CONTINUOUS
 62
     2
100
AcDbCircle
 10
216.729869
 20
252.8
 30
0.0
 40
8.0
100
AcDbArc
 50
240.0
 51
270.0
  0
ARC
  5
558
100
AcDbEntity
  8
LAY-1
  6
CONTINUOUS
 62
     2
100
AcDbCircle
 10
213.479869
 20
247.170835
 30
0.0
 40
1.5
100
AcDbArc
 50
180.0
 51
240.0
  0
LINE
  5
559
100
AcDbEntity
  8
LAY-1
  6
CONTINUOUS
 62
     2
100
AcDbLine
 10
221.479869
 20
247.170835
 30
0.0
 11
221.479869
 21
248.5
 31
0.0
  0
ARC
  5
55A
100
AcDbEntity
  8
LAY-1
  6
CONTINUOUS
 62
     2
100
AcDbCircle
 10
216.729869
 20
252.8
 30
0.0
 40
8.0
100
AcDbArc
 50
270.0
 51
300.0
  0
ARC
  5
55B
100
AcDbEntity
  8
LAY-1
  6
CONTINUOUS
 62
     2
100
AcDbCircle
 10
219.979869
 20
247.170835
 30
0.0
 40
1.5
100
AcDbArc
 50
300.0
 51
0.0
  0
LINE
  5
55C
100
AcDbEntity
  8
LAY-1
  6
EXLTYPE3
 62
     1
100
AcDbLine
 10
151.7
 20
270.0
 30
0.0
 11
323.693026
 21
270.0
 31
0.0
  0
LINE
  5
55D
100
AcDbEntity
  8
LAY-1
  6
CONTINUOUS
 62
     2
100
AcDbLine
 10
275.685713
 20
255.0
 30
0.0
 11
292.685713
 21
255.0
 31
0.0
  0
ARC
  5
55E
100
AcDbEntity
  8
LAY-1
  6
CONTINUOUS
 62
     2
100
AcDbCircle
 10
292.685713
 20
257.5
 30
0.0
 40
2.5
100
AcDbArc
 50
270.0
 51
306.869898
  0
LINE
  5
55F
100
AcDbEntity
  8
LAY-1
  6
CONTINUOUS
 62
     2
100
AcDbLine
 10
317.185713
 20
286.0
 30
0.0
 11
317.185713
 21
254.0
 31
0.0
  0
LINE
  5
560
100
AcDbEntity
  8
LAY-1
  6
CONTINUOUS
 62
     2
100
AcDbLine
 10
294.185713
 20
254.0
 30
0.0
 11
294.185713
 21
286.0
 31
0.0
  0
LINE
  5
561
100
AcDbEntity
  8
LAY-1
  6
CONTINUOUS
 62
     2
100
AcDbLine
 10
295.196076
 20
271.0
 30
0.0
 11
315.435713
 21
271.0
 31
0.0
  0
LINE
  5
562
100
AcDbEntity
  8
LAY-1
  6
CONTINUOUS
 62
     2
100
AcDbLine
 10
315.435713
 20
269.0
 30
0.0
 11
295.196076
 21
269.0
 31
0.0
  0
LINE
  5
563
100
AcDbEntity
  8
LAY-1
  6
CONTINUOUS
 62
     2
100
AcDbLine
 10
294.185713
 20
286.0
 30
0.0
 11
317.185713
 21
286.0
 31
0.0
  0
LINE
  5
564
100
AcDbEntity
  8
LAY-1
  6
CONTINUOUS
 62
     2
100
AcDbLine
 10
294.185713
 20
254.0
 30
0.0
 11
317.185713
 21
254.0
 31
0.0
  0
ARC
  5
565
100
AcDbEntity
  8
LAY-1
  6
CONTINUOUS
 62
     2
100
AcDbCircle
 10
302.99026
 20
277.828
 30
0.0
 40
14.195453
100
AcDbArc
 50
331.249324
 51
28.750676
  0
ARC
  5
566
100
AcDbEntity
  8
LAY-1
  6
CONTINUOUS
 62
     2
100
AcDbCircle
 10
302.99026
 20
262.172
 30
0.0
 40
14.195453
100
AcDbArc
 50
331.249324
 51
28.750676
  0
ARC
  5
567
100
AcDbEntity
  8
LAY-1
  6
CONTINUOUS
 62
     2
100
AcDbCircle
 10
317.762595
 20
262.172
 30
0.0
 40
23.576882
100
AcDbArc
 50
163.165647
 51
196.834353
  0
LINE
  5
568
100
AcDbEntity
  8
LAY-1
  6
CONTINUOUS
 62
     2
100
AcDbLine
 10
295.196076
 20
255.344
 30
0.0
 11
295.196076
 21
254.0
 31
0.0
  0
LINE
  5
569
100
AcDbEntity
  8
LAY-1
  6
CONTINUOUS
 62
     2
100
AcDbLine
 10
315.435713
 20
255.344
 30
0.0
 11
315.435713
 21
254.0
 31
0.0
  0
LINE
  5
56A
100
AcDbEntity
  8
LAY-1
  6
CONTINUOUS
 62
     2
100
AcDbLine
 10
295.196076
 20
255.344
 30
0.0
 11
315.435713
 21
255.344
 31
0.0
  0
LINE
  5
56B
100
AcDbEntity
  8
LAY-1
  6
CONTINUOUS
 62
     2
100
AcDbLine
 10
295.196076
 20
284.656
 30
0.0
 11
315.435713
 21
284.656
 31
0.0
  0
LINE
  5
56C
100
AcDbEntity
  8
LAY-1
  6
CONTINUOUS
 62
     2
100
AcDbLine
 10
315.435713
 20
284.656
 30
0.0
 11
315.435713
 21
286.0
 31
0.0
  0
ARC
  5
56D
100
AcDbEntity
  8
LAY-1
  6
CONTINUOUS
 62
     2
100
AcDbCircle
 10
191.685713
 20
257.5
 30
0.0
 40
2.5
100
AcDbArc
 50
233.130102
 51
270.0
  0
LINE
  5
56E
100
AcDbEntity
  8
LAY-1
  6
CONTINUOUS
 62
     2
100
AcDbLine
 10
167.185713
 20
286.0
 30
0.0
 11
167.185713
 21
254.0
 31
0.0
  0
LINE
  5
56F
100
AcDbEntity
  8
LAY-1
  6
CONTINUOUS
 62
     2
100
AcDbLine
 10
190.185713
 20
254.0
 30
0.0
 11
190.185713
 21
286.0
 31
0.0
  0
LINE
  5
570
100
AcDbEntity
  8
LAY-1
  6
CONTINUOUS
 62
     2
100
AcDbLine
 10
189.17535
 20
271.0
 30
0.0
 11
168.935713
 21
271.0
 31
0.0
  0
LINE
  5
571
100
AcDbEntity
  8
LAY-1
  6
CONTINUOUS
 62
     2
100
AcDbLine
 10
168.935713
 20
269.0
 30
0.0
 11
189.17535
 21
269.0
 31
0.0
  0
LINE
  5
572
100
AcDbEntity
  8
LAY-1
  6
CONTINUOUS
 62
     2
100
AcDbLine
 10
190.185713
 20
286.0
 30
0.0
 11
167.185713
 21
286.0
 31
0.0
  0
LINE
  5
573
100
AcDbEntity
  8
LAY-1
  6
CONTINUOUS
 62
     2
100
AcDbLine
 10
190.185713
 20
254.0
 30
0.0
 11
167.185713
 21
254.0
 31
0.0
  0
ARC
  5
574
100
AcDbEntity
  8
LAY-1
  6
CONTINUOUS
 62
     2
100
AcDbCircle
 10
181.381165
 20
277.828
 30
0.0
 40
14.195453
100
AcDbArc
 50
151.249324
 51
208.750676
  0
ARC
  5
575
100
AcDbEntity
  8
LAY-1
  6
CONTINUOUS
 62
     2
100
AcDbCircle
 10
181.381165
 20
262.172
 30
0.0
 40
14.195453
100
AcDbArc
 50
151.249324
 51
208.750676
  0
ARC
  5
576
100
AcDbEntity
  8
LAY-1
  6
CONTINUOUS
 62
     2
100
AcDbCircle
 10
166.608831
 20
262.172
 30
0.0
 40
23.576882
100
AcDbArc
 50
343.165647
 51
16.834353
  0
LINE
  5
577
100
AcDbEntity
  8
LAY-1
  6
CONTINUOUS
 62
     2
100
AcDbLine
 10
189.17535
 20
255.344
 30
0.0
 11
189.17535
 21
254.0
 31
0.0
  0
LINE
  5
578
100
AcDbEntity
  8
LAY-1
  6
CONTINUOUS
 62
     2
100
AcDbLine
 10
168.935713
 20
255.344
 30
0.0
 11
168.935713
 21
254.0
 31
0.0
  0
LINE
  5
579
100
AcDbEntity
  8
LAY-1
  6
CONTINUOUS
 62
     2
100
AcDbLine
 10
189.17535
 20
255.344
 30
0.0
 11
168.935713
 21
255.344
 31
0.0
  0
LINE
  5
57A
100
AcDbEntity
  8
LAY-1
  6
CONTINUOUS
 62
     2
100
AcDbLine
 10
189.17535
 20
284.656
 30
0.0
 11
168.935713
 21
284.656
 31
0.0
  0
LINE
  5
57B
100
AcDbEntity
  8
LAY-1
  6
CONTINUOUS
 62
     2
100
AcDbLine
 10
168.935713
 20
284.656
 30
0.0
 11
168.935713
 21
286.0
 31
0.0
  0
LINE
  5
57C
100
AcDbEntity
  8
LAY-1
  6
CONTINUOUS
 62
     2
100
AcDbLine
 10
208.685712
 20
255.0
 30
0.0
 11
191.685713
 21
255.0
 31
0.0
  0
ARC
  5
57D
100
AcDbEntity
  8
LAY-1
  6
CONTINUOUS
 62
     2
100
AcDbCircle
 10
238.185713
 20
261.5
 30
0.0
 40
1.0
100
AcDbArc
 50
270.0
 51
0.0
  0
LINE
  5
57E
100
AcDbEntity
  8
LAY-1
  6
CONTINUOUS
 62
     2
100
AcDbLine
 10
238.185713
 20
260.5
 30
0.0
 11
209.685713
 21
260.5
 31
0.0
  0
ARC
  5
57F
100
AcDbEntity
  8
LAY-1
  6
CONTINUOUS
 62
     2
100
AcDbCircle
 10
246.185713
 20
261.5
 30
0.0
 40
1.0
100
AcDbArc
 50
180.0
 51
270.0
  0
LINE
  5
580
100
AcDbEntity
  8
LAY-1
  6
CONTINUOUS
 62
     2
100
AcDbLine
 10
274.685713
 20
260.5
 30
0.0
 11
246.185713
 21
260.5
 31
0.0
  0
LINE
  5
581
100
AcDbEntity
  8
LAY-1
  6
CONTINUOUS
 62
     2
100
AcDbLine
 10
274.685713
 20
260.499999
 30
0.0
 11
274.685713
 21
260.499999
 31
0.0
  0
LINE
  5
582
100
AcDbEntity
  8
LAY-1
  6
CONTINUOUS
 62
     2
100
AcDbLine
 10
209.685712
 20
260.5
 30
0.0
 11
209.685713
 21
260.5
 31
0.0
  0
LINE
  5
583
100
AcDbEntity
  8
LAY-1
  6
CONTINUOUS
 62
     2
100
AcDbLine
 10
209.685712
 20
260.499999
 30
0.0
 11
209.685713
 21
260.499999
 31
0.0
  0
ARC
  5
584
100
AcDbEntity
  8
LAY-1
  6
CONTINUOUS
 62
     2
100
AcDbCircle
 10
317.762595
 20
277.828
 30
0.0
 40
23.576882
100
AcDbArc
 50
163.165647
 51
196.834353
  0
LINE
  5
585
100
AcDbEntity
  8
LAY-1
  6
CONTINUOUS
 62
     2
100
AcDbLine
 10
295.196076
 20
284.656
 30
0.0
 11
295.196076
 21
286.0
 31
0.0
  0
ARC
  5
586
100
AcDbEntity
  8
LAY-1
  6
CONTINUOUS
 62
     2
100
AcDbCircle
 10
166.608831
 20
277.828
 30
0.0
 40
23.576882
100
AcDbArc
 50
343.165647
 51
16.834353
  0
LINE
  5
587
100
AcDbEntity
  8
LAY-1
  6
CONTINUOUS
 62
     2
100
AcDbLine
 10
189.17535
 20
284.656
 30
0.0
 11
189.17535
 21
286.0
 31
0.0
  0
LINE
  5
588
100
AcDbEntity
  8
LAY-1
  6
CONTINUOUS
 62
     2
100
AcDbLine
 10
214.114279
 20
263.342992
 30
0.0
 11
214.711335
 21
274.735512
 31
0.0
  0
ARC
  5
589
100
AcDbEntity
  8
LAY-1
  6
CONTINUOUS
 62
     2
100
AcDbCircle
 10
211.11839
 20
263.5
 30
0.0
 40
3.0
100
AcDbArc
 50
270.0
 51
357.0
  0
ARC
  5
58A
100
AcDbEntity
  8
LAY-1
  6
CONTINUOUS
 62
     2
100
AcDbCircle
 10
219.205168
 20
274.5
 30
0.0
 40
4.5
100
AcDbArc
 50
90.0
 51
177.0
  0
ARC
  5
58B
100
AcDbEntity
  8
LAY-1
  6
CONTINUOUS
 62
     2
100
AcDbCircle
 10
191.685713
 20
282.5
 30
0.0
 40
2.5
100
AcDbArc
 50
90.0
 51
129.789699
  0
ARC
  5
58C
100
AcDbEntity
  8
LAY-1
  6
CONTINUOUS
 62
     2
100
AcDbCircle
 10
292.685713
 20
282.5
 30
0.0
 40
2.5
100
AcDbArc
 50
50.210301
 51
90.0
  0
ARC
  5
58D
100
AcDbEntity
  8
LAY-1
  6
CONTINUOUS
 62
     2
100
AcDbCircle
 10
265.166257
 20
274.5
 30
0.0
 40
4.5
100
AcDbArc
 50
3.0
 51
90.0
  0
LINE
  5
58E
100
AcDbEntity
  8
LAY-1
  6
CONTINUOUS
 62
     2
100
AcDbLine
 10
219.205168
 20
279.0
 30
0.0
 11
239.185713
 21
279.0
 31
0.0
  0
LINE
  5
58F
100
AcDbEntity
  8
LAY-1
  6
CONTINUOUS
 62
     2
100
AcDbLine
 10
265.166257
 20
279.0
 30
0.0
 11
245.185713
 21
279.0
 31
0.0
  0
LINE
  5
590
100
AcDbEntity
  8
LAY-1
  6
CONTINUOUS
 62
     2
100
AcDbLine
 10
239.185713
 20
261.5
 30
0.0
 11
239.185713
 21
289.0
 31
0.0
  0
LINE
  5
591
100
AcDbEntity
  8
LAY-1
  6
CONTINUOUS
 62
     2
100
AcDbLine
 10
245.185713
 20
261.5
 30
0.0
 11
245.185713
 21
289.0
 31
0.0
  0
LINE
  5
592
100
AcDbEntity
  8
LAY-1
  6
CONTINUOUS
 62
     2
100
AcDbLine
 10
270.257147
 20
263.342992
 30
0.0
 11
269.66009
 21
274.735512
 31
0.0
  0
ARC
  5
593
100
AcDbEntity
  8
LAY-1
  6
CONTINUOUS
 62
     2
100
AcDbCircle
 10
273.253035
 20
263.5
 30
0.0
 40
3.0
100
AcDbArc
 50
183.0
 51
270.0
  0
LINE
  5
594
100
AcDbEntity
  8
LAY-1
  6
CONTINUOUS
 62
     2
100
AcDbLine
 10
239.185713
 20
285.0
 30
0.0
 11
191.685713
 21
285.0
 31
0.0
  0
LINE
  5
595
100
AcDbEntity
  8
LAY-1
  6
CONTINUOUS
 62
     2
100
AcDbLine
 10
245.185713
 20
285.0
 30
0.0
 11
292.685713
 21
285.0
 31
0.0
  0
LINE
  5
596
100
AcDbEntity
  8
LAY-1
  6
CONTINUOUS
 62
     2
100
AcDbLine
 10
294.185713
 20
284.504224
 30
0.0
 11
290.178133
 21
287.841993
 31
0.0
  0
ARC
  5
597
100
AcDbEntity
  8
LAY-1
  6
CONTINUOUS
 62
     2
100
AcDbCircle
 10
286.978275
 20
284.0
 30
0.0
 40
5.0
100
AcDbArc
 50
50.210301
 51
90.0
  0
LINE
  5
598
100
AcDbEntity
  8
LAY-1
  6
CONTINUOUS
 62
     2
100
AcDbLine
 10
190.185713
 20
284.504224
 30
0.0
 11
194.193293
 21
287.841993
 31
0.0
  0
LINE
  5
599
100
AcDbEntity
  8
LAY-1
  6
CONTINUOUS
 62
     2
100
AcDbLine
 10
197.393151
 20
289.0
 30
0.0
 11
286.978275
 21
289.0
 31
0.0
  0
ARC
  5
59A
100
AcDbEntity
  8
LAY-1
  6
CONTINUOUS
 62
     2
100
AcDbCircle
 10
197.393151
 20
284.0
 30
0.0
 40
5.0
100
AcDbArc
 50
90.0
 51
129.789699
  0
LINE
  5
59B
100
AcDbEntity
  8
LAY-1
  6
CONTINUOUS
 62
     2
100
AcDbLine
 10
215.281356
 20
276.70311
 30
0.0
 11
217.779853
 21
281.153016
 31
0.0
  0
LINE
  5
59C
100
AcDbEntity
  8
LAY-1
  6
CONTINUOUS
 62
     2
100
AcDbLine
 10
222.139644
 20
283.705116
 30
0.0
 11
239.185713
 21
283.705116
 31
0.0
  0
ARC
  5
59D
100
AcDbEntity
  8
LAY-1
  6
CONTINUOUS
 62
     2
100
AcDbCircle
 10
222.139644
 20
278.705116
 30
0.0
 40
5.0
100
AcDbArc
 50
90.0
 51
150.687017
  0
LINE
  5
59E
100
AcDbEntity
  8
LAY-1
  6
CONTINUOUS
 62
     2
100
AcDbLine
 10
269.09007
 20
276.70311
 30
0.0
 11
266.591573
 21
281.153016
 31
0.0
  0
LINE
  5
59F
100
AcDbEntity
  8
LAY-1
  6
CONTINUOUS
 62
     2
100
AcDbLine
 10
245.185713
 20
283.705116
 30
0.0
 11
262.231781
 21
283.705116
 31
0.0
  0
ARC
  5
5A0
100
AcDbEntity
  8
LAY-1
  6
CONTINUOUS
 62
     2
100
AcDbCircle
 10
262.231781
 20
278.705116
 30
0.0
 40
5.0
100
AcDbArc
 50
29.312983
 51
90.0
  0
LINE
  5
5A1
100
AcDbEntity
  8
LAY-1
  6
EXLTYPE3
 62
     1
100
AcDbLine
 10
242.185713
 20
181.987993
 30
0.0
 11
242.185713
 21
295.3
 31
0.0
  0
TEXT
  5
5A2
100
AcDbEntity
  8
LAY-1
  6
CONTINUOUS
 62
     3
100
AcDbText
 10
401.6744
 20
-193.312
 30
0.0
 40
8.0
  1
ＴＡＸ－１０Ｍ
 41
0.84
  7
EXCADSTD
 72
     5
 11
457.6744
 21
-193.312
 31
0.0
100
AcDbText
  0
ARC
  5
5A3
100
AcDbEntity
  8
LAY-1
  6
CONTINUOUS
 62
     2
100
AcDbCircle
 10
260.185713
 20
79.497351
 30
0.0
 40
21.0
100
AcDbArc
 50
180.0
 51
270.0
  0
ARC
  5
5A4
100
AcDbEntity
  8
LAY-1
  6
CONTINUOUS
 62
     2
100
AcDbCircle
 10
260.185713
 20
79.497351
 30
0.0
 40
15.0
100
AcDbArc
 50
180.0
 51
270.0
  0
POLYLINE
  5
5A5
100
AcDbEntity
  8
LAY-1
  6
CONTINUOUS
 62
     1
100
AcDb2dPolyline
 66
     1
 10
0.0
 20
0.0
 30
0.0
 70
   128
  0
VERTEX
  5
5A6
100
AcDbEntity
  8
LAY-1
  6
CONTINUOUS
 62
     1
100
AcDbVertex
100
AcDb2dVertex
 10
292.359658
 20
64.497351
 30
0.0
  0
VERTEX
  5
5A7
100
AcDbEntity
  8
LAY-1
  6
CONTINUOUS
 62
     1
100
AcDbVertex
100
AcDb2dVertex
 10
292.341763
 20
64.476125
 30
0.0
  0
VERTEX
  5
5A8
100
AcDbEntity
  8
LAY-1
  6
CONTINUOUS
 62
     1
100
AcDbVertex
100
AcDb2dVertex
 10
292.293021
 20
64.416078
 30
0.0
  0
VERTEX
  5
5A9
100
AcDbEntity
  8
LAY-1
  6
CONTINUOUS
 62
     1
100
AcDbVertex
100
AcDb2dVertex
 10
292.220848
 20
64.322656
 30
0.0
  0
VERTEX
  5
5AA
100
AcDbEntity
  8
LAY-1
  6
CONTINUOUS
 62
     1
100
AcDbVertex
100
AcDb2dVertex
 10
292.132657
 20
64.201305
 30
0.0
  0
VERTEX
  5
5AB
100
AcDbEntity
  8
LAY-1
  6
CONTINUOUS
 62
     1
100
AcDbVertex
100
AcDb2dVertex
 10
292.035863
 20
64.057473
 30
0.0
  0
VERTEX
  5
5AC
100
AcDbEntity
  8
LAY-1
  6
CONTINUOUS
 62
     1
100
AcDbVertex
100
AcDb2dVertex
 10
291.937881
 20
63.896604
 30
0.0
  0
VERTEX
  5
5AD
100
AcDbEntity
  8
LAY-1
  6
CONTINUOUS
 62
     1
100
AcDbVertex
100
AcDb2dVertex
 10
291.846125
 20
63.724147
 30
0.0
  0
VERTEX
  5
5AE
100
AcDbEntity
  8
LAY-1
  6
CONTINUOUS
 62
     1
100
AcDbVertex
100
AcDb2dVertex
 10
291.76801
 20
63.545546
 30
0.0
  0
VERTEX
  5
5AF
100
AcDbEntity
  8
LAY-1
  6
CONTINUOUS
 62
     1
100
AcDbVertex
100
AcDb2dVertex
 10
291.710951
 20
63.366249
 30
0.0
  0
VERTEX
  5
5B0
100
AcDbEntity
  8
LAY-1
  6
CONTINUOUS
 62
     1
100
AcDbVertex
100
AcDb2dVertex
 10
291.682362
 20
63.191702
 30
0.0
  0
VERTEX
  5
5B1
100
AcDbEntity
  8
LAY-1
  6
CONTINUOUS
 62
     1
100
AcDbVertex
100
AcDb2dVertex
 10
291.689658
 20
63.027351
 30
0.0
  0
VERTEX
  5
5B2
100
AcDbEntity
  8
LAY-1
  6
CONTINUOUS
 62
     1
100
AcDbVertex
100
AcDb2dVertex
 10
291.72846
 20
62.897594
 30
0.0
  0
VERTEX
  5
5B3
100
AcDbEntity
  8
LAY-1
  6
CONTINUOUS
 62
     1
100
AcDbVertex
100
AcDb2dVertex
 10
291.793218
 20
62.778035
 30
0.0
  0
VERTEX
  5
5B4
100
AcDbEntity
  8
LAY-1
  6
CONTINUOUS
 62
     1
100
AcDbVertex
100
AcDb2dVertex
 10
291.877905
 20
62.667321
 30
0.0
  0
VERTEX
  5
5B5
100
AcDbEntity
  8
LAY-1
  6
CONTINUOUS
 62
     1
100
AcDbVertex
100
AcDb2dVertex
 10
291.976495
 20
62.564095
 30
0.0
  0
VERTEX
  5
5B6
100
AcDbEntity
  8
LAY-1
  6
CONTINUOUS
 62
     1
100
AcDbVertex
100
AcDb2dVertex
 10
292.082961
 20
62.467002
 30
0.0
  0
VERTEX
  5
5B7
100
AcDbEntity
  8
LAY-1
  6
CONTINUOUS
 62
     1
100
AcDbVertex
100
AcDb2dVertex
 10
292.191276
 20
62.374687
 30
0.0
  0
VERTEX
  5
5B8
100
AcDbEntity
  8
LAY-1
  6
CONTINUOUS
 62
     1
100
AcDbVertex
100
AcDb2dVertex
 10
292.295414
 20
62.285795
 30
0.0
  0
VERTEX
  5
5B9
100
AcDbEntity
  8
LAY-1
  6
CONTINUOUS
 62
     1
100
AcDbVertex
100
AcDb2dVertex
 10
292.389348
 20
62.198971
 30
0.0
  0
VERTEX
  5
5BA
100
AcDbEntity
  8
LAY-1
  6
CONTINUOUS
 62
     1
100
AcDbVertex
100
AcDb2dVertex
 10
292.467051
 20
62.112859
 30
0.0
  0
VERTEX
  5
5BB
100
AcDbEntity
  8
LAY-1
  6
CONTINUOUS
 62
     1
100
AcDbVertex
100
AcDb2dVertex
 10
292.522496
 20
62.026104
 30
0.0
  0
VERTEX
  5
5BC
100
AcDbEntity
  8
LAY-1
  6
CONTINUOUS
 62
     1
100
AcDbVertex
100
AcDb2dVertex
 10
292.549658
 20
61.937351
 30
0.0
  0
VERTEX
  5
5BD
100
AcDbEntity
  8
LAY-1
  6
CONTINUOUS
 62
     1
100
AcDbVertex
100
AcDb2dVertex
 10
292.541488
 20
61.833842
 30
0.0
  0
VERTEX
  5
5BE
100
AcDbEntity
  8
LAY-1
  6
CONTINUOUS
 62
     1
100
AcDbVertex
100
AcDb2dVertex
 10
292.496836
 20
61.726688
 30
0.0
  0
VERTEX
  5
5BF
100
AcDbEntity
  8
LAY-1
  6
CONTINUOUS
 62
     1
100
AcDbVertex
100
AcDb2dVertex
 10
292.422648
 20
61.61649
 30
0.0
  0
VERTEX
  5
5C0
100
AcDbEntity
  8
LAY-1
  6
CONTINUOUS
 62
     1
100
AcDbVertex
100
AcDb2dVertex
 10
292.325874
 20
61.503849
 30
0.0
  0
VERTEX
  5
5C1
100
AcDbEntity
  8
LAY-1
  6
CONTINUOUS
 62
     1
100
AcDbVertex
100
AcDb2dVertex
 10
292.213461
 20
61.389363
 30
0.0
  0
VERTEX
  5
5C2
100
AcDbEntity
  8
LAY-1
  6
CONTINUOUS
 62
     1
100
AcDbVertex
100
AcDb2dVertex
 10
292.092357
 20
61.273635
 30
0.0
  0
VERTEX
  5
5C3
100
AcDbEntity
  8
LAY-1
  6
CONTINUOUS
 62
     1
100
AcDbVertex
100
AcDb2dVertex
 10
291.969511
 20
61.157263
 30
0.0
  0
VERTEX
  5
5C4
100
AcDbEntity
  8
LAY-1
  6
CONTINUOUS
 62
     1
100
AcDbVertex
100
AcDb2dVertex
 10
291.851869
 20
61.040848
 30
0.0
  0
VERTEX
  5
5C5
100
AcDbEntity
  8
LAY-1
  6
CONTINUOUS
 62
     1
100
AcDbVertex
100
AcDb2dVertex
 10
291.746382
 20
60.924991
 30
0.0
  0
VERTEX
  5
5C6
100
AcDbEntity
  8
LAY-1
  6
CONTINUOUS
 62
     1
100
AcDbVertex
100
AcDb2dVertex
 10
291.659995
 20
60.810292
 30
0.0
  0
VERTEX
  5
5C7
100
AcDbEntity
  8
LAY-1
  6
CONTINUOUS
 62
     1
100
AcDbVertex
100
AcDb2dVertex
 10
291.599658
 20
60.697351
 30
0.0
  0
VERTEX
  5
5C8
100
AcDbEntity
  8
LAY-1
  6
CONTINUOUS
 62
     1
100
AcDbVertex
100
AcDb2dVertex
 10
291.569615
 20
60.579916
 30
0.0
  0
VERTEX
  5
5C9
100
AcDbEntity
  8
LAY-1
  6
CONTINUOUS
 62
     1
100
AcDbVertex
100
AcDb2dVertex
 10
291.57118
 20
60.4632
 30
0.0
  0
VERTEX
  5
5CA
100
AcDbEntity
  8
LAY-1
  6
CONTINUOUS
 62
     1
100
AcDbVertex
100
AcDb2dVertex
 10
291.598972
 20
60.345276
 30
0.0
  0
VERTEX
  5
5CB
100
AcDbEntity
  8
LAY-1
  6
CONTINUOUS
 62
     1
100
AcDbVertex
100
AcDb2dVertex
 10
291.647608
 20
60.224219
 30
0.0
  0
VERTEX
  5
5CC
100
AcDbEntity
  8
LAY-1
  6
CONTINUOUS
 62
     1
100
AcDbVertex
100
AcDb2dVertex
 10
291.711707
 20
60.098103
 30
0.0
  0
VERTEX
  5
5CD
100
AcDbEntity
  8
LAY-1
  6
CONTINUOUS
 62
     1
100
AcDbVertex
100
AcDb2dVertex
 10
291.785888
 20
59.965004
 30
0.0
  0
VERTEX
  5
5CE
100
AcDbEntity
  8
LAY-1
  6
CONTINUOUS
 62
     1
100
AcDbVertex
100
AcDb2dVertex
 10
291.864768
 20
59.822994
 30
0.0
  0
VERTEX
  5
5CF
100
AcDbEntity
  8
LAY-1
  6
CONTINUOUS
 62
     1
100
AcDbVertex
100
AcDb2dVertex
 10
291.942967
 20
59.67015
 30
0.0
  0
VERTEX
  5
5D0
100
AcDbEntity
  8
LAY-1
  6
CONTINUOUS
 62
     1
100
AcDbVertex
100
AcDb2dVertex
 10
292.015103
 20
59.504545
 30
0.0
  0
VERTEX
  5
5D1
100
AcDbEntity
  8
LAY-1
  6
CONTINUOUS
 62
     1
100
AcDbVertex
100
AcDb2dVertex
 10
292.075794
 20
59.324254
 30
0.0
  0
VERTEX
  5
5D2
100
AcDbEntity
  8
LAY-1
  6
CONTINUOUS
 62
     1
100
AcDbVertex
100
AcDb2dVertex
 10
292.119658
 20
59.127351
 30
0.0
  0
VERTEX
  5
5D3
100
AcDbEntity
  8
LAY-1
  6
CONTINUOUS
 62
     1
100
AcDbVertex
100
AcDb2dVertex
 10
292.13094
 20
59.047805
 30
0.0
  0
VERTEX
  5
5D4
100
AcDbEntity
  8
LAY-1
  6
CONTINUOUS
 62
     1
100
AcDbVertex
100
AcDb2dVertex
 10
292.139368
 20
58.96735
 30
0.0
  0
VERTEX
  5
5D5
100
AcDbEntity
  8
LAY-1
  6
CONTINUOUS
 62
     1
100
AcDbVertex
100
AcDb2dVertex
 10
292.145317
 20
58.887776
 30
0.0
  0
VERTEX
  5
5D6
100
AcDbEntity
  8
LAY-1
  6
CONTINUOUS
 62
     1
100
AcDbVertex
100
AcDb2dVertex
 10
292.149162
 20
58.810868
 30
0.0
  0
VERTEX
  5
5D7
100
AcDbEntity
  8
LAY-1
  6
CONTINUOUS
 62
     1
100
AcDbVertex
100
AcDb2dVertex
 10
292.151277
 20
58.738415
 30
0.0
  0
VERTEX
  5
5D8
100
AcDbEntity
  8
LAY-1
  6
CONTINUOUS
 62
     1
100
AcDbVertex
100
AcDb2dVertex
 10
292.152038
 20
58.672205
 30
0.0
  0
VERTEX
  5
5D9
100
AcDbEntity
  8
LAY-1
  6
CONTINUOUS
 62
     1
100
AcDbVertex
100
AcDb2dVertex
 10
292.15182
 20
58.614024
 30
0.0
  0
VERTEX
  5
5DA
100
AcDbEntity
  8
LAY-1
  6
CONTINUOUS
 62
     1
100
AcDbVertex
100
AcDb2dVertex
 10
292.150997
 20
58.565661
 30
0.0
  0
VERTEX
  5
5DB
100
AcDbEntity
  8
LAY-1
  6
CONTINUOUS
 62
     1
100
AcDbVertex
100
AcDb2dVertex
 10
292.149945
 20
58.528903
 30
0.0
  0
VERTEX
  5
5DC
100
AcDbEntity
  8
LAY-1
  6
CONTINUOUS
 62
     1
100
AcDbVertex
100
AcDb2dVertex
 10
292.149039
 20
58.505537
 30
0.0
  0
VERTEX
  5
5DD
100
AcDbEntity
  8
LAY-1
  6
CONTINUOUS
 62
     1
100
AcDbVertex
100
AcDb2dVertex
 10
292.148654
 20
58.497351
 30
0.0
  0
SEQEND
  5
5DE
100
AcDbEntity
  8
LAY-1
  6
CONTINUOUS
 62
     1
  0
LINE
  5
5DF
100
AcDbEntity
  8
LAY-1
  6
CONTINUOUS
 62
     2
100
AcDbLine
 10
260.185713
 20
64.497351
 30
0.0
 11
292.359658
 21
64.497351
 31
0.0
  0
LINE
  5
5E0
100
AcDbEntity
  8
LAY-1
  6
CONTINUOUS
 62
     2
100
AcDbLine
 10
260.185713
 20
58.497351
 30
0.0
 11
292.148654
 21
58.497351
 31
0.0
  0
LINE
  5
5E1
100
AcDbEntity
  8
LAY-1
  6
CONTINUOUS
 62
     2
100
AcDbLine
 10
239.185713
 20
79.497351
 30
0.0
 11
239.185713
 21
86.239007
 31
0.0
  0
LINE
  5
5E2
100
AcDbEntity
  8
LAY-1
  6
CONTINUOUS
 62
     2
100
AcDbLine
 10
245.185713
 20
86.239007
 30
0.0
 11
245.185713
 21
79.497351
 31
0.0
  0
LINE
  5
5E3
100
AcDbEntity
  8
LAY-1
  6
CONTINUOUS
 62
     2
100
AcDbLine
 10
234.185713
 20
85.739007
 30
0.0
 11
239.185713
 21
85.739007
 31
0.0
  0
LINE
  5
5E4
100
AcDbEntity
  8
LAY-1
  6
CONTINUOUS
 62
     2
100
AcDbLine
 10
245.185713
 20
85.739007
 30
0.0
 11
250.185713
 21
85.739007
 31
0.0
  0
ARC
  5
5E5
100
AcDbEntity
  8
LAY-1
  6
CONTINUOUS
 62
     2
100
AcDbCircle
 10
242.185713
 20
91.557282
 30
0.0
 40
17.318275
100
AcDbArc
 50
247.5
 51
262.125928
  0
LINE
  5
5E6
100
AcDbEntity
  8
LAY-1
  6
CONTINUOUS
 62
     2
100
AcDbLine
 10
239.854706
 20
74.239007
 30
0.0
 11
226.185713
 21
74.239007
 31
0.0
  0
ARC
  5
5E7
100
AcDbEntity
  8
LAY-1
  6
CONTINUOUS
 62
     2
100
AcDbCircle
 10
242.185713
 20
91.557282
 30
0.0
 40
17.318275
100
AcDbArc
 50
282.678356
 51
292.5
  0
LINE
  5
5E8
100
AcDbEntity
  8
LAY-1
  6
CONTINUOUS
 62
     2
100
AcDbLine
 10
258.185713
 20
74.239007
 30
0.0
 11
246.137588
 21
74.239007
 31
0.0
  0
LINE
  5
5E9
100
AcDbEntity
  8
LAY-1
  6
CONTINUOUS
 62
     2
100
AcDbLine
 10
240.671408
 20
71.739007
 30
0.0
 11
231.244003
 21
71.739007
 31
0.0
  0
LINE
  5
5EA
100
AcDbEntity
  8
LAY-1
  6
CONTINUOUS
 62
     2
100
AcDbLine
 10
253.127422
 20
71.739007
 30
0.0
 11
247.347952
 21
71.739007
 31
0.0
  0
LINE
  5
5EB
100
AcDbEntity
  8
LAY-1
  6
CONTINUOUS
 62
     2
100
AcDbLine
 10
230.685713
 20
69.239007
 30
0.0
 11
241.861783
 21
69.239007
 31
0.0
  0
ARC
  5
5EC
100
AcDbEntity
  8
LAY-1
  6
CONTINUOUS
 62
     2
100
AcDbCircle
 10
247.935713
 20
52.630969
 30
0.0
 40
16.608038
100
AcDbArc
 50
109.389948
 51
110.256158
  0
ARC
  5
5ED
100
AcDbEntity
  8
LAY-1
  6
CONTINUOUS
 62
     2
100
AcDbCircle
 10
247.935713
 20
52.630969
 30
0.0
 40
16.608038
100
AcDbArc
 50
69.743842
 51
85.307518
  0
LINE
  5
5EE
100
AcDbEntity
  8
LAY-1
  6
CONTINUOUS
 62
     2
100
AcDbLine
 10
249.24193
 20
69.239007
 30
0.0
 11
253.685713
 21
69.239007
 31
0.0
  0
LINE
  5
5EF
100
AcDbEntity
  8
LAY-1
  6
CONTINUOUS
 62
     2
100
AcDbLine
 10
231.185713
 20
61.239007
 30
0.0
 11
249.811086
 21
61.239007
 31
0.0
  0
ARC
  5
5F0
100
AcDbEntity
  8
LAY-1
  6
CONTINUOUS
 62
     2
100
AcDbCircle
 10
247.935713
 20
77.847045
 30
0.0
 40
16.608038
100
AcDbArc
 50
249.743842
 51
275.943739
  0
LINE
  5
5F1
100
AcDbEntity
  8
LAY-1
  6
CONTINUOUS
 62
     2
100
AcDbLine
 10
253.685713
 20
69.239007
 30
0.0
 11
253.685713
 21
65.978845
 31
0.0
  0
LINE
  5
5F2
100
AcDbEntity
  8
LAY-1
  6
CONTINUOUS
 62
     2
100
AcDbLine
 10
255.185713
 20
59.101273
 30
0.0
 11
255.185713
 21
54.595884
 31
0.0
  0
CIRCLE
  5
5F3
100
AcDbEntity
  8
LAY-1
  6
CONTINUOUS
 62
     1
100
AcDbCircle
 10
467.70535
 20
119.239007
 30
0.0
 40
10.25
  0
CIRCLE
  5
5F4
100
AcDbEntity
  8
LAY-1
  6
CONTINUOUS
 62
     1
100
AcDbCircle
 10
16.666076
 20
119.239007
 30
0.0
 40
10.25
  0
ENDSEC
  0
SECTION
  2
OBJECTS
  0
DICTIONARY
  5
19
100
AcDbDictionary
  3
ACAD_GROUP
350
1A
  3
ACAD_MLINESTYLE
350
1B
  0
DICTIONARY
  5
1A
102
{ACAD_REACTORS
330
19
102
}
100
AcDbDictionary
  0
DICTIONARY
  5
1B
102
{ACAD_REACTORS
330
19
102
}
100
AcDbDictionary
  3
STANDARD
350
1C
  0
MLINESTYLE
  5
1C
102
{ACAD_REACTORS
330
1B
102
}
100
AcDbMlineStyle
  2
Standard
 70
     0
  3

 62
     0
 51
90.0
 52
90.0
 71
     2
 49
0.5
 62
   256
  6
ByLayer
 49
-0.5
 62
   256
  6
ByLayer
  0
ENDSEC
  0
EOF
