  0
SECTION
  2
HEADER
  9
$ACADVER
  1
AC1014
  9
$ACADMAINTVER
 70
     0
  9
$DWGCODEPAGE
  3
ANSI_932
  9
$INSBASE
 10
0.0
 20
0.0
 30
0.0
  9
$EXTMIN
 10
251.0
 20
167.0
 30
0.0
  9
$EXTMAX
 10
3908.8
 20
2738.5
 30
0.0
  9
$LIMMIN
 10
0.0
 20
0.0
  9
$LIMMAX
 10
420.0
 20
297.0
  9
$ORTHOMODE
 70
     0
  9
$REGENMODE
 70
     1
  9
$FILLMODE
 70
     1
  9
$QTEXTMODE
 70
     0
  9
$MIRRTEXT
 70
     1
  9
$DRAGMODE
 70
     2
  9
$LTSCALE
 40
1.0
  9
$OSMODE
 70
     0
  9
$ATTMODE
 70
     1
  9
$TEXTSIZE
 40
0.2
  9
$TRACEWID
 40
0.05
  9
$TEXTSTYLE
  7
STANDARD
  9
$CLAYER
  8
LAY-1
  9
$CELTYPE
  6
CONTINUOUS
  9
$CECOLOR
 62
   256
  9
$CELTSCALE
 40
1.0
  9
$DELOBJ
 70
     1
  9
$DISPSILH
 70
     0
  9
$DIMSCALE
 40
1.0
  9
$DIMASZ
 40
0.18
  9
$DIMEXO
 40
0.0625
  9
$DIMDLI
 40
0.38
  9
$DIMRND
 40
0.0
  9
$DIMDLE
 40
0.0
  9
$DIMEXE
 40
0.18
  9
$DIMTP
 40
0.0
  9
$DIMTM
 40
0.0
  9
$DIMTXT
 40
0.18
  9
$DIMCEN
 40
0.09
  9
$DIMTSZ
 40
0.0
  9
$DIMTOL
 70
     0
  9
$DIMLIM
 70
     0
  9
$DIMTIH
 70
     1
  9
$DIMTOH
 70
     1
  9
$DIMSE1
 70
     0
  9
$DIMSE2
 70
     0
  9
$DIMTAD
 70
     0
  9
$DIMZIN
 70
     0
  9
$DIMBLK
  1

  9
$DIMASO
 70
     1
  9
$DIMSHO
 70
     1
  9
$DIMPOST
  1

  9
$DIMAPOST
  1

  9
$DIMALT
 70
     0
  9
$DIMALTD
 70
     2
  9
$DIMALTF
 40
25.4
  9
$DIMLFAC
 40
1.0
  9
$DIMTOFL
 70
     0
  9
$DIMTVP
 40
0.0
  9
$DIMTIX
 70
     0
  9
$DIMSOXD
 70
     0
  9
$DIMSAH
 70
     0
  9
$DIMBLK1
  1

  9
$DIMBLK2
  1

  9
$DIMSTYLE
  2
STANDARD
  9
$DIMCLRD
 70
     0
  9
$DIMCLRE
 70
     0
  9
$DIMCLRT
 70
     0
  9
$DIMTFAC
 40
1.0
  9
$DIMGAP
 40
0.09
  9
$DIMJUST
 70
     0
  9
$DIMSD1
 70
     0
  9
$DIMSD2
 70
     0
  9
$DIMTOLJ
 70
     1
  9
$DIMTZIN
 70
     0
  9
$DIMALTZ
 70
     0
  9
$DIMALTTZ
 70
     0
  9
$DIMFIT
 70
     3
  9
$DIMUPT
 70
     0
  9
$DIMUNIT
 70
     2
  9
$DIMDEC
 70
     4
  9
$DIMTDEC
 70
     4
  9
$DIMALTU
 70
     2
  9
$DIMALTTD
 70
     2
  9
$DIMTXSTY
  7
STANDARD
  9
$DIMAUNIT
 70
     0
  9
$LUNITS
 70
     2
  9
$LUPREC
 70
     4
  9
$SKETCHINC
 40
0.1
  9
$FILLETRAD
 40
0.0
  9
$AUNITS
 70
     0
  9
$AUPREC
 70
     0
  9
$MENU
  1
acad
  9
$ELEVATION
 40
0.0
  9
$PELEVATION
 40
0.0
  9
$THICKNESS
 40
0.0
  9
$LIMCHECK
 70
     0
  9
$BLIPMODE
 70
     1
  9
$CHAMFERA
 40
0.0
  9
$CHAMFERB
 40
0.0
  9
$CHAMFERC
 40
0.0
  9
$CHAMFERD
 40
0.0
  9
$SKPOLY
 70
     0
  9
$TDCREATE
 40
2458244.144865185
  9
$TDUPDATE
 40
2458244.144865185
  9
$TDINDWG
 40
0.0000000000
  9
$TDUSRTIMER
 40
0.0000000000
  9
$USRTIMER
 70
     1
  9
$ANGBASE
 50
0.0
  9
$ANGDIR
 70
     0
  9
$PDMODE
 70
     0
  9
$PDSIZE
 40
0.0
  9
$PLINEWID
 40
0.0
  9
$COORDS
 70
     1
  9
$SPLFRAME
 70
     0
  9
$SPLINETYPE
 70
     6
  9
$SPLINESEGS
 70
     8
  9
$ATTDIA
 70
     0
  9
$ATTREQ
 70
     1
  9
$HANDLING
 70
     1
  9
$HANDSEED
  5
5EE
  9
$SURFTAB1
 70
     6
  9
$SURFTAB2
 70
     6
  9
$SURFTYPE
 70
     6
  9
$SURFU
 70
     6
  9
$SURFV
 70
     6
  9
$UCSNAME
  2

  9
$UCSORG
 10
0.0
 20
0.0
 30
0.0
  9
$UCSXDIR
 10
1.0
 20
0.0
 30
0.0
  9
$UCSYDIR
 10
0.0
 20
1.0
 30
0.0
  9
$PUCSNAME
  2

  9
$PUCSORG
 10
0.0
 20
0.0
 30
0.0
  9
$PUCSXDIR
 10
1.0
 20
0.0
 30
0.0
  9
$PUCSYDIR
 10
0.0
 20
1.0
 30
0.0
  9
$USERI1
 70
     0
  9
$USERI2
 70
     0
  9
$USERI3
 70
     0
  9
$USERI4
 70
     0
  9
$USERI5
 70
     0
  9
$USERR1
 40
0.0
  9
$USERR2
 40
0.0
  9
$USERR3
 40
0.0
  9
$USERR4
 40
0.0
  9
$USERR5
 40
0.0
  9
$WORLDVIEW
 70
     1
  9
$SHADEDGE
 70
     3
  9
$SHADEDIF
 70
    70
  9
$TILEMODE
 70
     1
  9
$MAXACTVP
 70
    16
  9
$PINSBASE
 10
0.0
 20
0.0
 30
0.0
  9
$PLIMCHECK
 70
     0
  9
$PEXTMIN
 10
1.000000E+20
 20
1.000000E+20
 30
1.000000E+20
  9
$PEXTMAX
 10
-1.000000E+20
 20
-1.000000E+20
 30
-1.000000E+20
  9
$PLIMMIN
 10
0.0
 20
0.0
  9
$PLIMMAX
 10
12.0
 20
9.0
  9
$UNITMODE
 70
     0
  9
$VISRETAIN
 70
     0
  9
$PLINEGEN
 70
     1
  9
$PSLTSCALE
 70
     0
  9
$TREEDEPTH
 70
  3020
  9
$PICKSTYLE
 70
     1
  9
$CMLSTYLE
  2
Standard
  9
$CMLJUST
 70
     0
  9
$CMLSCALE
 40
1.0
  9
$PROXYGRAPHICS
 70
     0
  9
$MEASUREMENT
 70
     0
  0
ENDSEC
  0
SECTION
  2
CLASSES
  0
CLASS
  1
LWPOLYLINE
  2
AcDbPolyline
  3
"AutoCAD"
 90
        0
280
     0
281
     1
  0
CLASS
  1
IMAGE
  2
AcDbRasterImage
  3
ISM
 90
      127
280
     0
281
     1
  0
CLASS
  1
OLE2FRAME
  2
AcDbOle2Frame
  3
""
 90
        0
280
     0
281
     1
  0
CLASS
  1
HATCH
  2
AcDbHatch
  3
"ACAD_SEDONA"
 90
        0
280
     0
281
     1
  0
CLASS
  1
DICTIONARYVAR
  2
AcDbDictionaryVar
  3
"AutoCAD"
 90
        0
280
     0
281
     0
  0
CLASS
  1
RASTERVARIABLES
  2
AcDbRasterVariables
  3
ISM
 90
        0
280
     0
281
     0
  0
CLASS
  1
IMAGEDEF
  2
AcDbRasterImageDef
  3
ISM
 90
        0
280
     0
281
     0
  0
CLASS
  1
IMAGEDEF_REACTOR
  2
AcDbRasterImageDefReactor
  3
ISM
 90
        1
280
     0
281
     0
  0
CLASS
  1
IDBUFFER
  2
AcDbIdBuffer
  3
"Acad"
 90
        0
280
     0
281
     0
  0
CLASS
  1
SPATIAL_FILTER
  2
AcDbSpatialFilter
  3
"Acad"
 90
        0
280
     0
281
     0
  0
CLASS
  1
XRECORD
  2
AcDbXrecord
  3
"<Built In>"
 90
        0
280
     0
281
     0
  0
CLASS
  1
SORTENTSTABLE
  2
AcDbSortentsTable
  3
"AutoCAD"
 90
        0
280
     0
281
     0
  0
CLASS
  1
LAYER_INDEX
  2
AcDbLayerIndex
  3
"Acad"
 90
        0
280
     0
281
     0
  0
CLASS
  1
SPATIAL_INDEX
  2
AcDbSpatialIndex
  3
"Acad"
 90
        0
280
     0
281
     0
  0
CLASS
  1
OBJECT_PTR
  2
CAseDLPNTableRecord
  3
"ASE-LPNTableRecord"
 90
        1
280
     0
281
     0
  0
CLASS
  1
LAYOUT
  2
AcDbLayout
  3
"AutoCAD 2000"
 90
        0
280
     0
281
     0
  0
CLASS
  1
PLOTSETTINGS
  2
AcDbPlotSettings
  3
"AutoCAD 2000"
 90
        0
280
     0
281
     0
  0
CLASS
  1
ACDBDICTIONARYWDFLT
  2
AcDbDictionaryWithDefault
  3
"AutoCAD 2000"
 90
        0
280
     0
281
     0
  0
CLASS
  1
ACDBPLACEHOLDER
  2
AcDbPlaceHolder
  3
"AutoCAD 2000"
 90
        0
280
     0
281
     0
  0
CLASS
  1
VBA_PROJECT
  2
AcDbVbaProject
  3
"acadvba"
 90
        0
280
     0
281
     0
  0
CLASS
  1
WIPEOUT
  2
AcDbWipeout
  3
WipeOut|AutoCAD Express Tool|expresstools@autodesk.com
 90
      127
280
     0
281
     1
  0
CLASS
  1
WIPEOUTVARIABLES
  2
AcDbWipeoutVariables
  3
WipeOut|AutoCAD Express Tool|expresstools@autodesk.com
 90
        0
280
     0
281
     0
  0
CLASS
  1
RTEXT
  2
RText
  3
RText|AutoCAD Express Tool|expresstools@autodesk.com
 90
        0
280
     0
281
     1
  0
CLASS
  1
ARCALIGNEDTEXT
  2
AcDbArcAlignedText
  3
ATEXT|AutoCAD Express Tool|expresstools@autodesk.com
 90
        0
280
     0
281
     1
  0
ENDSEC
  0
SECTION
  2
TABLES
  0
TABLE
  2
VPORT
  5
7
100
AcDbSymbolTable
 70
     1
  0
VPORT
  5
15
100
AcDbSymbolTableRecord
100
AcDbViewportTableRecord
  2
*ACTIVE
 70
     0
 10
0.0
 20
0.0
 11
1.0
 21
1.0
 12
2079.9
 22
1452.75
 13
0.0
 23
0.0
 14
1.0
 24
1.0
 15
0.0
 25
0.0
 16
0.0
 26
0.0
 36
1.0
 17
0.0
 27
0.0
 37
0.0
 40
2571.5
 41
1.722533
 42
50.0
 43
0.0
 44
0.0
 50
0.0
 51
0.0
 71
     0
 72
  1000
 73
     1
 74
     1
 75
     0
 76
     0
 77
     0
 78
     0
  0
ENDTAB
  0
TABLE
  2
LTYPE
  5
4
100
AcDbSymbolTable
 70
     9
  0
LTYPE
  5
11
100
AcDbSymbolTableRecord
100
AcDbLinetypeTableRecord
  2
BYBLOCK
 70
    64
  3

 72
    65
 73
     0
 40
0.0
  0
LTYPE
  5
12
100
AcDbSymbolTableRecord
100
AcDbLinetypeTableRecord
  2
BYLAYER
 70
    64
  3

 72
    65
 73
     0
 40
0.0
  0
LTYPE
  5
13
100
AcDbSymbolTableRecord
100
AcDbLinetypeTableRecord
  2
CONTINUOUS
 70
    64
  3
実線
 72
    65
 73
     0
 40
0.0
  0
LTYPE
  5
1D
100
AcDbSymbolTableRecord
100
AcDbLinetypeTableRecord
  2
EXLTYPE1
 70
    64
  3
破線
 72
    65
 73
     2
 40
4.0
 49
3.0
 74
     0
 49
-1.0
 74
     0
  0
LTYPE
  5
1E
100
AcDbSymbolTableRecord
100
AcDbLinetypeTableRecord
  2
EXLTYPE2
 70
    64
  3
点線
 72
    65
 73
     2
 40
2.0
 49
1.0
 74
     0
 49
-1.0
 74
     0
  0
LTYPE
  5
1F
100
AcDbSymbolTableRecord
100
AcDbLinetypeTableRecord
  2
EXLTYPE3
 70
    64
  3
一点鎖線
 72
    65
 73
     4
 40
33.0
 49
30.0
 74
     0
 49
-1.0
 74
     0
 49
1.0
 74
     0
 49
-1.0
 74
     0
  0
LTYPE
  5
20
100
AcDbSymbolTableRecord
100
AcDbLinetypeTableRecord
  2
EXLTYPE4
 70
    64
  3
二点鎖線
 72
    65
 73
     6
 40
35.0
 49
30.0
 74
     0
 49
-1.0
 74
     0
 49
1.0
 74
     0
 49
-1.0
 74
     0
 49
1.0
 74
     0
 49
-1.0
 74
     0
  0
LTYPE
  5
21
100
AcDbSymbolTableRecord
100
AcDbLinetypeTableRecord
  2
EXLTYPE5
 70
    64
  3
三点鎖線
 72
    65
 73
     8
 40
37.0
 49
30.0
 74
     0
 49
-1.0
 74
     0
 49
1.0
 74
     0
 49
-1.0
 74
     0
 49
1.0
 74
     0
 49
-1.0
 74
     0
 49
1.0
 74
     0
 49
-1.0
 74
     0
  0
LTYPE
  5
22
100
AcDbSymbolTableRecord
100
AcDbLinetypeTableRecord
  2
EXLTYPE6
 70
    64
  3
四点鎖線
 72
    65
 73
    10
 40
39.0
 49
30.0
 74
     0
 49
-1.0
 74
     0
 49
1.0
 74
     0
 49
-1.0
 74
     0
 49
1.0
 74
     0
 49
-1.0
 74
     0
 49
1.0
 74
     0
 49
-1.0
 74
     0
 49
1.0
 74
     0
 49
-1.0
 74
     0
  0
ENDTAB
  0
TABLE
  2
LAYER
  5
2
100
AcDbSymbolTable
 70
     4
  0
LAYER
  5
14
100
AcDbSymbolTableRecord
100
AcDbLayerTableRecord
  2
0
 70
     0
 62
     7
  6
CONTINUOUS
  0
LAYER
  5
25
100
AcDbSymbolTableRecord
100
AcDbLayerTableRecord
  2
LAY-1
 70
    64
 62
     3
  6
CONTINUOUS
  0
LAYER
  5
26
100
AcDbSymbolTableRecord
100
AcDbLayerTableRecord
  2
LAY-2
 70
    64
 62
     7
  6
CONTINUOUS
  0
LAYER
  5
27
100
AcDbSymbolTableRecord
100
AcDbLayerTableRecord
  2
LAY-5
 70
    64
 62
     1
  6
CONTINUOUS
  0
ENDTAB
  0
TABLE
  2
STYLE
  5
3
100
AcDbSymbolTable
 70
     3
  0
STYLE
  5
17
100
AcDbSymbolTableRecord
100
AcDbTextStyleTableRecord
  2
STANDARD
 70
     0
 40
0.0
 41
1.0
 50
0.0
 71
     0
 42
0.0
  3
monotxt
  4
extfont
  0
STYLE
  5
23
100
AcDbSymbolTableRecord
100
AcDbTextStyleTableRecord
  2
EXCADSTD
 70
    64
 40
0.0
 41
1.0
 50
0.0
 71
     0
 42
0.2
  3
monotxt
  4
extfont
  0
STYLE
  5
24
100
AcDbSymbolTableRecord
100
AcDbTextStyleTableRecord
  2
EXCADVERT
 70
    68
 40
0.0
 41
1.0
 50
0.0
 71
     0
 42
0.286885
  3
monotxt
  4
extfont
  0
ENDTAB
  0
TABLE
  2
VIEW
  5
5
100
AcDbSymbolTable
 70
     0
  0
ENDTAB
  0
TABLE
  2
UCS
  5
6
100
AcDbSymbolTable
 70
     0
  0
ENDTAB
  0
TABLE
  2
APPID
  5
8
100
AcDbSymbolTable
 70
     1
  0
APPID
  5
16
100
AcDbSymbolTableRecord
100
AcDbRegAppTableRecord
  2
ACAD
 70
     0
  0
ENDTAB
  0
TABLE
  2
DIMSTYLE
  5
9
100
AcDbSymbolTable
 70
     1
  0
DIMSTYLE
105
18
100
AcDbSymbolTableRecord
100
AcDbDimStyleTableRecord
  2
STANDARD
 70
     0
  3

  4

  5

  6

  7

 40
1.0
 41
0.18
 42
0.0625
 43
0.38
 44
0.18
 45
0.0
 46
0.0
 47
0.0
 48
0.0
 71
     0
 72
     0
 73
     1
 74
     1
 75
     0
 76
     0
 77
     0
 78
     0
140
0.18
141
0.09
142
0.0
143
25.4
144
1.0
145
0.0
146
1.0
147
0.09
170
     0
171
     2
172
     1
173
     0
174
     0
175
     0
176
     0
177
     0
178
     0
270
     2
271
     4
272
     4
273
     2
274
     2
275
     0
280
     0
281
     0
282
     0
283
     1
284
     0
285
     0
286
     0
287
     3
288
     0
340
17
  0
ENDTAB
  0
TABLE
  2
BLOCK_RECORD
  5
1
100
AcDbSymbolTable
 70
    15
  0
BLOCK_RECORD
  5
A
100
AcDbSymbolTableRecord
100
AcDbBlockTableRecord
  2
*MODEL_SPACE
  0
BLOCK_RECORD
  5
B
100
AcDbSymbolTableRecord
100
AcDbBlockTableRecord
  2
*PAPER_SPACE
  0
BLOCK_RECORD
  5
28
100
AcDbSymbolTableRecord
100
AcDbBlockTableRecord
  2
_EX_NORM
  0
BLOCK_RECORD
  5
29
100
AcDbSymbolTableRecord
100
AcDbBlockTableRecord
  2
_EX_BNORM
  0
BLOCK_RECORD
  5
2A
100
AcDbSymbolTableRecord
100
AcDbBlockTableRecord
  2
_EX_BCIR
  0
BLOCK_RECORD
  5
2B
100
AcDbSymbolTableRecord
100
AcDbBlockTableRecord
  2
_EX_RCIVIL
  0
BLOCK_RECORD
  5
2C
100
AcDbSymbolTableRecord
100
AcDbBlockTableRecord
  2
_EX_SLANT
  0
BLOCK_RECORD
  5
2D
100
AcDbSymbolTableRecord
100
AcDbBlockTableRecord
  2
_EX_NONE
  0
BLOCK_RECORD
  5
2E
100
AcDbSymbolTableRecord
100
AcDbBlockTableRecord
  2
_EX_CIVIL
  0
BLOCK_RECORD
  5
2F
100
AcDbSymbolTableRecord
100
AcDbBlockTableRecord
  2
_EX_WCIR
  0
BLOCK_RECORD
  5
30
100
AcDbSymbolTableRecord
100
AcDbBlockTableRecord
  2
_EX_WCIR2
  0
BLOCK_RECORD
  5
31
100
AcDbSymbolTableRecord
100
AcDbBlockTableRecord
  2
_EX_WNORM
  0
BLOCK_RECORD
  5
32
100
AcDbSymbolTableRecord
100
AcDbBlockTableRecord
  2
_EX_NNORM
  0
BLOCK_RECORD
  5
33
100
AcDbSymbolTableRecord
100
AcDbBlockTableRecord
  2
_EX_BBOX
  0
BLOCK_RECORD
  5
34
100
AcDbSymbolTableRecord
100
AcDbBlockTableRecord
  2
_EX_WBOX
  0
BLOCK_RECORD
  5
35
100
AcDbSymbolTableRecord
100
AcDbBlockTableRecord
  2
_EX_INTEGRAL
  0
BLOCK_RECORD
  5
36
100
AcDbSymbolTableRecord
100
AcDbBlockTableRecord
  2
SYM-1
  0
ENDTAB
  0
ENDSEC
  0
SECTION
  2
BLOCKS
  0
BLOCK
  5
D
100
AcDbEntity
  8
0
100
AcDbBlockBegin
  2
*MODEL_SPACE
 70
     0
 10
0.0
 20
0.0
 30
0.0
  3
*MODEL_SPACE
  1

  0
ENDBLK
  5
E
100
AcDbEntity
  8
0
100
AcDbBlockEnd
  0
BLOCK
  5
F
100
AcDbEntity
 67
     1
  8
0
100
AcDbBlockBegin
  2
*PAPER_SPACE
 70
     0
 10
0.0
 20
0.0
 30
0.0
  3
*PAPER_SPACE
  1

  0
ENDBLK
  5
10
100
AcDbEntity
 67
     1
  8
0
100
AcDbBlockEnd
  0
BLOCK
  5
37
100
AcDbEntity
  8
0
100
AcDbBlockBegin
  2
_EX_NORM
 70
     0
 10
0.0
 20
0.0
 30
0.0
  3
_EX_NORM
  1

  0
LINE
  5
38
100
AcDbEntity
  8
0
  6
CONTINUOUS
 62
     0
100
AcDbLine
 10
0.0
 20
0.0
 30
0.0
 11
-1.0
 21
0.0
 31
0.0
  0
LINE
  5
39
100
AcDbEntity
  8
0
  6
CONTINUOUS
 62
     0
100
AcDbLine
 10
0.0
 20
0.0
 30
0.0
 11
-1.0
 21
0.166667
 31
0.0
  0
LINE
  5
3A
100
AcDbEntity
  8
0
  6
CONTINUOUS
 62
     0
100
AcDbLine
 10
0.0
 20
0.0
 30
0.0
 11
-1.0
 21
-0.166667
 31
0.0
  0
ENDBLK
  5
3B
100
AcDbEntity
  8
0
100
AcDbBlockEnd
  0
BLOCK
  5
3C
100
AcDbEntity
  8
0
100
AcDbBlockBegin
  2
_EX_BNORM
 70
     0
 10
0.0
 20
0.0
 30
0.0
  3
_EX_BNORM
  1

  0
LINE
  5
3D
100
AcDbEntity
  8
0
  6
CONTINUOUS
 62
     0
100
AcDbLine
 10
0.0
 20
0.0
 30
0.0
 11
-1.0
 21
0.0
 31
0.0
  0
LINE
  5
3E
100
AcDbEntity
  8
0
  6
CONTINUOUS
 62
     0
100
AcDbLine
 10
0.0
 20
0.0
 30
0.0
 11
-1.0
 21
0.166667
 31
0.0
  0
LINE
  5
3F
100
AcDbEntity
  8
0
  6
CONTINUOUS
 62
     0
100
AcDbLine
 10
0.0
 20
0.0
 30
0.0
 11
-1.0
 21
-0.166667
 31
0.0
  0
LINE
  5
40
100
AcDbEntity
  8
0
  6
CONTINUOUS
 62
     0
100
AcDbLine
 10
0.0
 20
0.0
 30
0.0
 11
-1.0
 21
0.083333
 31
0.0
  0
LINE
  5
41
100
AcDbEntity
  8
0
  6
CONTINUOUS
 62
     0
100
AcDbLine
 10
0.0
 20
0.0
 30
0.0
 11
-1.0
 21
-0.083333
 31
0.0
  0
LINE
  5
42
100
AcDbEntity
  8
0
  6
CONTINUOUS
 62
     0
100
AcDbLine
 10
-1.0
 20
0.166667
 30
0.0
 11
-1.0
 21
-0.166667
 31
0.0
  0
ENDBLK
  5
43
100
AcDbEntity
  8
0
100
AcDbBlockEnd
  0
BLOCK
  5
44
100
AcDbEntity
  8
0
100
AcDbBlockBegin
  2
_EX_BCIR
 70
     0
 10
0.0
 20
0.0
 30
0.0
  3
_EX_BCIR
  1

  0
LINE
  5
45
100
AcDbEntity
  8
0
  6
CONTINUOUS
 62
     0
100
AcDbLine
 10
0.0
 20
0.0
 30
0.0
 11
-1.0
 21
0.0
 31
0.0
  0
CIRCLE
  5
46
100
AcDbEntity
  8
0
  6
CONTINUOUS
 62
     0
100
AcDbCircle
 10
0.0
 20
0.0
 30
0.0
 40
0.5
  0
CIRCLE
  5
47
100
AcDbEntity
  8
0
  6
CONTINUOUS
 62
     0
100
AcDbCircle
 10
0.0
 20
0.0
 30
0.0
 40
0.25
  0
ENDBLK
  5
48
100
AcDbEntity
  8
0
100
AcDbBlockEnd
  0
BLOCK
  5
49
100
AcDbEntity
  8
0
100
AcDbBlockBegin
  2
_EX_RCIVIL
 70
     0
 10
0.0
 20
0.0
 30
0.0
  3
_EX_RCIVIL
  1

  0
LINE
  5
4A
100
AcDbEntity
  8
0
  6
CONTINUOUS
 62
     0
100
AcDbLine
 10
0.0
 20
0.0
 30
0.0
 11
-1.0
 21
0.0
 31
0.0
  0
LINE
  5
4B
100
AcDbEntity
  8
0
  6
CONTINUOUS
 62
     0
100
AcDbLine
 10
-1.0
 20
-0.25
 30
0.0
 11
0.0
 21
-0.25
 31
0.0
  0
LINE
  5
4C
100
AcDbEntity
  8
0
  6
CONTINUOUS
 62
     0
100
AcDbLine
 10
-1.0
 20
-0.125
 30
0.0
 11
0.0
 21
-0.125
 31
0.0
  0
ENDBLK
  5
4D
100
AcDbEntity
  8
0
100
AcDbBlockEnd
  0
BLOCK
  5
4E
100
AcDbEntity
  8
0
100
AcDbBlockBegin
  2
_EX_SLANT
 70
     0
 10
0.0
 20
0.0
 30
0.0
  3
_EX_SLANT
  1

  0
LINE
  5
4F
100
AcDbEntity
  8
0
  6
CONTINUOUS
 62
     0
100
AcDbLine
 10
0.0
 20
0.0
 30
0.0
 11
-1.0
 21
0.0
 31
0.0
  0
LINE
  5
50
100
AcDbEntity
  8
0
  6
CONTINUOUS
 62
     0
100
AcDbLine
 10
0.707107
 20
0.707107
 30
0.0
 11
-0.707107
 21
-0.707107
 31
0.0
  0
ENDBLK
  5
51
100
AcDbEntity
  8
0
100
AcDbBlockEnd
  0
BLOCK
  5
52
100
AcDbEntity
  8
0
100
AcDbBlockBegin
  2
_EX_NONE
 70
     0
 10
0.0
 20
0.0
 30
0.0
  3
_EX_NONE
  1

  0
LINE
  5
53
100
AcDbEntity
  8
0
  6
CONTINUOUS
 62
     0
100
AcDbLine
 10
0.0
 20
0.0
 30
0.0
 11
-1.0
 21
0.0
 31
0.0
  0
ENDBLK
  5
54
100
AcDbEntity
  8
0
100
AcDbBlockEnd
  0
BLOCK
  5
55
100
AcDbEntity
  8
0
100
AcDbBlockBegin
  2
_EX_CIVIL
 70
     0
 10
0.0
 20
0.0
 30
0.0
  3
_EX_CIVIL
  1

  0
LINE
  5
56
100
AcDbEntity
  8
0
  6
CONTINUOUS
 62
     0
100
AcDbLine
 10
0.0
 20
0.0
 30
0.0
 11
-1.0
 21
0.0
 31
0.0
  0
LINE
  5
57
100
AcDbEntity
  8
0
  6
CONTINUOUS
 62
     0
100
AcDbLine
 10
-1.0
 20
0.25
 30
0.0
 11
0.0
 21
0.25
 31
0.0
  0
LINE
  5
58
100
AcDbEntity
  8
0
  6
CONTINUOUS
 62
     0
100
AcDbLine
 10
-1.0
 20
0.125
 30
0.0
 11
0.0
 21
0.125
 31
0.0
  0
ENDBLK
  5
59
100
AcDbEntity
  8
0
100
AcDbBlockEnd
  0
BLOCK
  5
5A
100
AcDbEntity
  8
0
100
AcDbBlockBegin
  2
_EX_WCIR
 70
     0
 10
0.0
 20
0.0
 30
0.0
  3
_EX_WCIR
  1

  0
LINE
  5
5B
100
AcDbEntity
  8
0
  6
CONTINUOUS
 62
     0
100
AcDbLine
 10
0.0
 20
0.0
 30
0.0
 11
-1.0
 21
0.0
 31
0.0
  0
CIRCLE
  5
5C
100
AcDbEntity
  8
0
  6
CONTINUOUS
 62
     0
100
AcDbCircle
 10
0.0
 20
0.0
 30
0.0
 40
0.5
  0
ENDBLK
  5
5D
100
AcDbEntity
  8
0
100
AcDbBlockEnd
  0
BLOCK
  5
5E
100
AcDbEntity
  8
0
100
AcDbBlockBegin
  2
_EX_WCIR2
 70
     0
 10
0.0
 20
0.0
 30
0.0
  3
_EX_WCIR2
  1

  0
LINE
  5
5F
100
AcDbEntity
  8
0
  6
CONTINUOUS
 62
     0
100
AcDbLine
 10
-0.5
 20
0.0
 30
0.0
 11
-1.0
 21
0.0
 31
0.0
  0
CIRCLE
  5
60
100
AcDbEntity
  8
0
  6
CONTINUOUS
 62
     0
100
AcDbCircle
 10
0.0
 20
0.0
 30
0.0
 40
0.5
  0
ENDBLK
  5
61
100
AcDbEntity
  8
0
100
AcDbBlockEnd
  0
BLOCK
  5
62
100
AcDbEntity
  8
0
100
AcDbBlockBegin
  2
_EX_WNORM
 70
     0
 10
0.0
 20
0.0
 30
0.0
  3
_EX_WNORM
  1

  0
LINE
  5
63
100
AcDbEntity
  8
0
  6
CONTINUOUS
 62
     0
100
AcDbLine
 10
-1.0
 20
0.0
 30
0.0
 11
-1.0
 21
0.0
 31
0.0
  0
LINE
  5
64
100
AcDbEntity
  8
0
  6
CONTINUOUS
 62
     0
100
AcDbLine
 10
0.0
 20
0.0
 30
0.0
 11
-1.0
 21
0.166667
 31
0.0
  0
LINE
  5
65
100
AcDbEntity
  8
0
  6
CONTINUOUS
 62
     0
100
AcDbLine
 10
0.0
 20
0.0
 30
0.0
 11
-1.0
 21
-0.166667
 31
0.0
  0
LINE
  5
66
100
AcDbEntity
  8
0
  6
CONTINUOUS
 62
     0
100
AcDbLine
 10
-1.0
 20
0.166667
 30
0.0
 11
-1.0
 21
-0.166667
 31
0.0
  0
ENDBLK
  5
67
100
AcDbEntity
  8
0
100
AcDbBlockEnd
  0
BLOCK
  5
68
100
AcDbEntity
  8
0
100
AcDbBlockBegin
  2
_EX_NNORM
 70
     0
 10
0.0
 20
0.0
 30
0.0
  3
_EX_NNORM
  1

  0
LINE
  5
69
100
AcDbEntity
  8
0
  6
CONTINUOUS
 62
     0
100
AcDbLine
 10
0.0
 20
0.0
 30
0.0
 11
-1.0
 21
0.0
 31
0.0
  0
LINE
  5
6A
100
AcDbEntity
  8
0
  6
CONTINUOUS
 62
     0
100
AcDbLine
 10
0.0
 20
0.0
 30
0.0
 11
-1.0
 21
0.166667
 31
0.0
  0
LINE
  5
6B
100
AcDbEntity
  8
0
  6
CONTINUOUS
 62
     0
100
AcDbLine
 10
0.0
 20
0.0
 30
0.0
 11
-1.0
 21
-0.166667
 31
0.0
  0
LINE
  5
6C
100
AcDbEntity
  8
0
  6
CONTINUOUS
 62
     0
100
AcDbLine
 10
-1.0
 20
0.166667
 30
0.0
 11
-1.0
 21
-0.166667
 31
0.0
  0
ENDBLK
  5
6D
100
AcDbEntity
  8
0
100
AcDbBlockEnd
  0
BLOCK
  5
6E
100
AcDbEntity
  8
0
100
AcDbBlockBegin
  2
_EX_BBOX
 70
     0
 10
0.0
 20
0.0
 30
0.0
  3
_EX_BBOX
  1

  0
LINE
  5
6F
100
AcDbEntity
  8
0
  6
CONTINUOUS
 62
     0
100
AcDbLine
 10
0.0
 20
0.0
 30
0.0
 11
-1.0
 21
0.0
 31
0.0
  0
LINE
  5
70
100
AcDbEntity
  8
0
  6
CONTINUOUS
 62
     0
100
AcDbLine
 10
-0.5
 20
0.5
 30
0.0
 11
0.5
 21
0.5
 31
0.0
  0
LINE
  5
71
100
AcDbEntity
  8
0
  6
CONTINUOUS
 62
     0
100
AcDbLine
 10
0.5
 20
0.5
 30
0.0
 11
0.5
 21
-0.5
 31
0.0
  0
LINE
  5
72
100
AcDbEntity
  8
0
  6
CONTINUOUS
 62
     0
100
AcDbLine
 10
0.5
 20
-0.5
 30
0.0
 11
-0.5
 21
-0.5
 31
0.0
  0
LINE
  5
73
100
AcDbEntity
  8
0
  6
CONTINUOUS
 62
     0
100
AcDbLine
 10
-0.5
 20
-0.5
 30
0.0
 11
-0.5
 21
0.5
 31
0.0
  0
LINE
  5
74
100
AcDbEntity
  8
0
  6
CONTINUOUS
 62
     0
100
AcDbLine
 10
-0.25
 20
0.25
 30
0.0
 11
0.25
 21
0.25
 31
0.0
  0
LINE
  5
75
100
AcDbEntity
  8
0
  6
CONTINUOUS
 62
     0
100
AcDbLine
 10
0.25
 20
0.25
 30
0.0
 11
0.25
 21
-0.25
 31
0.0
  0
LINE
  5
76
100
AcDbEntity
  8
0
  6
CONTINUOUS
 62
     0
100
AcDbLine
 10
0.25
 20
-0.25
 30
0.0
 11
-0.25
 21
-0.25
 31
0.0
  0
LINE
  5
77
100
AcDbEntity
  8
0
  6
CONTINUOUS
 62
     0
100
AcDbLine
 10
-0.25
 20
-0.25
 30
0.0
 11
-0.25
 21
0.25
 31
0.0
  0
ENDBLK
  5
78
100
AcDbEntity
  8
0
100
AcDbBlockEnd
  0
BLOCK
  5
79
100
AcDbEntity
  8
0
100
AcDbBlockBegin
  2
_EX_WBOX
 70
     0
 10
0.0
 20
0.0
 30
0.0
  3
_EX_WBOX
  1

  0
LINE
  5
7A
100
AcDbEntity
  8
0
  6
CONTINUOUS
 62
     0
100
AcDbLine
 10
-0.5
 20
0.0
 30
0.0
 11
-1.0
 21
0.0
 31
0.0
  0
LINE
  5
7B
100
AcDbEntity
  8
0
  6
CONTINUOUS
 62
     0
100
AcDbLine
 10
-0.5
 20
0.5
 30
0.0
 11
0.5
 21
0.5
 31
0.0
  0
LINE
  5
7C
100
AcDbEntity
  8
0
  6
CONTINUOUS
 62
     0
100
AcDbLine
 10
0.5
 20
0.5
 30
0.0
 11
0.5
 21
-0.5
 31
0.0
  0
LINE
  5
7D
100
AcDbEntity
  8
0
  6
CONTINUOUS
 62
     0
100
AcDbLine
 10
0.5
 20
-0.5
 30
0.0
 11
-0.5
 21
-0.5
 31
0.0
  0
LINE
  5
7E
100
AcDbEntity
  8
0
  6
CONTINUOUS
 62
     0
100
AcDbLine
 10
-0.5
 20
-0.5
 30
0.0
 11
-0.5
 21
0.5
 31
0.0
  0
ENDBLK
  5
7F
100
AcDbEntity
  8
0
100
AcDbBlockEnd
  0
BLOCK
  5
80
100
AcDbEntity
  8
0
100
AcDbBlockBegin
  2
_EX_INTEGRAL
 70
     0
 10
0.0
 20
0.0
 30
0.0
  3
_EX_INTEGRAL
  1

  0
LINE
  5
81
100
AcDbEntity
  8
0
  6
CONTINUOUS
 62
     0
100
AcDbLine
 10
0.0
 20
0.0
 30
0.0
 11
-1.0
 21
0.0
 31
0.0
  0
ARC
  5
82
100
AcDbEntity
  8
0
  6
CONTINUOUS
 62
     0
100
AcDbCircle
 10
0.542115
 20
0.164992
 30
0.0
 40
0.56667
100
AcDbArc
 50
73.07249
 51
196.927513
  0
ARC
  5
83
100
AcDbEntity
  8
0
  6
CONTINUOUS
 62
     0
100
AcDbCircle
 10
-0.542115
 20
-0.164992
 30
0.0
 40
0.56667
100
AcDbArc
 50
253.072487
 51
16.927513
  0
ENDBLK
  5
84
100
AcDbEntity
  8
0
100
AcDbBlockEnd
  0
BLOCK
  5
85
100
AcDbEntity
  8
0
100
AcDbBlockBegin
  2
SYM-1
 70
     0
 10
0.0
 20
0.0
 30
0.0
  3
SYM-1
  1

  0
LINE
  5
86
100
AcDbEntity
  8
0
  6
CONTINUOUS
 62
     2
100
AcDbLine
 10
-5.85
 20
2.15
 30
0.0
 11
-5.85
 21
5.85
 31
0.0
  0
LINE
  5
87
100
AcDbEntity
  8
0
  6
CONTINUOUS
 62
     2
100
AcDbLine
 10
-5.85
 20
5.85
 30
0.0
 11
0.0
 21
0.0
 31
0.0
  0
LINE
  5
88
100
AcDbEntity
  8
0
  6
CONTINUOUS
 62
     2
100
AcDbLine
 10
-5.85
 20
-2.15
 30
0.0
 11
-5.85
 21
-5.85
 31
0.0
  0
LINE
  5
89
100
AcDbEntity
  8
0
  6
CONTINUOUS
 62
     2
100
AcDbLine
 10
-5.85
 20
-5.85
 30
0.0
 11
0.0
 21
0.0
 31
0.0
  0
LINE
  5
8A
100
AcDbEntity
  8
0
  6
CONTINUOUS
 62
     2
100
AcDbLine
 10
-19.85
 20
2.15
 30
0.0
 11
-5.85
 21
2.15
 31
0.0
  0
LINE
  5
8B
100
AcDbEntity
  8
0
  6
CONTINUOUS
 62
     2
100
AcDbLine
 10
-19.85
 20
-2.15
 30
0.0
 11
-5.85
 21
-2.15
 31
0.0
  0
LINE
  5
8C
100
AcDbEntity
  8
0
  6
CONTINUOUS
 62
     2
100
AcDbLine
 10
-19.85
 20
2.15
 30
0.0
 11
-19.85
 21
-2.15
 31
0.0
  0
ENDBLK
  5
8D
100
AcDbEntity
  8
0
100
AcDbBlockEnd
  0
ENDSEC
  0
SECTION
  2
ENTITIES
  0
TEXT
  5
8E
100
AcDbEntity
  8
LAY-1
  6
CONTINUOUS
 62
     3
100
AcDbText
 10
3210.88
 20
328.92
 30
0.0
 40
40.0
  1
型式
 41
0.984714
  7
EXCADSTD
 72
     5
 11
3296.840812
 21
328.92
 31
0.0
100
AcDbText
  0
TEXT
  5
8F
100
AcDbEntity
  8
LAY-1
  6
CONTINUOUS
 62
     3
100
AcDbText
 10
3209.92
 20
272.6
 30
0.0
 40
40.0
  1
品名
 41
0.984714
  7
EXCADSTD
 72
     5
 11
3295.880812
 21
272.6
 31
0.0
100
AcDbText
  0
LINE
  5
90
100
AcDbEntity
  8
LAY-1
  6
CONTINUOUS
 62
     4
100
AcDbLine
 10
3192.0
 20
215.8
 30
0.0
 11
3908.8
 21
215.8
 31
0.0
  0
LINE
  5
91
100
AcDbEntity
  8
LAY-1
  6
CONTINUOUS
 62
     1
100
AcDbLine
 10
3192.0
 20
264.6
 30
0.0
 11
3908.8
 21
264.6
 31
0.0
  0
TEXT
  5
92
100
AcDbEntity
  8
LAY-1
  6
CONTINUOUS
 62
     3
100
AcDbText
 10
3446.72
 20
221.08
 30
0.0
 40
40.0
  1
外観図
 41
1.47392
  7
EXCADSTD
 72
     5
 11
3657.279998
 21
221.08
 31
0.0
100
AcDbText
  0
LINE
  5
93
100
AcDbEntity
  8
LAY-1
  6
CONTINUOUS
 62
     4
100
AcDbLine
 10
3192.0
 20
432.6
 30
0.0
 11
3908.8
 21
432.6
 31
0.0
  0
LINE
  5
94
100
AcDbEntity
  8
LAY-1
  6
CONTINUOUS
 62
     1
100
AcDbLine
 10
3192.0
 20
320.6
 30
0.0
 11
3908.8
 21
320.6
 31
0.0
  0
LINE
  5
95
100
AcDbEntity
  8
LAY-1
  6
CONTINUOUS
 62
     1
100
AcDbLine
 10
3192.0
 20
376.6
 30
0.0
 11
3908.8
 21
376.6
 31
0.0
  0
LINE
  5
96
100
AcDbEntity
  8
LAY-1
  6
CONTINUOUS
 62
     1
100
AcDbLine
 10
3312.0
 20
432.6
 30
0.0
 11
3312.0
 21
264.6
 31
0.0
  0
LINE
  5
97
100
AcDbEntity
  8
LAY-1
  6
CONTINUOUS
 62
     4
100
AcDbLine
 10
3192.0
 20
167.0
 30
0.0
 11
3908.8
 21
167.0
 31
0.0
  0
LINE
  5
98
100
AcDbEntity
  8
LAY-1
  6
CONTINUOUS
 62
     4
100
AcDbLine
 10
3908.8
 20
167.0
 30
0.0
 11
3908.8
 21
432.6
 31
0.0
  0
LINE
  5
99
100
AcDbEntity
  8
LAY-1
  6
CONTINUOUS
 62
     4
100
AcDbLine
 10
3192.0
 20
167.0
 30
0.0
 11
3192.0
 21
432.6
 31
0.0
  0
TEXT
  5
9A
100
AcDbEntity
  8
LAY-1
  6
CONTINUOUS
 62
     3
100
AcDbText
 10
3197.12
 20
383.64
 30
0.0
 40
40.0
  1
作成日
 41
0.84
  7
EXCADSTD
 72
     5
 11
3317.12
 21
383.64
 31
0.0
100
AcDbText
  0
HATCH
  5
9B
100
AcDbEntity
  8
LAY-1
  6
CONTINUOUS
 62
     3
100
AcDbHatch
 10
0.0
 20
0.0
 30
0.0
210
0.0
220
0.0
230
1.0
  2
SOLID
 70
     1
 71
     1
 91
        1
 92
        1
 93
       16
 72
     1
 10
3696.5197987224883
 20
179.19171428571303
 11
3704.0926558653455
 21
179.19171428571303
 72
     1
 10
3704.0926558653455
 20
179.19171428571303
 11
3704.0926558653455
 21
174.30599999999868
 72
     1
 10
3704.0926558653455
 20
174.30599999999868
 11
3683.816941579631
 21
174.30599999999868
 72
     1
 10
3683.816941579631
 20
174.30599999999868
 11
3683.816941579631
 21
179.19171428571303
 72
     1
 10
3683.816941579631
 20
179.19171428571303
 11
3691.6340844367742
 21
179.19171428571303
 72
     1
 10
3691.6340844367742
 20
179.19171428571303
 11
3691.6340844367742
 21
193.3602857142846
 72
     1
 10
3691.6340844367742
 20
193.3602857142846
 11
3685.5269415796311
 21
193.3602857142846
 72
     1
 10
3685.5269415796311
 20
193.3602857142846
 11
3685.5269415796311
 21
198.24599999999873
 72
     1
 10
3685.5269415796311
 20
198.24599999999873
 11
3691.6340844367742
 21
198.24599999999873
 72
     1
 10
3691.6340844367742
 20
198.24599999999873
 11
3691.6340844367742
 21
208.50599999999895
 72
     1
 10
3691.6340844367742
 20
208.50599999999895
 11
3696.5197987224883
 21
208.50599999999895
 72
     1
 10
3696.5197987224883
 20
208.50599999999895
 11
3696.5197987224883
 21
198.24599999999873
 72
     1
 10
3696.5197987224883
 20
198.24599999999873
 11
3703.6040844367744
 21
198.24599999999873
 72
     1
 10
3703.6040844367744
 20
198.24599999999873
 11
3703.6040844367744
 21
193.3602857142846
 72
     1
 10
3703.6040844367744
 20
193.3602857142846
 11
3696.5197987224883
 21
193.3602857142846
 72
     1
 10
3696.5197987224883
 20
193.3602857142846
 11
3696.5197987224883
 21
179.19171428571303
 97
        0
 75
     0
 76
     1
 98
        1
 10
0.0
 20
0.0
  0
HATCH
  5
9C
100
AcDbEntity
  8
LAY-1
  6
CONTINUOUS
 62
     3
100
AcDbHatch
 10
0.0
 20
0.0
 30
0.0
210
0.0
220
0.0
230
1.0
  2
SOLID
 70
     1
 71
     1
 91
        1
 92
        1
 93
       17
 72
     2
 10
3645.190602767736
 20
217.9882535847189
 40
43.971428571428724
 50
44.165469
 51
51.472792
 73
     0
 72
     1
 10
3672.5797987224882
 20
183.58885714285611
 11
3670.1061544909967
 21
187.8733346316485
 72
     2
 10
3645.190602767736
 20
217.9882535847189
 40
39.085714285714417
 50
309.602625
 51
331.307968
 73
     1
 72
     1
 10
3679.4770969105653
 20
199.22314285714174
 11
3671.3583701510597
 21
199.22314285714174
 72
     1
 10
3671.3583701510597
 20
199.22314285714174
 11
3671.3583701510597
 21
203.62028571428436
 72
     1
 10
3671.3583701510597
 20
203.62028571428436
 11
3676.7326558653454
 21
203.62028571428436
 72
     1
 10
3676.7326558653454
 20
203.62028571428436
 11
3676.7326558653454
 21
208.50599999999895
 72
     1
 10
3676.7326558653454
 20
208.50599999999895
 11
3681.1297987224884
 21
208.50599999999895
 72
     1
 10
3681.1297987224884
 20
208.50599999999895
 11
3681.1297987224884
 21
203.62028571428436
 72
     1
 10
3681.1297987224884
 20
203.62028571428436
 11
3686.7483701510596
 21
203.62028571428436
 72
     2
 10
3645.190602767736
 20
217.9882535847189
 40
43.971428571428724
 50
19.072051
 51
32.871988
 73
     0
 72
     1
 10
3682.1215602014063
 20
194.12214972077277
 11
3687.9697987224881
 21
188.47457142857024
 72
     1
 10
3687.9697987224881
 20
188.47457142857024
 11
3684.5145507691204
 21
185.01932347520233
 72
     1
 10
3684.5145507691204
 20
185.01932347520233
 11
3681.1297987224884
 21
188.28794053214028
 72
     1
 10
3681.1297987224884
 20
188.28794053214028
 11
3681.1297987224884
 21
174.30599999999868
 72
     1
 10
3681.1297987224884
 20
174.30599999999868
 11
3676.7326558653454
 21
174.30599999999868
 72
     1
 10
3676.7326558653454
 20
174.30599999999868
 11
3676.7326558653454
 21
187.35191214191855
 97
        0
 75
     0
 76
     1
 98
        1
 10
0.0
 20
0.0
  0
HATCH
  5
9D
100
AcDbEntity
  8
LAY-1
  6
CONTINUOUS
 62
     3
100
AcDbHatch
 10
0.0
 20
0.0
 30
0.0
210
0.0
220
0.0
230
1.0
  2
SOLID
 70
     1
 71
     1
 91
        1
 92
        1
 93
       12
 72
     2
 10
3706.9808132770659
 20
152.04342255975371
 40
68.888571428571652
 50
150.903074
 51
156.790773
 73
     1
 72
     1
 10
3643.6672639386215
 20
179.19171428571281
 11
3658.7092494641479
 21
179.19171428571326
 72
     2
 10
3615.9808099350257
 20
166.90464566027617
 40
44.46000000000015
 50
16.043216
 51
21.362935
 73
     1
 72
     1
 10
3657.3860371803994
 20
183.10028571428438
 11
3662.0755130082021
 21
183.10028571428438
 72
     2
 10
3615.9808099350257
 20
166.90464566027617
 40
48.857142857143025
 50
340.64078
 51
351.286733
 73
     0
 72
     1
 10
3664.2740844367736
 20
174.30599999999868
 11
3637.158370151059
 21
174.30599999999868
 72
     2
 10
3706.9808132770659
 20
152.04342255975371
 40
73.285714285714519
 50
197.684652
 51
207.200855
 73
     0
 72
     1
 10
3641.7997987224876
 20
185.54314285714167
 11
3634.9597987224884
 21
185.54314285714167
 72
     1
 10
3634.9597987224884
 20
185.54314285714167
 11
3634.9597987224884
 21
190.42885714285603
 72
     1
 10
3634.9597987224884
 20
190.42885714285603
 11
3666.2283701510601
 21
190.42885714285603
 72
     1
 10
3666.2283701510601
 20
190.42885714285603
 11
3666.2283701510601
 21
185.54314285714167
 72
     1
 10
3666.2283701510601
 20
185.54314285714167
 11
3646.7860957890161
 21
185.54314285714167
 97
        0
 75
     0
 76
     1
 98
        1
 10
0.0
 20
0.0
  0
HATCH
  5
9E
100
AcDbEntity
  8
LAY-1
  6
CONTINUOUS
 62
     3
100
AcDbHatch
 10
0.0
 20
0.0
 30
0.0
210
0.0
220
0.0
230
1.0
  2
SOLID
 70
     1
 71
     1
 91
        1
 92
        1
 93
       10
 72
     2
 10
3707.273835392471
 20
257.79246130431829
 40
78.171428571428834
 50
129.545698
 51
136.474664
 73
     0
 72
     1
 10
3650.5940844367756
 20
203.95773202573514
 11
3650.5940844367756
 21
208.50599999999895
 72
     1
 10
3650.5940844367756
 20
208.50599999999895
 11
3653.0369415796317
 21
208.50599999999895
 72
     2
 10
3707.273835392471
 20
257.79246130431829
 40
73.285714285714519
 50
222.262231
 51
237.763996
 73
     1
 72
     1
 10
3668.1826558653456
 20
195.80314285714167
 11
3665.0149630613651
 21
192.02803357776293
 72
     2
 10
3707.273835392471
 20
257.79246130431829
 40
78.171428571428834
 50
122.723968
 51
128.230009
 73
     0
 72
     1
 10
3658.8997987224884
 20
196.38623343491417
 11
3658.8997987224884
 21
192.62742857142734
 72
     1
 10
3658.8997987224884
 20
192.62742857142734
 11
3650.5940844367756
 21
192.62742857142734
 72
     1
 10
3650.5940844367756
 20
192.62742857142734
 11
3650.5940844367756
 21
197.5131428571417
 72
     1
 10
3650.5940844367756
 20
197.5131428571417
 11
3657.5025985940761
 21
197.5131428571417
 97
        0
 75
     0
 76
     1
 98
        1
 10
0.0
 20
0.0
  0
HATCH
  5
9F
100
AcDbEntity
  8
LAY-1
  6
CONTINUOUS
 62
     3
100
AcDbHatch
 10
0.0
 20
0.0
 30
0.0
210
0.0
220
0.0
230
1.0
  2
SOLID
 70
     1
 71
     1
 91
        1
 92
        1
 93
       10
 72
     2
 10
3593.9143334810774
 20
257.79246130431829
 40
78.171428571428834
 50
51.769991
 51
57.276032
 73
     0
 72
     1
 10
3636.1732058121829
 20
192.02803357776293
 11
3633.0055130082023
 21
195.80314285714167
 72
     2
 10
3593.9143334810774
 20
257.79246130431829
 40
73.285714285714519
 50
302.236004
 51
317.737769
 73
     1
 72
     1
 10
3648.1512272939167
 20
208.50599999999895
 11
3650.5940844367756
 21
208.50599999999895
 72
     1
 10
3650.5940844367756
 20
208.50599999999895
 11
3650.5940844367756
 21
203.9577320257381
 72
     2
 10
3593.9143334810774
 20
257.79246130431829
 40
78.171428571428834
 50
43.525336
 51
50.454302
 73
     0
 72
     1
 10
3643.6855702794719
 20
197.5131428571417
 11
3650.5940844367756
 21
197.5131428571417
 72
     1
 10
3650.5940844367756
 20
197.5131428571417
 11
3650.5940844367756
 21
192.62742857142734
 72
     1
 10
3650.5940844367756
 20
192.62742857142734
 11
3642.28837015106
 21
192.62742857142734
 72
     1
 10
3642.28837015106
 20
192.62742857142734
 11
3642.28837015106
 21
196.38623343491417
 97
        0
 75
     0
 76
     1
 98
        1
 10
0.0
 20
0.0
  0
HATCH
  5
A0
100
AcDbEntity
  8
LAY-1
  6
CONTINUOUS
 62
     3
100
AcDbHatch
 10
0.0
 20
0.0
 30
0.0
210
0.0
220
0.0
230
1.0
  2
SOLID
 70
     1
 71
     1
 91
        1
 92
        1
 93
       18
 72
     2
 10
3557.9560464184133
 20
186.55004157940698
 40
68.400000000000219
 50
14.02954
 51
18.723021
 73
     1
 72
     1
 10
3622.736412964407
 20
208.50599999999895
 11
3627.8755130082022
 21
208.50599999999895
 72
     2
 10
3557.9560464184133
 20
186.55004157940698
 40
73.285714285714519
 50
342.566782
 51
346.922981
 73
     0
 72
     1
 10
3629.3412272939167
 20
203.13171428571331
 11
3631.2955130082023
 21
203.13171428571331
 72
     1
 10
3631.2955130082023
 20
203.13171428571331
 11
3631.2955130082023
 21
198.24599999999873
 72
     1
 10
3631.2955130082023
 20
198.24599999999873
 11
3622.1614416969032
 21
198.24599999999873
 72
     2
 10
3672.8240844367738
 20
206.30742857142741
 40
51.300000000000175
 50
189.041096
 51
204.65198
 73
     1
 72
     2
 10
3636.4173419950753
 20
189.5991514641928
 40
11.242323842884963
 50
204.65198
 51
242.897449
 73
     1
 72
     1
 10
3631.2955130082023
 20
179.59131887079229
 11
3631.2955130082023
 21
174.30599999999868
 72
     2
 10
3636.4173419950753
 20
189.5991514641928
 40
16.128038128599261
 50
108.516212
 51
155.34802
 73
     0
 72
     2
 10
3672.8240844367738
 20
206.30742857142741
 40
56.185714285714461
 50
155.34802
 51
171.750831
 73
     0
 72
     1
 10
3617.2196973869759
 20
198.24599999999873
 11
3598.561227293917
 21
198.24599999999873
 72
     1
 10
3598.561227293917
 20
198.24599999999873
 11
3598.561227293917
 21
203.13171428571331
 72
     1
 10
3598.561227293917
 20
203.13171428571331
 11
3616.7150208557841
 21
203.13171428571331
 72
     1
 10
3616.7150208557841
 20
203.13171428571331
 11
3616.5273466631729
 21
208.50599999999895
 72
     1
 10
3616.5273466631729
 20
208.50599999999895
 11
3621.4160390081756
 21
208.50599999999895
 72
     1
 10
3621.4160390081756
 20
208.50599999999895
 11
3621.6037132007868
 21
203.13171428571331
 72
     1
 10
3621.6037132007868
 20
203.13171428571331
 11
3624.3157339573172
 21
203.13171428571331
 97
        0
 75
     0
 76
     1
 98
        1
 10
0.0
 20
0.0
  0
HATCH
  5
A1
100
AcDbEntity
  8
LAY-1
  6
CONTINUOUS
 62
     3
100
AcDbHatch
 10
0.0
 20
0.0
 30
0.0
210
0.0
220
0.0
230
1.0
  2
SOLID
 70
     1
 71
     1
 91
        1
 92
        1
 93
       12
 72
     2
 10
3583.1833374739681
 20
419.5729257444907
 40
239.40000000000077
 50
276.500664
 51
278.269357
 73
     1
 72
     1
 10
3617.6155130082025
 20
182.66200305838879
 11
3617.6155130082025
 21
177.72599999999875
 72
     2
 10
3583.1833374739681
 20
419.5729257444907
 40
244.2857142857151
 50
81.897153
 51
86.39082
 73
     0
 72
     1
 10
3598.561227293917
 20
175.77171428571319
 11
3598.561227293917
 21
180.66733664141839
 72
     2
 10
3583.1833374739681
 20
419.5729257444907
 40
239.40000000000077
 50
273.682937
 51
275.325087
 73
     1
 72
     1
 10
3605.4012272939167
 20
181.20613826781846
 11
3605.4012272939167
 21
188.96314285714152
 72
     1
 10
3605.4012272939167
 20
188.96314285714152
 11
3598.561227293917
 21
188.96314285714152
 72
     1
 10
3598.561227293917
 20
188.96314285714152
 11
3598.561227293917
 21
193.84885714285588
 72
     1
 10
3598.561227293917
 20
193.84885714285588
 11
3616.1497987224884
 21
193.84885714285588
 72
     1
 10
3616.1497987224884
 20
193.84885714285588
 11
3616.1497987224884
 21
188.96314285714152
 72
     1
 10
3616.1497987224884
 20
188.96314285714152
 11
3610.2869415796313
 21
188.96314285714152
 72
     1
 10
3610.2869415796313
 20
188.96314285714152
 11
3610.2869415796308
 21
181.7121373734692
 97
        0
 75
     0
 76
     1
 98
        1
 10
0.0
 20
0.0
  0
HATCH
  5
A2
100
AcDbEntity
  8
LAY-1
  6
CONTINUOUS
 62
     3
100
AcDbHatch
 10
0.0
 20
0.0
 30
0.0
210
0.0
220
0.0
230
1.0
  2
SOLID
 70
     1
 71
     1
 91
        1
 92
        1
 93
       30
 72
     2
 10
3539.025331629055
 20
216.31747823515343
 40
53.498571428571601
 50
37.940537
 51
46.713808
 73
     0
 72
     1
 10
3575.7062498682099
 20
177.37383456856264
 11
3572.422655865345
 21
180.65742857142754
 72
     2
 10
3539.025331629055
 20
216.31747823515343
 40
48.857142857143046
 50
313.123325
 51
325.95222
 73
     1
 72
     1
 10
3579.5069415796306
 20
188.96314285714175
 11
3573.6440844367739
 21
188.96314285714175
 72
     1
 10
3573.6440844367739
 20
188.96314285714175
 11
3573.6440844367739
 21
193.8488571428561
 72
     1
 10
3573.6440844367739
 20
193.8488571428561
 11
3581.2169415796311
 21
193.8488571428561
 72
     1
 10
3581.2169415796311
 20
193.8488571428561
 11
3581.2169415796311
 21
198.73457142857023
 72
     1
 10
3581.2169415796311
 20
198.73457142857023
 11
3578.7810272137472
 21
198.73457142857023
 72
     2
 10
3526.5390727104414
 20
209.06884143730167
 40
53.254285714285913
 50
11.189535
 51
14.746058
 73
     0
 72
     1
 10
3578.0393461506378
 20
195.51373972157012
 11
3573.888370151059
 21
197.0245714285702
 72
     2
 10
3526.5390727104414
 20
209.06884143730167
 40
48.857142857143046
 50
345.728313
 51
357.620387
 73
     1
 72
     1
 10
3575.354084436774
 20
207.04028571429899
 11
3579.7197854104106
 21
206.27049484294184
 72
     2
 10
3526.5390727104414
 20
209.06884143730167
 40
53.254285714285913
 50
3.012102
 51
6.401006
 73
     0
 72
     1
 10
3579.4613692226367
 20
203.13171428571331
 11
3581.2169415796311
 21
203.13171428571331
 72
     1
 10
3581.2169415796311
 20
203.13171428571331
 11
3581.2169415796311
 21
208.50599999999895
 72
     1
 10
3581.2169415796311
 20
208.50599999999895
 11
3586.1026558653452
 21
208.50599999999895
 72
     1
 10
3586.1026558653452
 20
208.50599999999895
 11
3586.1026558653452
 21
203.13171428571331
 72
     1
 10
3586.1026558653452
 20
203.13171428571331
 11
3592.6983701510599
 21
203.13171428571331
 72
     1
 10
3592.6983701510599
 20
203.13171428571331
 11
3592.6983701510599
 21
198.73457142857023
 72
     1
 10
3592.6983701510599
 20
198.73457142857023
 11
3586.1026558653452
 21
198.73457142857023
 72
     1
 10
3586.1026558653452
 20
198.73457142857023
 11
3586.1026558653452
 21
193.8488571428561
 72
     1
 10
3586.1026558653452
 20
193.8488571428561
 11
3593.6755130082024
 21
193.8488571428561
 72
     1
 10
3593.6755130082024
 20
193.8488571428561
 11
3593.6755130082024
 21
188.96314285714175
 72
     1
 10
3593.6755130082024
 20
188.96314285714175
 11
3587.8126558653448
 21
188.96314285714175
 72
     2
 10
3628.2942658159204
 20
216.31747823515343
 40
48.857142857143046
 50
214.04778
 51
226.876675
 73
     1
 72
     1
 10
3594.89694157963
 20
180.65742857142754
 11
3591.6133475767651
 21
177.37383456856264
 72
     2
 10
3628.2942658159204
 20
216.31747823515343
 40
53.498571428571601
 50
133.286192
 51
142.059463
 73
     0
 72
     1
 10
3586.1026558653452
 20
183.42423888910389
 11
3586.1026558653452
 21
174.30599999999868
 72
     1
 10
3586.1026558653452
 20
174.30599999999868
 11
3581.2169415796311
 21
174.30599999999868
 72
     1
 10
3581.2169415796311
 20
174.30599999999868
 11
3581.2169415796311
 21
183.42423888910525
 97
        0
 75
     0
 76
     1
 98
        1
 10
0.0
 20
0.0
  0
HATCH
  5
A3
100
AcDbEntity
  8
LAY-1
  6
CONTINUOUS
 62
     3
100
AcDbHatch
 10
0.0
 20
0.0
 30
0.0
210
0.0
220
0.0
230
1.0
  2
SOLID
 70
     1
 71
     1
 91
        1
 92
        1
 93
       19
 72
     2
 10
3518.9130661813542
 20
209.79673838038138
 40
53.254285714285892
 50
27.683433
 51
32.280505
 73
     0
 72
     1
 10
3563.936561174477
 20
181.35550342929218
 11
3560.4526558653452
 21
184.07742857142739
 72
     2
 10
3518.9130661813542
 20
209.79673838038138
 40
48.857142857143025
 50
328.236207
 51
344.845745
 73
     1
 72
     1
 10
3566.0712272939159
 20
197.0245714285702
 11
3561.6740844367737
 21
197.0245714285702
 72
     1
 10
3561.6740844367737
 20
197.0245714285702
 11
3561.6740844367737
 21
201.91028571428456
 72
     1
 10
3561.6740844367737
 20
201.91028571428456
 11
3566.0712272939168
 21
201.91028571428456
 72
     1
 10
3566.0712272939168
 20
201.91028571428456
 11
3566.0712272939168
 21
208.50599999999895
 72
     1
 10
3566.0712272939168
 20
208.50599999999895
 11
3570.9569415796309
 21
208.50599999999895
 72
     1
 10
3570.9569415796309
 20
208.50599999999895
 11
3570.9569415796309
 21
201.91028571428456
 72
     1
 10
3570.9569415796309
 20
201.91028571428456
 11
3573.1555130082024
 21
201.91028571428456
 72
     1
 10
3573.1555130082024
 20
201.91028571428456
 11
3573.1555130082024
 21
197.0245714285702
 72
     1
 10
3573.1555130082024
 20
197.0245714285702
 11
3570.9569415796309
 21
197.0245714285702
 72
     1
 10
3570.9569415796309
 20
197.0245714285702
 11
3573.6440844367739
 21
193.18693371330983
 72
     1
 10
3573.6440844367739
 20
193.18693371330983
 11
3573.6440844367739
 21
190.21257458202444
 72
     1
 10
3573.6440844367739
 20
190.21257458202444
 11
3572.1783701510594
 21
188.46580431630741
 72
     1
 10
3572.1783701510594
 20
188.46580431630741
 11
3570.9569415796309
 21
190.2101850959707
 72
     1
 10
3570.9569415796309
 20
190.2101850959707
 11
3570.9569415796309
 21
174.30599999999868
 72
     1
 10
3570.9569415796309
 20
174.30599999999868
 11
3566.0712272939168
 21
174.30599999999868
 72
     1
 10
3566.0712272939168
 20
174.30599999999868
 11
3566.0712272939168
 21
185.05554222052729
 97
        0
 75
     0
 76
     1
 98
        1
 10
0.0
 20
0.0
  0
HATCH
  5
A4
100
AcDbEntity
  8
LAY-1
  6
CONTINUOUS
 62
     3
100
AcDbHatch
 10
0.0
 20
0.0
 30
0.0
210
0.0
220
0.0
230
1.0
  2
SOLID
 70
     1
 71
     1
 91
        1
 92
        1
 93
        8
 72
     2
 10
3539.4335998905167
 20
188.66999999999803
 40
9.5760000000000769
 50
270.0
 51
330.0
 73
     1
 72
     2
 10
3534.694708881008
 20
191.40599999999813
 40
15.048000000000073
 50
330.0
 51
30.0
 73
     1
 72
     2
 10
3539.4335998905167
 20
194.14199999999801
 40
9.5760000000000733
 50
30.0
 51
90.0
 73
     1
 72
     1
 10
3539.4335998905194
 20
203.71799999999826
 11
3539.4335998905194
 21
209.18999999999915
 72
     2
 10
3539.4335998905162
 20
194.14199999999937
 40
15.048000000000046
 50
270.0
 51
330.0
 73
     0
 72
     2
 10
3534.6947088810089
 20
191.40599999999904
 40
20.520000000000092
 50
330.0
 51
30.0
 73
     0
 72
     2
 10
3539.4335998905171
 20
188.66999999999757
 40
15.04800000000003
 50
30.0
 51
90.0
 73
     0
 72
     1
 10
3539.4335998905194
 20
173.62199999999757
 11
3539.4335998905194
 21
179.093999999998
 97
        0
 75
     0
 76
     1
 98
        1
 10
0.0
 20
0.0
  0
HATCH
  5
A5
100
AcDbEntity
  8
LAY-1
  6
CONTINUOUS
 62
     3
100
AcDbHatch
 10
0.0
 20
0.0
 30
0.0
210
0.0
220
0.0
230
1.0
  2
SOLID
 70
     1
 71
     1
 91
        1
 92
        1
 93
        8
 72
     2
 10
3539.4335998905171
 20
188.66999999999757
 40
15.04800000000003
 50
90.0
 51
150.0
 73
     0
 72
     2
 10
3544.1724909000245
 20
191.4059999999979
 40
20.520000000000113
 50
150.0
 51
210.0
 73
     0
 72
     2
 10
3539.4335998905162
 20
194.14199999999937
 40
15.048000000000046
 50
210.0
 51
270.0
 73
     0
 72
     1
 10
3539.4335998905194
 20
209.18999999999915
 11
3539.4335998905194
 21
203.71799999999826
 72
     2
 10
3539.4335998905167
 20
194.14199999999801
 40
9.5760000000000733
 50
90.0
 51
150.0
 73
     1
 72
     2
 10
3544.1724909000254
 20
191.40599999999813
 40
15.04800000000008
 50
150.0
 51
210.0
 73
     1
 72
     2
 10
3539.4335998905167
 20
188.66999999999803
 40
9.5760000000000769
 50
210.0
 51
270.0
 73
     1
 72
     1
 10
3539.4335998905194
 20
179.093999999998
 11
3539.4335998905194
 21
173.62199999999757
 97
        0
 75
     0
 76
     1
 98
        1
 10
0.0
 20
0.0
  0
HATCH
  5
A6
100
AcDbEntity
  8
LAY-1
  6
CONTINUOUS
 62
     3
100
AcDbHatch
 10
0.0
 20
0.0
 30
0.0
210
0.0
220
0.0
230
1.0
  2
SOLID
 70
     1
 71
     1
 91
        1
 92
        1
 93
        4
 72
     1
 10
3518.229599890517
 20
185.24999999999818
 11
3512.7575998905168
 21
185.24999999999818
 72
     1
 10
3512.7575998905168
 20
185.24999999999818
 11
3512.7575998905168
 21
190.72199999999793
 72
     1
 10
3512.7575998905168
 20
190.72199999999793
 11
3518.229599890517
 21
190.72199999999793
 72
     1
 10
3518.229599890517
 20
190.72199999999793
 11
3518.229599890517
 21
185.24999999999773
 97
        0
 75
     0
 76
     1
 98
        1
 10
0.0
 20
0.0
  0
HATCH
  5
A7
100
AcDbEntity
  8
LAY-1
  6
CONTINUOUS
 62
     3
100
AcDbHatch
 10
0.0
 20
0.0
 30
0.0
210
0.0
220
0.0
230
1.0
  2
SOLID
 70
     1
 71
     1
 91
        1
 92
        1
 93
       16
 72
     1
 10
3492.2375998905163
 20
203.03399999999829
 11
3484.7135998905164
 21
203.03399999999829
 72
     1
 10
3484.7135998905164
 20
203.03399999999829
 11
3483.3455998905165
 21
195.50999999999817
 72
     1
 10
3483.3455998905165
 20
195.50999999999817
 11
3479.2415998905167
 21
195.50999999999817
 72
     1
 10
3479.2415998905167
 20
195.50999999999817
 11
3479.2415998905167
 21
208.50599999999804
 72
     1
 10
3479.2415998905167
 20
208.50599999999804
 11
3510.7055998905171
 21
208.50599999999804
 72
     1
 10
3510.7055998905171
 20
208.50599999999804
 11
3510.7055998905171
 21
195.50999999999817
 72
     1
 10
3510.7055998905171
 20
195.50999999999817
 11
3506.6015998905168
 21
195.50999999999817
 72
     1
 10
3506.6015998905168
 20
195.50999999999817
 11
3505.2335998905169
 21
203.03399999999829
 72
     1
 10
3505.2335998905169
 20
203.03399999999829
 11
3497.7095998905165
 21
203.03399999999829
 72
     1
 10
3497.7095998905165
 20
203.03399999999829
 11
3497.709599890517
 21
179.77799999999797
 72
     1
 10
3497.709599890517
 20
179.77799999999797
 11
3503.1815998905167
 21
178.40999999999804
 72
     1
 10
3503.1815998905167
 20
178.40999999999804
 11
3503.1815998905167
 21
174.30599999999799
 72
     1
 10
3503.1815998905167
 20
174.30599999999799
 11
3486.7655998905166
 21
174.30599999999799
 72
     1
 10
3486.7655998905166
 20
174.30599999999799
 11
3486.7655998905166
 21
178.40999999999804
 72
     1
 10
3486.7655998905166
 20
178.40999999999804
 11
3492.2375998905163
 21
179.77799999999797
 72
     1
 10
3492.2375998905163
 20
179.77799999999797
 11
3492.2375998905163
 21
203.03399999999829
 97
        0
 75
     0
 76
     1
 98
        1
 10
0.0
 20
0.0
  0
HATCH
  5
A8
100
AcDbEntity
  8
LAY-1
  6
CONTINUOUS
 62
     3
100
AcDbHatch
 10
0.0
 20
0.0
 30
0.0
210
0.0
220
0.0
230
1.0
  2
SOLID
 70
     1
 71
     1
 91
        1
 92
        1
 93
        4
 72
     1
 10
3471.7175998905168
 20
185.24999999999818
 11
3471.7175998905168
 21
190.72199999999839
 72
     1
 10
3471.7175998905168
 20
190.72199999999839
 11
3477.1895998905165
 21
190.72199999999793
 72
     1
 10
3477.1895998905165
 20
190.72199999999793
 11
3477.1895998905165
 21
185.24999999999818
 72
     1
 10
3477.1895998905165
 20
185.24999999999818
 11
3471.7175998905168
 21
185.24999999999818
 97
        0
 75
     0
 76
     1
 98
        1
 10
0.0
 20
0.0
  0
HATCH
  5
A9
100
AcDbEntity
  8
LAY-1
  6
CONTINUOUS
 62
     3
100
AcDbHatch
 10
0.0
 20
0.0
 30
0.0
210
0.0
220
0.0
230
1.0
  2
SOLID
 70
     1
 71
     1
 91
        1
 92
        1
 93
       12
 72
     1
 10
3465.5615998905168
 20
208.50599999999804
 11
3465.5615998905168
 21
204.40199999999822
 72
     1
 10
3465.5615998905168
 20
204.40199999999822
 11
3460.0895998905171
 21
203.03399999999829
 72
     1
 10
3460.0895998905171
 20
203.03399999999829
 11
3460.0895998905171
 21
179.77799999999797
 72
     1
 10
3460.0895998905171
 20
179.77799999999797
 11
3465.5615998905168
 21
178.40999999999804
 72
     1
 10
3465.5615998905168
 20
178.40999999999804
 11
3465.5615998905168
 21
174.30599999999799
 72
     1
 10
3465.5615998905168
 20
174.30599999999799
 11
3449.1455998905167
 21
174.30599999999799
 72
     1
 10
3449.1455998905167
 20
174.30599999999799
 11
3449.1455998905167
 21
178.40999999999804
 72
     1
 10
3449.1455998905167
 20
178.40999999999804
 11
3454.6175998905164
 21
179.77799999999797
 72
     1
 10
3454.6175998905164
 20
179.77799999999797
 11
3454.6175998905164
 21
203.03399999999829
 72
     1
 10
3454.6175998905164
 20
203.03399999999829
 11
3449.1455998905167
 21
204.40199999999822
 72
     1
 10
3449.1455998905167
 20
204.40199999999822
 11
3449.1455998905167
 21
208.50599999999804
 72
     1
 10
3449.1455998905167
 20
208.50599999999804
 11
3465.5615998905168
 21
208.50599999999804
 97
        0
 75
     0
 76
     1
 98
        1
 10
0.0
 20
0.0
  0
HATCH
  5
AA
100
AcDbEntity
  8
LAY-1
  6
CONTINUOUS
 62
     3
100
AcDbHatch
 10
0.0
 20
0.0
 30
0.0
210
0.0
220
0.0
230
1.0
  2
SOLID
 70
     1
 71
     1
 91
        1
 92
        1
 93
       15
 72
     2
 10
3411.9194333433611
 20
191.40599999999881
 40
15.186318631863207
 50
124.301153
 51
180.0
 73
     0
 72
     1
 10
3396.7331147114978
 20
191.40599999999972
 11
3402.4634797132499
 21
191.40599999999972
 72
     2
 10
3417.2393573010086
 20
191.40599999999904
 40
14.775877587758821
 50
180.0
 51
199.464384
 73
     1
 72
     2
 10
3403.0688257282568
 20
193.04507188899652
 40
6.5670567056707245
 50
272.086657
 51
294.619977
 73
     1
 72
     2
 10
3404.9497028811816
 20
188.94066144795238
 40
2.052205220522064
 50
294.619977
 51
0.0
 73
     1
 72
     1
 10
3407.001908101704
 20
188.94066144795238
 11
3407.001908101704
 21
191.40599999999972
 72
     1
 10
3407.001908101704
 20
191.40599999999972
 11
3411.9272006309566
 21
191.40599999999972
 72
     1
 10
3411.9272006309566
 20
191.40599999999972
 11
3411.9272006309566
 21
188.93630683516676
 72
     2
 10
3413.979405851479
 20
188.93630683516676
 40
2.0522052205219801
 50
180.0
 51
245.380023
 73
     1
 72
     2
 10
3415.8602830044038
 20
193.04071727621181
 40
6.5670567056714466
 50
245.380023
 51
267.913343
 73
     1
 72
     1
 10
3415.6211700278964
 20
186.47801518332562
 11
3415.6211700278964
 21
185.24669205101259
 72
     1
 10
3415.6211700278964
 20
185.24669205101259
 11
3403.8084420649584
 21
185.24669205101259
 72
     2
 10
3417.2393573010095
 20
191.40599999999904
 40
14.775877587758801
 50
204.635803
 51
268.19864
 73
     1
 72
     1
 10
3416.7748852884256
 20
176.63742443436104
 11
3416.7748852884256
 21
174.58229771202605
 72
     2
 10
3417.2393573010086
 20
199.20437983798342
 40
24.626462646264738
 50
91.080702
 51
124.301153
 73
     0
 97
        0
 75
     0
 76
     1
 98
        1
 10
0.0
 20
0.0
  0
HATCH
  5
AB
100
AcDbEntity
  8
LAY-1
  6
CONTINUOUS
 62
     3
100
AcDbHatch
 10
0.0
 20
0.0
 30
0.0
210
0.0
220
0.0
230
1.0
  2
SOLID
 70
     1
 71
     1
 91
        1
 92
        1
 93
       24
 72
     2
 10
3414.3895485566031
 20
193.45820522052099
 40
2.0522052205220822
 50
90.0
 51
157.380135
 73
     1
 72
     2
 10
3419.3148410858557
 20
191.40599999999904
 40
7.3879387938794219
 50
157.380135
 51
180.0
 73
     1
 72
     1
 10
3411.9269022919766
 20
191.40599999999972
 11
3407.001908101704
 21
191.40599999999972
 72
     1
 10
3407.001908101704
 20
191.40599999999972
 11
3407.001908101704
 21
202.06063243758581
 72
     2
 10
3417.2393573010086
 20
191.40599999999904
 40
14.775877587758821
 50
133.856042
 51
180.0
 73
     1
 72
     1
 10
3402.4634797132499
 20
191.40599999999972
 11
3396.7331147114978
 21
191.40599999999972
 72
     2
 10
3411.9194333433611
 20
191.40599999999881
 40
15.186318631863207
 50
180.0
 51
235.698847
 73
     0
 72
     2
 10
3417.2393573010095
 20
183.6076201620142
 40
24.626462646264791
 50
235.698847
 51
245.436008
 73
     0
 72
     1
 10
3407.001908101704
 20
206.00532755271661
 11
3407.001908101704
 21
208.2357451336452
 72
     2
 10
3404.9497028811816
 20
208.2357451336452
 40
2.0522052205220529
 50
0.0
 51
65.380023
 73
     1
 72
     2
 10
3403.0688257282568
 20
204.13133469260106
 40
6.5670567056705762
 50
65.380023
 51
87.913343
 73
     1
 72
     1
 10
3403.3079387047637
 20
210.69403678548633
 11
3403.3079387047637
 21
211.92535991779937
 72
     1
 10
3403.3079387047637
 20
211.92535991779937
 11
3415.6211700278964
 21
211.92535991779937
 72
     1
 10
3415.6211700278964
 20
211.92535991779937
 11
3415.6211700278964
 21
210.69403678548633
 72
     2
 10
3415.8602830044038
 20
204.13133469260106
 40
6.5670567056706064
 50
92.086657
 51
114.619977
 73
     1
 72
     2
 10
3413.979405851479
 20
208.2357451336452
 40
2.0522052205220822
 50
114.619977
 51
180.0
 73
     1
 72
     1
 10
3411.9272006309566
 20
208.2357451336452
 11
3411.9272006309566
 21
207.65431752320501
 72
     2
 10
3417.2393573010086
 20
183.6076201620142
 40
24.626462646264731
 50
257.542857
 51
268.919298
 73
     0
 72
     1
 10
3416.7748852884256
 20
208.2297022879718
 11
3416.7748852884256
 21
206.17457556563704
 72
     2
 10
3417.2393573010095
 20
191.40599999999904
 40
14.775877587758821
 50
91.80136
 51
111.070443
 73
     1
 72
     1
 10
3411.9272006309566
 20
205.19394944874762
 11
3411.9272006309566
 21
197.56261566156513
 72
     1
 10
3411.9272006309566
 20
197.56261566156513
 11
3416.7748852884256
 21
197.56261566156513
 72
     1
 10
3416.7748852884256
 20
197.56261566156513
 11
3416.7748852884256
 21
195.51041044104295
 72
     1
 10
3416.7748852884256
 20
195.51041044104295
 11
3414.3895485566031
 21
195.51041044104295
 97
        0
 75
     0
 76
     1
 98
        1
 10
0.0
 20
0.0
  0
HATCH
  5
AC
100
AcDbEntity
  8
LAY-1
  6
CONTINUOUS
 62
     3
100
AcDbHatch
 10
0.0
 20
0.0
 30
0.0
210
0.0
220
0.0
230
1.0
  2
SOLID
 70
     1
 71
     1
 91
        1
 92
        1
 93
       14
 72
     2
 10
3417.2393573010086
 20
191.40599999999904
 40
14.775877587758849
 50
0.0
 51
9.281799
 73
     1
 72
     2
 10
3429.7964386594153
 20
193.45820522052099
 40
2.05220522052204
 50
9.281799
 51
90.0
 73
     1
 72
     1
 10
3429.7964386594153
 20
195.51041044104295
 11
3425.4481781830973
 21
195.51041044104295
 72
     1
 10
3425.4481781830973
 20
195.51041044104295
 11
3425.4481781830973
 21
191.40599999999972
 72
     1
 10
3425.4481781830973
 20
191.40599999999972
 11
3420.5228856538442
 21
191.40599999999972
 72
     1
 10
3420.5228856538442
 20
191.40599999999972
 11
3420.5228856538442
 21
195.51041044104295
 72
     1
 10
3420.5228856538442
 20
195.51041044104295
 11
3416.7748852884256
 21
195.51041044104295
 72
     1
 10
3416.7748852884256
 20
195.51041044104295
 11
3416.7748852884256
 21
197.56261566156513
 72
     1
 10
3416.7748852884256
 20
197.56261566156513
 11
3430.6715068715057
 21
197.56261566156491
 72
     2
 10
3417.2393573010095
 20
191.40599999999904
 40
14.775877587758821
 50
24.624318
 51
91.80136
 73
     1
 72
     1
 10
3416.7748852884256
 20
206.17457556563704
 11
3416.7748852884256
 21
208.2297022879718
 72
     2
 10
3417.2393573010086
 20
183.6076201620142
 40
24.626462646264731
 50
268.919298
 51
304.301153
 73
     0
 72
     2
 10
3422.5592812586569
 20
191.40599999999881
 40
15.186318631863223
 50
304.301153
 51
0.0
 73
     0
 72
     1
 10
3437.7455998905202
 20
191.40599999999972
 11
3432.0152348887677
 21
191.40599999999972
 97
        0
 75
     0
 76
     1
 98
        1
 10
0.0
 20
0.0
  0
HATCH
  5
AD
100
AcDbEntity
  8
LAY-1
  6
CONTINUOUS
 62
     3
100
AcDbHatch
 10
0.0
 20
0.0
 30
0.0
210
0.0
220
0.0
230
1.0
  2
SOLID
 70
     1
 71
     1
 91
        1
 92
        1
 93
       19
 72
     2
 10
3417.2393573010086
 20
191.40599999999904
 40
14.775877587758849
 50
303.748989
 51
0.0
 73
     1
 72
     1
 10
3432.0152348887677
 20
191.40599999999972
 11
3437.7455998905202
 21
191.40599999999972
 72
     2
 10
3422.5592812586569
 20
191.40599999999881
 40
15.186318631863223
 50
0.0
 51
55.698847
 73
     0
 72
     2
 10
3417.2393573010095
 20
199.20437983798365
 40
24.626462646264777
 50
55.698847
 51
70.528779
 73
     0
 72
     1
 10
3425.4481781830973
 20
175.98632819290196
 11
3425.4481781830973
 21
174.57356257893252
 72
     2
 10
3427.5003834036193
 20
174.57356257893252
 40
2.052205220522064
 50
180.0
 51
245.380023
 73
     1
 72
     2
 10
3429.381260556544
 20
178.67797301997666
 40
6.567056705670594
 50
245.380023
 51
267.913343
 73
     1
 72
     1
 10
3429.1421475800371
 20
172.11527092709139
 11
3429.1421475800371
 21
170.88394779477812
 72
     1
 10
3429.1421475800371
 20
170.88394779477812
 11
3416.8289162569044
 21
170.88394779477812
 72
     1
 10
3416.8289162569044
 20
170.88394779477812
 11
3416.8289162569044
 21
172.11527092709139
 72
     2
 10
3416.5898032803971
 20
178.67797301997666
 40
6.567056705670594
 50
272.086657
 51
294.619977
 73
     1
 72
     2
 10
3418.4706804333218
 20
174.57356257893252
 40
2.052205220522064
 50
294.619977
 51
0.0
 73
     1
 72
     1
 10
3420.5228856538442
 20
174.57356257893252
 11
3420.5228856538442
 21
174.79780072447397
 72
     2
 10
3417.2393573010086
 20
199.20437983798342
 40
24.626462646264738
 50
82.337744
 51
91.080702
 73
     0
 72
     1
 10
3416.7748852884256
 20
174.58229771202605
 11
3416.7748852884256
 21
176.63742443436104
 72
     2
 10
3417.2393573010095
 20
191.40599999999904
 40
14.775877587758801
 50
268.19864
 51
282.839588
 73
     1
 72
     1
 10
3420.5228856538442
 20
176.99957781943795
 11
3420.5228856538442
 21
191.40599999999972
 72
     1
 10
3420.5228856538442
 20
191.40599999999972
 11
3425.4481781830973
 21
191.40599999999972
 72
     1
 10
3425.4481781830973
 20
191.40599999999972
 11
3425.4481781830973
 21
179.12016188393113
 97
        0
 75
     0
 76
     1
 98
        1
 10
0.0
 20
0.0
  0
TEXT
  5
AE
100
AcDbEntity
  8
LAY-1
  6
CONTINUOUS
 62
     3
100
AcDbText
 10
3331.808
 20
272.632
 30
0.0
 40
40.0
  1
電熱式ベーパライザー
 41
0.84
  7
EXCADSTD
 72
     5
 11
3731.808
 21
272.632
 31
0.0
100
AcDbText
  0
LINE
  5
AF
100
AcDbEntity
  8
LAY-1
  6
EXLTYPE3
 62
     1
100
AcDbLine
 10
2652.5
 20
1403.0
 30
0.0
 11
2652.5
 21
563.0
 31
0.0
  0
LINE
  5
B0
100
AcDbEntity
  8
LAY-1
  6
EXLTYPE3
 62
     1
100
AcDbLine
 10
2372.5
 20
627.5
 30
0.0
 11
2372.5
 21
603.0
 31
0.0
  0
LINE
  5
B1
100
AcDbEntity
  8
LAY-1
  6
EXLTYPE3
 62
     1
100
AcDbLine
 10
2932.5
 20
627.5
 30
0.0
 11
2932.5
 21
603.0
 31
0.0
  0
LINE
  5
B2
100
AcDbEntity
  8
LAY-1
  6
CONTINUOUS
 62
     2
100
AcDbLine
 10
2420.242987
 20
1370.178734
 30
0.0
 11
2432.757013
 21
1370.178734
 31
0.0
  0
ARC
  5
B3
100
AcDbEntity
  8
LAY-1
  6
CONTINUOUS
 62
     2
100
AcDbCircle
 10
2426.5
 20
1381.0
 30
0.0
 40
12.5
100
AcDbArc
 50
300.037123
 51
239.962877
  0
ARC
  5
B4
100
AcDbEntity
  8
LAY-1
  6
CONTINUOUS
 62
     2
100
AcDbCircle
 10
2426.5
 20
1381.0
 30
0.0
 40
20.5
100
AcDbArc
 50
295.233094
 51
244.766906
  0
LINE
  5
B5
100
AcDbEntity
  8
LAY-1
  6
CONTINUOUS
 62
     2
100
AcDbLine
 10
2434.5
 20
1368.0
 30
0.0
 11
2418.5
 21
1368.0
 31
0.0
  0
LINE
  5
B6
100
AcDbEntity
  8
LAY-1
  6
CONTINUOUS
 62
     2
100
AcDbLine
 10
2418.5
 20
1368.0
 30
0.0
 11
2416.5
 21
1353.0
 31
0.0
  0
LINE
  5
B7
100
AcDbEntity
  8
LAY-1
  6
CONTINUOUS
 62
     2
100
AcDbLine
 10
2420.242987
 20
1370.178734
 30
0.0
 11
2418.5
 21
1368.0
 31
0.0
  0
LINE
  5
B8
100
AcDbEntity
  8
LAY-1
  6
CONTINUOUS
 62
     2
100
AcDbLine
 10
2442.5
 20
671.0
 30
0.0
 11
2442.5
 21
617.5
 31
0.0
  0
LINE
  5
B9
100
AcDbEntity
  8
LAY-1
  6
CONTINUOUS
 62
     2
100
AcDbLine
 10
2862.5
 20
671.0
 30
0.0
 11
2862.5
 21
617.5
 31
0.0
  0
LINE
  5
BA
100
AcDbEntity
  8
LAY-1
  6
CONTINUOUS
 62
     2
100
AcDbLine
 10
2952.5
 20
617.5
 30
0.0
 11
2352.5
 21
617.5
 31
0.0
  0
LINE
  5
BB
100
AcDbEntity
  8
LAY-1
  6
CONTINUOUS
 62
     2
100
AcDbLine
 10
2352.5
 20
617.5
 30
0.0
 11
2352.5
 21
613.0
 31
0.0
  0
LINE
  5
BC
100
AcDbEntity
  8
LAY-1
  6
CONTINUOUS
 62
     2
100
AcDbLine
 10
2952.5
 20
617.5
 30
0.0
 11
2952.5
 21
613.0
 31
0.0
  0
LINE
  5
BD
100
AcDbEntity
  8
LAY-1
  6
CONTINUOUS
 62
     2
100
AcDbLine
 10
2952.5
 20
613.0
 30
0.0
 11
2352.5
 21
613.0
 31
0.0
  0
LINE
  5
BE
100
AcDbEntity
  8
LAY-1
  6
CONTINUOUS
 62
     2
100
AcDbLine
 10
2412.5
 20
1053.0
 30
0.0
 11
2412.5
 21
671.0
 31
0.0
  0
LINE
  5
BF
100
AcDbEntity
  8
LAY-1
  6
CONTINUOUS
 62
     2
100
AcDbLine
 10
2892.5
 20
1053.0
 30
0.0
 11
2892.5
 21
671.0
 31
0.0
  0
LINE
  5
C0
100
AcDbEntity
  8
LAY-1
  6
CONTINUOUS
 62
     2
100
AcDbLine
 10
2892.5
 20
671.0
 30
0.0
 11
2412.5
 21
671.0
 31
0.0
  0
LINE
  5
C1
100
AcDbEntity
  8
LAY-1
  6
CONTINUOUS
 62
     2
100
AcDbLine
 10
2896.5
 20
1053.0
 30
0.0
 11
2408.5
 21
1053.0
 31
0.0
  0
LINE
  5
C2
100
AcDbEntity
  8
LAY-1
  6
CONTINUOUS
 62
     2
100
AcDbLine
 10
2408.5
 20
1353.0
 30
0.0
 11
2408.5
 21
1053.0
 31
0.0
  0
LINE
  5
C3
100
AcDbEntity
  8
LAY-1
  6
CONTINUOUS
 62
     2
100
AcDbLine
 10
2896.5
 20
1353.0
 30
0.0
 11
2896.5
 21
1053.0
 31
0.0
  0
LINE
  5
C4
100
AcDbEntity
  8
LAY-1
  6
CONTINUOUS
 62
     2
100
AcDbLine
 10
2496.65
 20
1595.521447
 30
0.0
 11
2528.35
 21
1595.521447
 31
0.0
  0
LINE
  5
C5
100
AcDbEntity
  8
LAY-1
  6
CONTINUOUS
 62
     2
100
AcDbLine
 10
2496.65
 20
1630.521447
 30
0.0
 11
2528.35
 21
1630.521447
 31
0.0
  0
LINE
  5
C6
100
AcDbEntity
  8
LAY-1
  6
CONTINUOUS
 62
     2
100
AcDbLine
 10
2528.35
 20
1630.521447
 30
0.0
 11
2528.35
 21
1595.521447
 31
0.0
  0
LINE
  5
C7
100
AcDbEntity
  8
LAY-1
  6
CONTINUOUS
 62
     2
100
AcDbLine
 10
2496.65
 20
1630.521447
 30
0.0
 11
2496.65
 21
1595.521447
 31
0.0
  0
LINE
  5
C8
100
AcDbEntity
  8
LAY-1
  6
CONTINUOUS
 62
     2
100
AcDbLine
 10
2434.5
 20
1368.0
 30
0.0
 11
2436.5
 21
1353.0
 31
0.0
  0
LINE
  5
C9
100
AcDbEntity
  8
LAY-1
  6
CONTINUOUS
 62
     2
100
AcDbLine
 10
2432.757013
 20
1370.178734
 30
0.0
 11
2434.5
 21
1368.0
 31
0.0
  0
LINE
  5
CA
100
AcDbEntity
  8
LAY-1
  6
CONTINUOUS
 62
     2
100
AcDbLine
 10
2523.35
 20
1595.521447
 30
0.0
 11
2523.35
 21
1353.0
 31
0.0
  0
LINE
  5
CB
100
AcDbEntity
  8
LAY-1
  6
CONTINUOUS
 62
     2
100
AcDbLine
 10
2501.65
 20
1595.521447
 30
0.0
 11
2501.65
 21
1353.0
 31
0.0
  0
CIRCLE
  5
CC
100
AcDbEntity
  8
LAY-1
  6
CONTINUOUS
 62
     2
100
AcDbCircle
 10
2565.69392
 20
1141.75
 30
0.0
 40
1.5
  0
CIRCLE
  5
CD
100
AcDbEntity
  8
LAY-1
  6
CONTINUOUS
 62
     2
100
AcDbCircle
 10
2639.30608
 20
1141.75
 30
0.0
 40
1.5
  0
CIRCLE
  5
CE
100
AcDbEntity
  8
LAY-1
  6
CONTINUOUS
 62
     2
100
AcDbCircle
 10
2602.5
 20
1205.5
 30
0.0
 40
1.5
  0
CIRCLE
  5
CF
100
AcDbEntity
  8
LAY-1
  6
CONTINUOUS
 62
     2
100
AcDbCircle
 10
2602.5
 20
1163.0
 30
0.0
 40
47.5
  0
CIRCLE
  5
D0
100
AcDbEntity
  8
LAY-1
  6
CONTINUOUS
 62
     2
100
AcDbCircle
 10
2602.5
 20
1163.0
 30
0.0
 40
35.5
  0
CIRCLE
  5
D1
100
AcDbEntity
  8
LAY-1
  6
CONTINUOUS
 62
     2
100
AcDbCircle
 10
2602.5
 20
1163.0
 30
0.0
 40
37.5
  0
CIRCLE
  5
D2
100
AcDbEntity
  8
LAY-1
  6
CONTINUOUS
 62
     2
100
AcDbCircle
 10
2739.30608
 20
1141.75
 30
0.0
 40
1.5
  0
CIRCLE
  5
D3
100
AcDbEntity
  8
LAY-1
  6
CONTINUOUS
 62
     2
100
AcDbCircle
 10
2702.5
 20
1205.5
 30
0.0
 40
1.5
  0
CIRCLE
  5
D4
100
AcDbEntity
  8
LAY-1
  6
CONTINUOUS
 62
     2
100
AcDbCircle
 10
2702.5
 20
1163.0
 30
0.0
 40
35.5
  0
CIRCLE
  5
D5
100
AcDbEntity
  8
LAY-1
  6
CONTINUOUS
 62
     2
100
AcDbCircle
 10
2702.5
 20
1163.0
 30
0.0
 40
47.5
  0
CIRCLE
  5
D6
100
AcDbEntity
  8
LAY-1
  6
CONTINUOUS
 62
     2
100
AcDbCircle
 10
2702.5
 20
1163.0
 30
0.0
 40
37.5
  0
ARC
  5
D7
100
AcDbEntity
  8
LAY-1
  6
CONTINUOUS
 62
     2
100
AcDbCircle
 10
2562.5
 20
1200.5
 30
0.0
 40
15.0
100
AcDbArc
 50
90.0
 51
180.0
  0
ARC
  5
D8
100
AcDbEntity
  8
LAY-1
  6
CONTINUOUS
 62
     2
100
AcDbCircle
 10
2562.5
 20
1125.5
 30
0.0
 40
15.0
100
AcDbArc
 50
180.0
 51
270.0
  0
ARC
  5
D9
100
AcDbEntity
  8
LAY-1
  6
CONTINUOUS
 62
     2
100
AcDbCircle
 10
2742.5
 20
1125.5
 30
0.0
 40
15.0
100
AcDbArc
 50
270.0
 51
0.0
  0
ARC
  5
DA
100
AcDbEntity
  8
LAY-1
  6
CONTINUOUS
 62
     2
100
AcDbCircle
 10
2742.5
 20
1200.5
 30
0.0
 40
15.0
100
AcDbArc
 50
0.0
 51
90.0
  0
LINE
  5
DB
100
AcDbEntity
  8
LAY-1
  6
CONTINUOUS
 62
     2
100
AcDbLine
 10
2547.5
 20
1200.5
 30
0.0
 11
2547.5
 21
1125.5
 31
0.0
  0
LINE
  5
DC
100
AcDbEntity
  8
LAY-1
  6
CONTINUOUS
 62
     2
100
AcDbLine
 10
2757.5
 20
1200.5
 30
0.0
 11
2757.5
 21
1125.5
 31
0.0
  0
LINE
  5
DD
100
AcDbEntity
  8
LAY-1
  6
CONTINUOUS
 62
     2
100
AcDbLine
 10
2742.5
 20
1215.5
 30
0.0
 11
2562.5
 21
1215.5
 31
0.0
  0
LINE
  5
DE
100
AcDbEntity
  8
LAY-1
  6
CONTINUOUS
 62
     2
100
AcDbLine
 10
2742.5
 20
1110.5
 30
0.0
 11
2562.5
 21
1110.5
 31
0.0
  0
POLYLINE
  5
DF
100
AcDbEntity
  8
LAY-1
  6
CONTINUOUS
 62
     2
100
AcDb2dPolyline
 66
     1
 10
0.0
 20
0.0
 30
0.0
 70
   128
  0
VERTEX
  5
E0
100
AcDbEntity
  8
LAY-1
  6
CONTINUOUS
 62
     2
100
AcDbVertex
100
AcDb2dVertex
 10
2601.907001
 20
1161.089934
 30
0.0
  0
VERTEX
  5
E1
100
AcDbEntity
  8
LAY-1
  6
CONTINUOUS
 62
     2
100
AcDbVertex
100
AcDb2dVertex
 10
2584.468777
 20
1144.968777
 30
0.0
  0
SEQEND
  5
E2
100
AcDbEntity
  8
LAY-1
  6
CONTINUOUS
 62
     2
  0
ARC
  5
E3
100
AcDbEntity
  8
LAY-1
  6
CONTINUOUS
 62
     2
100
AcDbCircle
 10
2602.5
 20
1163.0
 30
0.0
 40
2.0
100
AcDbArc
 50
252.75253
 51
7.896801
  0
POLYLINE
  5
E4
100
AcDbEntity
  8
LAY-1
  6
CONTINUOUS
 62
     2
100
AcDb2dPolyline
 66
     1
 10
0.0
 20
0.0
 30
0.0
 70
   128
  0
VERTEX
  5
E5
100
AcDbEntity
  8
LAY-1
  6
CONTINUOUS
 62
     2
100
AcDbVertex
100
AcDb2dVertex
 10
2618.223453
 20
1173.971727
 30
0.0
  0
VERTEX
  5
E6
100
AcDbEntity
  8
LAY-1
  6
CONTINUOUS
 62
     2
100
AcDbVertex
100
AcDb2dVertex
 10
2604.481034
 20
1163.274778
 30
0.0
  0
SEQEND
  5
E7
100
AcDbEntity
  8
LAY-1
  6
CONTINUOUS
 62
     2
  0
ARC
  5
E8
100
AcDbEntity
  8
LAY-1
  6
CONTINUOUS
 62
     2
100
AcDbCircle
 10
2617.609212
 20
1174.760846
 30
0.0
 40
1.0
100
AcDbArc
 50
307.896801
 51
45.0
  0
POLYLINE
  5
E9
100
AcDbEntity
  8
LAY-1
  6
CONTINUOUS
 62
     2
100
AcDb2dPolyline
 66
     1
 10
0.0
 20
0.0
 30
0.0
 70
   128
  0
VERTEX
  5
EA
100
AcDbEntity
  8
LAY-1
  6
CONTINUOUS
 62
     2
100
AcDbVertex
100
AcDb2dVertex
 10
2614.967953
 20
1178.816319
 30
0.0
  0
VERTEX
  5
EB
100
AcDbEntity
  8
LAY-1
  6
CONTINUOUS
 62
     2
100
AcDbVertex
100
AcDb2dVertex
 10
2618.316319
 20
1175.467953
 30
0.0
  0
SEQEND
  5
EC
100
AcDbEntity
  8
LAY-1
  6
CONTINUOUS
 62
     2
  0
ARC
  5
ED
100
AcDbEntity
  8
LAY-1
  6
CONTINUOUS
 62
     2
100
AcDbCircle
 10
2614.260846
 20
1178.109212
 30
0.0
 40
1.0
100
AcDbArc
 50
45.0
 51
142.103199
  0
POLYLINE
  5
EE
100
AcDbEntity
  8
LAY-1
  6
CONTINUOUS
 62
     2
100
AcDb2dPolyline
 66
     1
 10
0.0
 20
0.0
 30
0.0
 70
   128
  0
VERTEX
  5
EF
100
AcDbEntity
  8
LAY-1
  6
CONTINUOUS
 62
     2
100
AcDbVertex
100
AcDb2dVertex
 10
2602.774778
 20
1164.981034
 30
0.0
  0
VERTEX
  5
F0
100
AcDbEntity
  8
LAY-1
  6
CONTINUOUS
 62
     2
100
AcDbVertex
100
AcDb2dVertex
 10
2613.471727
 20
1178.723453
 30
0.0
  0
SEQEND
  5
F1
100
AcDbEntity
  8
LAY-1
  6
CONTINUOUS
 62
     2
  0
ARC
  5
F2
100
AcDbEntity
  8
LAY-1
  6
CONTINUOUS
 62
     2
100
AcDbCircle
 10
2602.5
 20
1163.0
 30
0.0
 40
2.0
100
AcDbArc
 50
82.103199
 51
197.24747
  0
POLYLINE
  5
F3
100
AcDbEntity
  8
LAY-1
  6
CONTINUOUS
 62
     2
100
AcDb2dPolyline
 66
     1
 10
0.0
 20
0.0
 30
0.0
 70
   128
  0
VERTEX
  5
F4
100
AcDbEntity
  8
LAY-1
  6
CONTINUOUS
 62
     2
100
AcDbVertex
100
AcDb2dVertex
 10
2584.468777
 20
1144.968777
 30
0.0
  0
VERTEX
  5
F5
100
AcDbEntity
  8
LAY-1
  6
CONTINUOUS
 62
     2
100
AcDbVertex
100
AcDb2dVertex
 10
2600.589934
 20
1162.407001
 30
0.0
  0
SEQEND
  5
F6
100
AcDbEntity
  8
LAY-1
  6
CONTINUOUS
 62
     2
  0
CIRCLE
  5
F7
100
AcDbEntity
  8
LAY-1
  6
CONTINUOUS
 62
     2
100
AcDbCircle
 10
2602.5
 20
1163.0
 30
0.0
 40
1.0
  0
LINE
  5
F8
100
AcDbEntity
  8
LAY-1
  6
CONTINUOUS
 62
     2
100
AcDbLine
 10
2620.531223
 20
1181.031223
 30
0.0
 11
2624.066757
 21
1184.566757
 31
0.0
  0
LINE
  5
F9
100
AcDbEntity
  8
LAY-1
  6
CONTINUOUS
 62
     2
100
AcDbLine
 10
2584.468777
 20
1181.031223
 30
0.0
 11
2580.933243
 21
1184.566757
 31
0.0
  0
LINE
  5
FA
100
AcDbEntity
  8
LAY-1
  6
CONTINUOUS
 62
     2
100
AcDbLine
 10
2620.531223
 20
1144.968777
 30
0.0
 11
2624.066757
 21
1141.433243
 31
0.0
  0
LINE
  5
FB
100
AcDbEntity
  8
LAY-1
  6
CONTINUOUS
 62
     2
100
AcDbLine
 10
2584.468777
 20
1144.968777
 30
0.0
 11
2580.933243
 21
1141.433243
 31
0.0
  0
ARC
  5
FC
100
AcDbEntity
  8
LAY-1
  6
CONTINUOUS
 62
     2
100
AcDbCircle
 10
2602.5
 20
1163.0
 30
0.0
 40
25.5
100
AcDbArc
 50
315.0
 51
225.0
  0
ARC
  5
FD
100
AcDbEntity
  8
LAY-1
  6
CONTINUOUS
 62
     2
100
AcDbCircle
 10
2602.5
 20
1163.0
 30
0.0
 40
30.5
100
AcDbArc
 50
315.0
 51
225.0
  0
POLYLINE
  5
FE
100
AcDbEntity
  8
LAY-1
  6
CONTINUOUS
 62
     2
100
AcDb2dPolyline
 66
     1
 10
0.0
 20
0.0
 30
0.0
 70
   128
  0
VERTEX
  5
FF
100
AcDbEntity
  8
LAY-1
  6
CONTINUOUS
 62
     2
100
AcDbVertex
100
AcDb2dVertex
 10
2701.907001
 20
1161.089934
 30
0.0
  0
VERTEX
  5
100
100
AcDbEntity
  8
LAY-1
  6
CONTINUOUS
 62
     2
100
AcDbVertex
100
AcDb2dVertex
 10
2684.468777
 20
1144.968777
 30
0.0
  0
SEQEND
  5
101
100
AcDbEntity
  8
LAY-1
  6
CONTINUOUS
 62
     2
  0
ARC
  5
102
100
AcDbEntity
  8
LAY-1
  6
CONTINUOUS
 62
     2
100
AcDbCircle
 10
2702.5
 20
1163.0
 30
0.0
 40
2.0
100
AcDbArc
 50
252.75253
 51
7.896801
  0
POLYLINE
  5
103
100
AcDbEntity
  8
LAY-1
  6
CONTINUOUS
 62
     2
100
AcDb2dPolyline
 66
     1
 10
0.0
 20
0.0
 30
0.0
 70
   128
  0
VERTEX
  5
104
100
AcDbEntity
  8
LAY-1
  6
CONTINUOUS
 62
     2
100
AcDbVertex
100
AcDb2dVertex
 10
2718.223453
 20
1173.971727
 30
0.0
  0
VERTEX
  5
105
100
AcDbEntity
  8
LAY-1
  6
CONTINUOUS
 62
     2
100
AcDbVertex
100
AcDb2dVertex
 10
2704.481034
 20
1163.274778
 30
0.0
  0
SEQEND
  5
106
100
AcDbEntity
  8
LAY-1
  6
CONTINUOUS
 62
     2
  0
ARC
  5
107
100
AcDbEntity
  8
LAY-1
  6
CONTINUOUS
 62
     2
100
AcDbCircle
 10
2717.609212
 20
1174.760846
 30
0.0
 40
1.0
100
AcDbArc
 50
307.896801
 51
45.0
  0
POLYLINE
  5
108
100
AcDbEntity
  8
LAY-1
  6
CONTINUOUS
 62
     2
100
AcDb2dPolyline
 66
     1
 10
0.0
 20
0.0
 30
0.0
 70
   128
  0
VERTEX
  5
109
100
AcDbEntity
  8
LAY-1
  6
CONTINUOUS
 62
     2
100
AcDbVertex
100
AcDb2dVertex
 10
2714.967953
 20
1178.816319
 30
0.0
  0
VERTEX
  5
10A
100
AcDbEntity
  8
LAY-1
  6
CONTINUOUS
 62
     2
100
AcDbVertex
100
AcDb2dVertex
 10
2718.316319
 20
1175.467953
 30
0.0
  0
SEQEND
  5
10B
100
AcDbEntity
  8
LAY-1
  6
CONTINUOUS
 62
     2
  0
ARC
  5
10C
100
AcDbEntity
  8
LAY-1
  6
CONTINUOUS
 62
     2
100
AcDbCircle
 10
2714.260846
 20
1178.109212
 30
0.0
 40
1.0
100
AcDbArc
 50
45.0
 51
142.103199
  0
POLYLINE
  5
10D
100
AcDbEntity
  8
LAY-1
  6
CONTINUOUS
 62
     2
100
AcDb2dPolyline
 66
     1
 10
0.0
 20
0.0
 30
0.0
 70
   128
  0
VERTEX
  5
10E
100
AcDbEntity
  8
LAY-1
  6
CONTINUOUS
 62
     2
100
AcDbVertex
100
AcDb2dVertex
 10
2702.774778
 20
1164.981034
 30
0.0
  0
VERTEX
  5
10F
100
AcDbEntity
  8
LAY-1
  6
CONTINUOUS
 62
     2
100
AcDbVertex
100
AcDb2dVertex
 10
2713.471727
 20
1178.723453
 30
0.0
  0
SEQEND
  5
110
100
AcDbEntity
  8
LAY-1
  6
CONTINUOUS
 62
     2
  0
ARC
  5
111
100
AcDbEntity
  8
LAY-1
  6
CONTINUOUS
 62
     2
100
AcDbCircle
 10
2702.5
 20
1163.0
 30
0.0
 40
2.0
100
AcDbArc
 50
82.103199
 51
197.24747
  0
POLYLINE
  5
112
100
AcDbEntity
  8
LAY-1
  6
CONTINUOUS
 62
     2
100
AcDb2dPolyline
 66
     1
 10
0.0
 20
0.0
 30
0.0
 70
   128
  0
VERTEX
  5
113
100
AcDbEntity
  8
LAY-1
  6
CONTINUOUS
 62
     2
100
AcDbVertex
100
AcDb2dVertex
 10
2684.468777
 20
1144.968777
 30
0.0
  0
VERTEX
  5
114
100
AcDbEntity
  8
LAY-1
  6
CONTINUOUS
 62
     2
100
AcDbVertex
100
AcDb2dVertex
 10
2700.589934
 20
1162.407001
 30
0.0
  0
SEQEND
  5
115
100
AcDbEntity
  8
LAY-1
  6
CONTINUOUS
 62
     2
  0
CIRCLE
  5
116
100
AcDbEntity
  8
LAY-1
  6
CONTINUOUS
 62
     2
100
AcDbCircle
 10
2702.5
 20
1163.0
 30
0.0
 40
1.0
  0
LINE
  5
117
100
AcDbEntity
  8
LAY-1
  6
CONTINUOUS
 62
     2
100
AcDbLine
 10
2684.468777
 20
1181.031223
 30
0.0
 11
2680.933243
 21
1184.566757
 31
0.0
  0
LINE
  5
118
100
AcDbEntity
  8
LAY-1
  6
CONTINUOUS
 62
     2
100
AcDbLine
 10
2720.531223
 20
1181.031223
 30
0.0
 11
2724.066757
 21
1184.566757
 31
0.0
  0
LINE
  5
119
100
AcDbEntity
  8
LAY-1
  6
CONTINUOUS
 62
     2
100
AcDbLine
 10
2684.468777
 20
1144.968777
 30
0.0
 11
2680.933243
 21
1141.433243
 31
0.0
  0
LINE
  5
11A
100
AcDbEntity
  8
LAY-1
  6
CONTINUOUS
 62
     2
100
AcDbLine
 10
2720.531223
 20
1144.968777
 30
0.0
 11
2724.066757
 21
1141.433243
 31
0.0
  0
ARC
  5
11B
100
AcDbEntity
  8
LAY-1
  6
CONTINUOUS
 62
     2
100
AcDbCircle
 10
2702.5
 20
1163.0
 30
0.0
 40
25.5
100
AcDbArc
 50
315.0
 51
225.0
  0
ARC
  5
11C
100
AcDbEntity
  8
LAY-1
  6
CONTINUOUS
 62
     2
100
AcDbCircle
 10
2702.5
 20
1163.0
 30
0.0
 40
30.5
100
AcDbArc
 50
315.0
 51
225.0
  0
ARC
  5
11D
100
AcDbEntity
  8
LAY-1
  6
CONTINUOUS
 62
     2
100
AcDbCircle
 10
2379.4905
 20
1155.607714
 30
0.0
 40
3.896364
100
AcDbArc
 50
312.232219
 51
58.953252
  0
ARC
  5
11E
100
AcDbEntity
  8
LAY-1
  6
CONTINUOUS
 62
     2
100
AcDbCircle
 10
2369.065435
 20
1142.283674
 30
0.0
 40
15.065629
100
AcDbArc
 50
328.353731
 51
32.377391
  0
ARC
  5
11F
100
AcDbEntity
  8
LAY-1
  6
CONTINUOUS
 62
     2
100
AcDbCircle
 10
2369.065435
 20
1123.716326
 30
0.0
 40
15.065629
100
AcDbArc
 50
327.622609
 51
31.646269
  0
ARC
  5
120
100
AcDbEntity
  8
LAY-1
  6
CONTINUOUS
 62
     2
100
AcDbCircle
 10
2379.4905
 20
1110.392286
 30
0.0
 40
3.896364
100
AcDbArc
 50
301.046748
 51
47.767781
  0
ARC
  5
121
100
AcDbEntity
  8
LAY-1
  6
CONTINUOUS
 62
     2
100
AcDbCircle
 10
2430.75
 20
1133.0
 30
0.0
 40
36.25
100
AcDbArc
 50
170.472717
 51
189.527283
  0
ARC
  5
122
100
AcDbEntity
  8
LAY-1
  6
CONTINUOUS
 62
     2
100
AcDbCircle
 10
2402.3125
 20
1141.75
 30
0.0
 40
7.8125
100
AcDbArc
 50
159.390307
 51
200.609693
  0
LINE
  5
123
100
AcDbEntity
  8
LAY-1
  6
CONTINUOUS
 62
     2
100
AcDbLine
 10
2395.0
 20
1127.0
 30
0.0
 11
2400.5
 21
1127.0
 31
0.0
  0
LINE
  5
124
100
AcDbEntity
  8
LAY-1
  6
CONTINUOUS
 62
     2
100
AcDbLine
 10
2395.0
 20
1139.0
 30
0.0
 11
2400.5
 21
1139.0
 31
0.0
  0
LINE
  5
125
100
AcDbEntity
  8
LAY-1
  6
CONTINUOUS
 62
     2
100
AcDbLine
 10
2395.0
 20
1144.5
 30
0.0
 11
2400.5
 21
1144.5
 31
0.0
  0
LINE
  5
126
100
AcDbEntity
  8
LAY-1
  6
CONTINUOUS
 62
     2
100
AcDbLine
 10
2394.5
 20
1124.25
 30
0.0
 11
2394.5
 21
1141.75
 31
0.0
  0
LINE
  5
127
100
AcDbEntity
  8
LAY-1
  6
CONTINUOUS
 62
     2
100
AcDbLine
 10
2391.5
 20
1136.0
 30
0.0
 11
2394.5
 21
1136.0
 31
0.0
  0
LINE
  5
128
100
AcDbEntity
  8
LAY-1
  6
CONTINUOUS
 62
     2
100
AcDbLine
 10
2391.5
 20
1130.0
 30
0.0
 11
2394.5
 21
1130.0
 31
0.0
  0
LINE
  5
129
100
AcDbEntity
  8
LAY-1
  6
CONTINUOUS
 62
     2
100
AcDbLine
 10
2400.5
 20
1124.5
 30
0.0
 11
2401.5
 21
1124.5
 31
0.0
  0
LINE
  5
12A
100
AcDbEntity
  8
LAY-1
  6
CONTINUOUS
 62
     2
100
AcDbLine
 10
2400.5
 20
1141.5
 30
0.0
 11
2401.5
 21
1141.5
 31
0.0
  0
LINE
  5
12B
100
AcDbEntity
  8
LAY-1
  6
CONTINUOUS
 62
     2
100
AcDbLine
 10
2401.5
 20
1146.0
 30
0.0
 11
2408.5
 21
1146.0
 31
0.0
  0
LINE
  5
12C
100
AcDbEntity
  8
LAY-1
  6
CONTINUOUS
 62
     2
100
AcDbLine
 10
2384.128562
 20
1130.371438
 30
0.0
 11
2391.5
 21
1130.371438
 31
0.0
  0
LINE
  5
12D
100
AcDbEntity
  8
LAY-1
  6
CONTINUOUS
 62
     2
100
AcDbLine
 10
2384.128562
 20
1135.628562
 30
0.0
 11
2391.5
 21
1135.628562
 31
0.0
  0
ARC
  5
12E
100
AcDbEntity
  8
LAY-1
  6
CONTINUOUS
 62
     2
100
AcDbCircle
 10
2384.128562
 20
1133.0
 30
0.0
 40
2.628562
100
AcDbArc
 50
90.0
 51
270.0
  0
LINE
  5
12F
100
AcDbEntity
  8
LAY-1
  6
CONTINUOUS
 62
     2
100
AcDbLine
 10
2383.054089
 20
1160.5
 30
0.0
 11
2391.0
 21
1160.5
 31
0.0
  0
ARC
  5
130
100
AcDbEntity
  8
LAY-1
  6
CONTINUOUS
 62
     2
100
AcDbCircle
 10
2383.054089
 20
1158.945911
 30
0.0
 40
1.554089
100
AcDbArc
 50
90.0
 51
180.0
  0
LINE
  5
131
100
AcDbEntity
  8
LAY-1
  6
CONTINUOUS
 62
     2
100
AcDbLine
 10
2381.5
 20
1158.945911
 30
0.0
 11
2391.5
 21
1158.945911
 31
0.0
  0
LINE
  5
132
100
AcDbEntity
  8
LAY-1
  6
CONTINUOUS
 62
     2
100
AcDbLine
 10
2383.358674
 20
1149.487855
 30
0.0
 11
2391.5
 21
1149.487855
 31
0.0
  0
LINE
  5
133
100
AcDbEntity
  8
LAY-1
  6
CONTINUOUS
 62
     2
100
AcDbLine
 10
2383.358674
 20
1153.205204
 30
0.0
 11
2391.5
 21
1153.205204
 31
0.0
  0
ARC
  5
134
100
AcDbEntity
  8
LAY-1
  6
CONTINUOUS
 62
     2
100
AcDbCircle
 10
2383.358674
 20
1151.34653
 30
0.0
 40
1.858674
100
AcDbArc
 50
90.0
 51
270.0
  0
ARC
  5
135
100
AcDbEntity
  8
LAY-1
  6
CONTINUOUS
 62
     2
100
AcDbCircle
 10
2391.0
 20
1160.0
 30
0.0
 40
0.5
100
AcDbArc
 50
0.0
 51
90.0
  0
LINE
  5
136
100
AcDbEntity
  8
LAY-1
  6
CONTINUOUS
 62
     2
100
AcDbLine
 10
2395.0
 20
1121.5
 30
0.0
 11
2400.5
 21
1121.5
 31
0.0
  0
LINE
  5
137
100
AcDbEntity
  8
LAY-1
  6
CONTINUOUS
 62
     2
100
AcDbLine
 10
2401.5
 20
1120.0
 30
0.0
 11
2408.5
 21
1120.0
 31
0.0
  0
LINE
  5
138
100
AcDbEntity
  8
LAY-1
  6
CONTINUOUS
 62
     2
100
AcDbLine
 10
2383.054089
 20
1105.5
 30
0.0
 11
2391.0
 21
1105.5
 31
0.0
  0
LINE
  5
139
100
AcDbEntity
  8
LAY-1
  6
CONTINUOUS
 62
     2
100
AcDbLine
 10
2383.358674
 20
1116.512145
 30
0.0
 11
2391.5
 21
1116.512145
 31
0.0
  0
LINE
  5
13A
100
AcDbEntity
  8
LAY-1
  6
CONTINUOUS
 62
     2
100
AcDbLine
 10
2383.358674
 20
1112.794796
 30
0.0
 11
2391.5
 21
1112.794796
 31
0.0
  0
LINE
  5
13B
100
AcDbEntity
  8
LAY-1
  6
CONTINUOUS
 62
     2
100
AcDbLine
 10
2381.5
 20
1107.054089
 30
0.0
 11
2391.5
 21
1107.054089
 31
0.0
  0
ARC
  5
13C
100
AcDbEntity
  8
LAY-1
  6
CONTINUOUS
 62
     2
100
AcDbCircle
 10
2383.358674
 20
1114.65347
 30
0.0
 40
1.858674
100
AcDbArc
 50
90.0
 51
270.0
  0
ARC
  5
13D
100
AcDbEntity
  8
LAY-1
  6
CONTINUOUS
 62
     2
100
AcDbCircle
 10
2383.054089
 20
1107.054089
 30
0.0
 40
1.554089
100
AcDbArc
 50
180.0
 51
270.0
  0
ARC
  5
13E
100
AcDbEntity
  8
LAY-1
  6
CONTINUOUS
 62
     2
100
AcDbCircle
 10
2391.0
 20
1106.0
 30
0.0
 40
0.5
100
AcDbArc
 50
270.0
 51
0.0
  0
LINE
  5
13F
100
AcDbEntity
  8
LAY-1
  6
CONTINUOUS
 62
     2
100
AcDbLine
 10
2400.5
 20
1121.5
 30
0.0
 11
2400.5
 21
1144.5
 31
0.0
  0
ARC
  5
140
100
AcDbEntity
  8
LAY-1
  6
CONTINUOUS
 62
     2
100
AcDbCircle
 10
2402.3125
 20
1124.25
 30
0.0
 40
7.8125
100
AcDbArc
 50
159.390307
 51
200.609693
  0
LINE
  5
141
100
AcDbEntity
  8
LAY-1
  6
CONTINUOUS
 62
     2
100
AcDbLine
 10
2401.5
 20
1120.0
 30
0.0
 11
2401.5
 21
1146.0
 31
0.0
  0
LINE
  5
142
100
AcDbEntity
  8
LAY-1
  6
CONTINUOUS
 62
     2
100
AcDbLine
 10
2381.5
 20
1107.054089
 30
0.0
 11
2381.5
 21
1158.945911
 31
0.0
  0
LINE
  5
143
100
AcDbEntity
  8
LAY-1
  6
CONTINUOUS
 62
     2
100
AcDbLine
 10
2391.5
 20
1106.0
 30
0.0
 11
2391.5
 21
1160.0
 31
0.0
  0
ARC
  5
144
100
AcDbEntity
  8
LAY-1
  6
CONTINUOUS
 62
     2
100
AcDbCircle
 10
2517.5
 20
1150.0
 30
0.0
 40
4.0
100
AcDbArc
 50
0.0
 51
180.0
  0
ARC
  5
145
100
AcDbEntity
  8
LAY-1
  6
CONTINUOUS
 62
     2
100
AcDbCircle
 10
2517.5
 20
1112.0
 30
0.0
 40
4.0
100
AcDbArc
 50
180.0
 51
0.0
  0
LINE
  5
146
100
AcDbEntity
  8
LAY-1
  6
CONTINUOUS
 62
     2
100
AcDbLine
 10
2513.5
 20
1150.0
 30
0.0
 11
2513.5
 21
1112.0
 31
0.0
  0
LINE
  5
147
100
AcDbEntity
  8
LAY-1
  6
CONTINUOUS
 62
     2
100
AcDbLine
 10
2521.5
 20
1150.0
 30
0.0
 11
2521.5
 21
1112.0
 31
0.0
  0
ARC
  5
148
100
AcDbEntity
  8
LAY-1
  6
CONTINUOUS
 62
     2
100
AcDbCircle
 10
2517.5
 20
1230.0
 30
0.0
 40
4.0
100
AcDbArc
 50
0.0
 51
180.0
  0
ARC
  5
149
100
AcDbEntity
  8
LAY-1
  6
CONTINUOUS
 62
     2
100
AcDbCircle
 10
2517.5
 20
1192.0
 30
0.0
 40
4.0
100
AcDbArc
 50
180.0
 51
0.0
  0
LINE
  5
14A
100
AcDbEntity
  8
LAY-1
  6
CONTINUOUS
 62
     2
100
AcDbLine
 10
2513.5
 20
1230.0
 30
0.0
 11
2513.5
 21
1192.0
 31
0.0
  0
LINE
  5
14B
100
AcDbEntity
  8
LAY-1
  6
CONTINUOUS
 62
     2
100
AcDbLine
 10
2521.5
 20
1230.0
 30
0.0
 11
2521.5
 21
1192.0
 31
0.0
  0
ARC
  5
14C
100
AcDbEntity
  8
LAY-1
  6
CONTINUOUS
 62
     2
100
AcDbCircle
 10
2787.5
 20
1150.0
 30
0.0
 40
4.0
100
AcDbArc
 50
0.0
 51
180.0
  0
ARC
  5
14D
100
AcDbEntity
  8
LAY-1
  6
CONTINUOUS
 62
     2
100
AcDbCircle
 10
2787.5
 20
1112.0
 30
0.0
 40
4.0
100
AcDbArc
 50
180.0
 51
0.0
  0
LINE
  5
14E
100
AcDbEntity
  8
LAY-1
  6
CONTINUOUS
 62
     2
100
AcDbLine
 10
2791.5
 20
1150.0
 30
0.0
 11
2791.5
 21
1112.0
 31
0.0
  0
LINE
  5
14F
100
AcDbEntity
  8
LAY-1
  6
CONTINUOUS
 62
     2
100
AcDbLine
 10
2783.5
 20
1150.0
 30
0.0
 11
2783.5
 21
1112.0
 31
0.0
  0
ARC
  5
150
100
AcDbEntity
  8
LAY-1
  6
CONTINUOUS
 62
     2
100
AcDbCircle
 10
2810.0
 20
1150.0
 30
0.0
 40
4.0
100
AcDbArc
 50
0.0
 51
180.0
  0
ARC
  5
151
100
AcDbEntity
  8
LAY-1
  6
CONTINUOUS
 62
     2
100
AcDbCircle
 10
2810.0
 20
1112.0
 30
0.0
 40
4.0
100
AcDbArc
 50
180.0
 51
0.0
  0
LINE
  5
152
100
AcDbEntity
  8
LAY-1
  6
CONTINUOUS
 62
     2
100
AcDbLine
 10
2814.0
 20
1150.0
 30
0.0
 11
2814.0
 21
1112.0
 31
0.0
  0
LINE
  5
153
100
AcDbEntity
  8
LAY-1
  6
CONTINUOUS
 62
     2
100
AcDbLine
 10
2806.0
 20
1150.0
 30
0.0
 11
2806.0
 21
1112.0
 31
0.0
  0
ARC
  5
154
100
AcDbEntity
  8
LAY-1
  6
CONTINUOUS
 62
     2
100
AcDbCircle
 10
2832.5
 20
1150.0
 30
0.0
 40
4.0
100
AcDbArc
 50
0.0
 51
180.0
  0
ARC
  5
155
100
AcDbEntity
  8
LAY-1
  6
CONTINUOUS
 62
     2
100
AcDbCircle
 10
2832.5
 20
1112.0
 30
0.0
 40
4.0
100
AcDbArc
 50
180.0
 51
0.0
  0
LINE
  5
156
100
AcDbEntity
  8
LAY-1
  6
CONTINUOUS
 62
     2
100
AcDbLine
 10
2836.5
 20
1150.0
 30
0.0
 11
2836.5
 21
1112.0
 31
0.0
  0
LINE
  5
157
100
AcDbEntity
  8
LAY-1
  6
CONTINUOUS
 62
     2
100
AcDbLine
 10
2828.5
 20
1150.0
 30
0.0
 11
2828.5
 21
1112.0
 31
0.0
  0
ARC
  5
158
100
AcDbEntity
  8
LAY-1
  6
CONTINUOUS
 62
     2
100
AcDbCircle
 10
2787.5
 20
1230.0
 30
0.0
 40
4.0
100
AcDbArc
 50
0.0
 51
180.0
  0
ARC
  5
159
100
AcDbEntity
  8
LAY-1
  6
CONTINUOUS
 62
     2
100
AcDbCircle
 10
2787.5
 20
1192.0
 30
0.0
 40
4.0
100
AcDbArc
 50
180.0
 51
0.0
  0
LINE
  5
15A
100
AcDbEntity
  8
LAY-1
  6
CONTINUOUS
 62
     2
100
AcDbLine
 10
2791.5
 20
1230.0
 30
0.0
 11
2791.5
 21
1192.0
 31
0.0
  0
LINE
  5
15B
100
AcDbEntity
  8
LAY-1
  6
CONTINUOUS
 62
     2
100
AcDbLine
 10
2783.5
 20
1230.0
 30
0.0
 11
2783.5
 21
1192.0
 31
0.0
  0
ARC
  5
15C
100
AcDbEntity
  8
LAY-1
  6
CONTINUOUS
 62
     2
100
AcDbCircle
 10
2810.0
 20
1230.0
 30
0.0
 40
4.0
100
AcDbArc
 50
0.0
 51
180.0
  0
ARC
  5
15D
100
AcDbEntity
  8
LAY-1
  6
CONTINUOUS
 62
     2
100
AcDbCircle
 10
2810.0
 20
1192.0
 30
0.0
 40
4.0
100
AcDbArc
 50
180.0
 51
0.0
  0
LINE
  5
15E
100
AcDbEntity
  8
LAY-1
  6
CONTINUOUS
 62
     2
100
AcDbLine
 10
2814.0
 20
1230.0
 30
0.0
 11
2814.0
 21
1192.0
 31
0.0
  0
LINE
  5
15F
100
AcDbEntity
  8
LAY-1
  6
CONTINUOUS
 62
     2
100
AcDbLine
 10
2806.0
 20
1230.0
 30
0.0
 11
2806.0
 21
1192.0
 31
0.0
  0
ARC
  5
160
100
AcDbEntity
  8
LAY-1
  6
CONTINUOUS
 62
     2
100
AcDbCircle
 10
2832.5
 20
1230.0
 30
0.0
 40
4.0
100
AcDbArc
 50
0.0
 51
180.0
  0
ARC
  5
161
100
AcDbEntity
  8
LAY-1
  6
CONTINUOUS
 62
     2
100
AcDbCircle
 10
2832.5
 20
1192.0
 30
0.0
 40
4.0
100
AcDbArc
 50
180.0
 51
0.0
  0
LINE
  5
162
100
AcDbEntity
  8
LAY-1
  6
CONTINUOUS
 62
     2
100
AcDbLine
 10
2836.5
 20
1230.0
 30
0.0
 11
2836.5
 21
1192.0
 31
0.0
  0
LINE
  5
163
100
AcDbEntity
  8
LAY-1
  6
CONTINUOUS
 62
     2
100
AcDbLine
 10
2828.5
 20
1230.0
 30
0.0
 11
2828.5
 21
1192.0
 31
0.0
  0
ARC
  5
164
100
AcDbEntity
  8
LAY-1
  6
CONTINUOUS
 62
     2
100
AcDbCircle
 10
2472.5
 20
1310.0
 30
0.0
 40
4.0
100
AcDbArc
 50
0.0
 51
180.0
  0
ARC
  5
165
100
AcDbEntity
  8
LAY-1
  6
CONTINUOUS
 62
     2
100
AcDbCircle
 10
2472.5
 20
1272.0
 30
0.0
 40
4.0
100
AcDbArc
 50
180.0
 51
0.0
  0
LINE
  5
166
100
AcDbEntity
  8
LAY-1
  6
CONTINUOUS
 62
     2
100
AcDbLine
 10
2476.5
 20
1310.0
 30
0.0
 11
2476.5
 21
1272.0
 31
0.0
  0
LINE
  5
167
100
AcDbEntity
  8
LAY-1
  6
CONTINUOUS
 62
     2
100
AcDbLine
 10
2468.5
 20
1310.0
 30
0.0
 11
2468.5
 21
1272.0
 31
0.0
  0
ARC
  5
168
100
AcDbEntity
  8
LAY-1
  6
CONTINUOUS
 62
     2
100
AcDbCircle
 10
2495.0
 20
1310.0
 30
0.0
 40
4.0
100
AcDbArc
 50
0.0
 51
180.0
  0
ARC
  5
169
100
AcDbEntity
  8
LAY-1
  6
CONTINUOUS
 62
     2
100
AcDbCircle
 10
2495.0
 20
1272.0
 30
0.0
 40
4.0
100
AcDbArc
 50
180.0
 51
0.0
  0
LINE
  5
16A
100
AcDbEntity
  8
LAY-1
  6
CONTINUOUS
 62
     2
100
AcDbLine
 10
2499.0
 20
1310.0
 30
0.0
 11
2499.0
 21
1272.0
 31
0.0
  0
LINE
  5
16B
100
AcDbEntity
  8
LAY-1
  6
CONTINUOUS
 62
     2
100
AcDbLine
 10
2491.0
 20
1310.0
 30
0.0
 11
2491.0
 21
1272.0
 31
0.0
  0
ARC
  5
16C
100
AcDbEntity
  8
LAY-1
  6
CONTINUOUS
 62
     2
100
AcDbCircle
 10
2517.5
 20
1310.0
 30
0.0
 40
4.0
100
AcDbArc
 50
0.0
 51
180.0
  0
ARC
  5
16D
100
AcDbEntity
  8
LAY-1
  6
CONTINUOUS
 62
     2
100
AcDbCircle
 10
2517.5
 20
1272.0
 30
0.0
 40
4.0
100
AcDbArc
 50
180.0
 51
0.0
  0
LINE
  5
16E
100
AcDbEntity
  8
LAY-1
  6
CONTINUOUS
 62
     2
100
AcDbLine
 10
2521.5
 20
1310.0
 30
0.0
 11
2521.5
 21
1272.0
 31
0.0
  0
LINE
  5
16F
100
AcDbEntity
  8
LAY-1
  6
CONTINUOUS
 62
     2
100
AcDbLine
 10
2513.5
 20
1310.0
 30
0.0
 11
2513.5
 21
1272.0
 31
0.0
  0
ARC
  5
170
100
AcDbEntity
  8
LAY-1
  6
CONTINUOUS
 62
     2
100
AcDbCircle
 10
2540.0
 20
1310.0
 30
0.0
 40
4.0
100
AcDbArc
 50
0.0
 51
180.0
  0
ARC
  5
171
100
AcDbEntity
  8
LAY-1
  6
CONTINUOUS
 62
     2
100
AcDbCircle
 10
2540.0
 20
1272.0
 30
0.0
 40
4.0
100
AcDbArc
 50
180.0
 51
0.0
  0
LINE
  5
172
100
AcDbEntity
  8
LAY-1
  6
CONTINUOUS
 62
     2
100
AcDbLine
 10
2544.0
 20
1310.0
 30
0.0
 11
2544.0
 21
1272.0
 31
0.0
  0
LINE
  5
173
100
AcDbEntity
  8
LAY-1
  6
CONTINUOUS
 62
     2
100
AcDbLine
 10
2536.0
 20
1310.0
 30
0.0
 11
2536.0
 21
1272.0
 31
0.0
  0
ARC
  5
174
100
AcDbEntity
  8
LAY-1
  6
CONTINUOUS
 62
     2
100
AcDbCircle
 10
2562.5
 20
1310.0
 30
0.0
 40
4.0
100
AcDbArc
 50
0.0
 51
180.0
  0
ARC
  5
175
100
AcDbEntity
  8
LAY-1
  6
CONTINUOUS
 62
     2
100
AcDbCircle
 10
2562.5
 20
1272.0
 30
0.0
 40
4.0
100
AcDbArc
 50
180.0
 51
0.0
  0
LINE
  5
176
100
AcDbEntity
  8
LAY-1
  6
CONTINUOUS
 62
     2
100
AcDbLine
 10
2566.5
 20
1310.0
 30
0.0
 11
2566.5
 21
1272.0
 31
0.0
  0
LINE
  5
177
100
AcDbEntity
  8
LAY-1
  6
CONTINUOUS
 62
     2
100
AcDbLine
 10
2558.5
 20
1310.0
 30
0.0
 11
2558.5
 21
1272.0
 31
0.0
  0
ARC
  5
178
100
AcDbEntity
  8
LAY-1
  6
CONTINUOUS
 62
     2
100
AcDbCircle
 10
2585.0
 20
1310.0
 30
0.0
 40
4.0
100
AcDbArc
 50
0.0
 51
180.0
  0
ARC
  5
179
100
AcDbEntity
  8
LAY-1
  6
CONTINUOUS
 62
     2
100
AcDbCircle
 10
2585.0
 20
1272.0
 30
0.0
 40
4.0
100
AcDbArc
 50
180.0
 51
0.0
  0
LINE
  5
17A
100
AcDbEntity
  8
LAY-1
  6
CONTINUOUS
 62
     2
100
AcDbLine
 10
2589.0
 20
1310.0
 30
0.0
 11
2589.0
 21
1272.0
 31
0.0
  0
LINE
  5
17B
100
AcDbEntity
  8
LAY-1
  6
CONTINUOUS
 62
     2
100
AcDbLine
 10
2581.0
 20
1310.0
 30
0.0
 11
2581.0
 21
1272.0
 31
0.0
  0
ARC
  5
17C
100
AcDbEntity
  8
LAY-1
  6
CONTINUOUS
 62
     2
100
AcDbCircle
 10
2607.5
 20
1310.0
 30
0.0
 40
4.0
100
AcDbArc
 50
0.0
 51
180.0
  0
ARC
  5
17D
100
AcDbEntity
  8
LAY-1
  6
CONTINUOUS
 62
     2
100
AcDbCircle
 10
2607.5
 20
1272.0
 30
0.0
 40
4.0
100
AcDbArc
 50
180.0
 51
0.0
  0
LINE
  5
17E
100
AcDbEntity
  8
LAY-1
  6
CONTINUOUS
 62
     2
100
AcDbLine
 10
2611.5
 20
1310.0
 30
0.0
 11
2611.5
 21
1272.0
 31
0.0
  0
LINE
  5
17F
100
AcDbEntity
  8
LAY-1
  6
CONTINUOUS
 62
     2
100
AcDbLine
 10
2603.5
 20
1310.0
 30
0.0
 11
2603.5
 21
1272.0
 31
0.0
  0
ARC
  5
180
100
AcDbEntity
  8
LAY-1
  6
CONTINUOUS
 62
     2
100
AcDbCircle
 10
2630.0
 20
1310.0
 30
0.0
 40
4.0
100
AcDbArc
 50
0.0
 51
180.0
  0
ARC
  5
181
100
AcDbEntity
  8
LAY-1
  6
CONTINUOUS
 62
     2
100
AcDbCircle
 10
2630.0
 20
1272.0
 30
0.0
 40
4.0
100
AcDbArc
 50
180.0
 51
0.0
  0
LINE
  5
182
100
AcDbEntity
  8
LAY-1
  6
CONTINUOUS
 62
     2
100
AcDbLine
 10
2634.0
 20
1310.0
 30
0.0
 11
2634.0
 21
1272.0
 31
0.0
  0
LINE
  5
183
100
AcDbEntity
  8
LAY-1
  6
CONTINUOUS
 62
     2
100
AcDbLine
 10
2626.0
 20
1310.0
 30
0.0
 11
2626.0
 21
1272.0
 31
0.0
  0
ARC
  5
184
100
AcDbEntity
  8
LAY-1
  6
CONTINUOUS
 62
     2
100
AcDbCircle
 10
2652.5
 20
1310.0
 30
0.0
 40
4.0
100
AcDbArc
 50
0.0
 51
180.0
  0
ARC
  5
185
100
AcDbEntity
  8
LAY-1
  6
CONTINUOUS
 62
     2
100
AcDbCircle
 10
2652.5
 20
1272.0
 30
0.0
 40
4.0
100
AcDbArc
 50
180.0
 51
0.0
  0
LINE
  5
186
100
AcDbEntity
  8
LAY-1
  6
CONTINUOUS
 62
     2
100
AcDbLine
 10
2656.5
 20
1310.0
 30
0.0
 11
2656.5
 21
1272.0
 31
0.0
  0
LINE
  5
187
100
AcDbEntity
  8
LAY-1
  6
CONTINUOUS
 62
     2
100
AcDbLine
 10
2648.5
 20
1310.0
 30
0.0
 11
2648.5
 21
1272.0
 31
0.0
  0
ARC
  5
188
100
AcDbEntity
  8
LAY-1
  6
CONTINUOUS
 62
     2
100
AcDbCircle
 10
2675.0
 20
1272.0
 30
0.0
 40
4.0
100
AcDbArc
 50
180.0
 51
0.0
  0
LINE
  5
189
100
AcDbEntity
  8
LAY-1
  6
CONTINUOUS
 62
     2
100
AcDbLine
 10
2679.0
 20
1310.0
 30
0.0
 11
2679.0
 21
1272.0
 31
0.0
  0
LINE
  5
18A
100
AcDbEntity
  8
LAY-1
  6
CONTINUOUS
 62
     2
100
AcDbLine
 10
2671.0
 20
1310.0
 30
0.0
 11
2671.0
 21
1272.0
 31
0.0
  0
ARC
  5
18B
100
AcDbEntity
  8
LAY-1
  6
CONTINUOUS
 62
     2
100
AcDbCircle
 10
2697.5
 20
1272.0
 30
0.0
 40
4.0
100
AcDbArc
 50
180.0
 51
0.0
  0
LINE
  5
18C
100
AcDbEntity
  8
LAY-1
  6
CONTINUOUS
 62
     2
100
AcDbLine
 10
2701.5
 20
1310.0
 30
0.0
 11
2701.5
 21
1272.0
 31
0.0
  0
LINE
  5
18D
100
AcDbEntity
  8
LAY-1
  6
CONTINUOUS
 62
     2
100
AcDbLine
 10
2693.5
 20
1310.0
 30
0.0
 11
2693.5
 21
1272.0
 31
0.0
  0
ARC
  5
18E
100
AcDbEntity
  8
LAY-1
  6
CONTINUOUS
 62
     2
100
AcDbCircle
 10
2720.0
 20
1272.0
 30
0.0
 40
4.0
100
AcDbArc
 50
180.0
 51
0.0
  0
LINE
  5
18F
100
AcDbEntity
  8
LAY-1
  6
CONTINUOUS
 62
     2
100
AcDbLine
 10
2724.0
 20
1310.0
 30
0.0
 11
2724.0
 21
1272.0
 31
0.0
  0
LINE
  5
190
100
AcDbEntity
  8
LAY-1
  6
CONTINUOUS
 62
     2
100
AcDbLine
 10
2716.0
 20
1310.0
 30
0.0
 11
2716.0
 21
1272.0
 31
0.0
  0
ARC
  5
191
100
AcDbEntity
  8
LAY-1
  6
CONTINUOUS
 62
     2
100
AcDbCircle
 10
2742.5
 20
1272.0
 30
0.0
 40
4.0
100
AcDbArc
 50
180.0
 51
0.0
  0
LINE
  5
192
100
AcDbEntity
  8
LAY-1
  6
CONTINUOUS
 62
     2
100
AcDbLine
 10
2746.5
 20
1310.0
 30
0.0
 11
2746.5
 21
1272.0
 31
0.0
  0
LINE
  5
193
100
AcDbEntity
  8
LAY-1
  6
CONTINUOUS
 62
     2
100
AcDbLine
 10
2738.5
 20
1310.0
 30
0.0
 11
2738.5
 21
1272.0
 31
0.0
  0
ARC
  5
194
100
AcDbEntity
  8
LAY-1
  6
CONTINUOUS
 62
     2
100
AcDbCircle
 10
2765.0
 20
1272.0
 30
0.0
 40
4.0
100
AcDbArc
 50
180.0
 51
0.0
  0
LINE
  5
195
100
AcDbEntity
  8
LAY-1
  6
CONTINUOUS
 62
     2
100
AcDbLine
 10
2769.0
 20
1310.0
 30
0.0
 11
2769.0
 21
1272.0
 31
0.0
  0
LINE
  5
196
100
AcDbEntity
  8
LAY-1
  6
CONTINUOUS
 62
     2
100
AcDbLine
 10
2761.0
 20
1310.0
 30
0.0
 11
2761.0
 21
1272.0
 31
0.0
  0
ARC
  5
197
100
AcDbEntity
  8
LAY-1
  6
CONTINUOUS
 62
     2
100
AcDbCircle
 10
2787.5
 20
1272.0
 30
0.0
 40
4.0
100
AcDbArc
 50
180.0
 51
0.0
  0
LINE
  5
198
100
AcDbEntity
  8
LAY-1
  6
CONTINUOUS
 62
     2
100
AcDbLine
 10
2791.5
 20
1310.0
 30
0.0
 11
2791.5
 21
1272.0
 31
0.0
  0
LINE
  5
199
100
AcDbEntity
  8
LAY-1
  6
CONTINUOUS
 62
     2
100
AcDbLine
 10
2783.5
 20
1310.0
 30
0.0
 11
2783.5
 21
1272.0
 31
0.0
  0
ARC
  5
19A
100
AcDbEntity
  8
LAY-1
  6
CONTINUOUS
 62
     2
100
AcDbCircle
 10
2810.0
 20
1272.0
 30
0.0
 40
4.0
100
AcDbArc
 50
180.0
 51
0.0
  0
LINE
  5
19B
100
AcDbEntity
  8
LAY-1
  6
CONTINUOUS
 62
     2
100
AcDbLine
 10
2814.0
 20
1310.0
 30
0.0
 11
2814.0
 21
1272.0
 31
0.0
  0
LINE
  5
19C
100
AcDbEntity
  8
LAY-1
  6
CONTINUOUS
 62
     2
100
AcDbLine
 10
2806.0
 20
1310.0
 30
0.0
 11
2806.0
 21
1272.0
 31
0.0
  0
LINE
  5
19D
100
AcDbEntity
  8
LAY-1
  6
CONTINUOUS
 62
     2
100
AcDbLine
 10
2828.5
 20
1310.0
 30
0.0
 11
2828.5
 21
1272.0
 31
0.0
  0
LINE
  5
19E
100
AcDbEntity
  8
LAY-1
  6
CONTINUOUS
 62
     2
100
AcDbLine
 10
2836.5
 20
1310.0
 30
0.0
 11
2836.5
 21
1272.0
 31
0.0
  0
ARC
  5
19F
100
AcDbEntity
  8
LAY-1
  6
CONTINUOUS
 62
     2
100
AcDbCircle
 10
2832.5
 20
1272.0
 30
0.0
 40
4.0
100
AcDbArc
 50
180.0
 51
0.0
  0
LINE
  5
1A0
100
AcDbEntity
  8
LAY-1
  6
CONTINUOUS
 62
     2
100
AcDbLine
 10
2477.5
 20
1210.5
 30
0.0
 11
2467.5
 21
1210.5
 31
0.0
  0
LINE
  5
1A1
100
AcDbEntity
  8
LAY-1
  6
CONTINUOUS
 62
     2
100
AcDbLine
 10
2467.5
 20
1210.5
 30
0.0
 11
2467.5
 21
1104.043561
 31
0.0
  0
LINE
  5
1A2
100
AcDbEntity
  8
LAY-1
  6
CONTINUOUS
 62
     2
100
AcDbLine
 10
2477.5
 20
1210.5
 30
0.0
 11
2477.5
 21
1104.043561
 31
0.0
  0
ARC
  5
1A3
100
AcDbEntity
  8
LAY-1
  6
CONTINUOUS
 62
     2
100
AcDbCircle
 10
2472.5
 20
1115.5
 30
0.0
 40
12.5
100
AcDbArc
 50
180.0
 51
0.0
  0
ARC
  5
1A4
100
AcDbEntity
  8
LAY-1
  6
CONTINUOUS
 62
     2
100
AcDbCircle
 10
2472.5
 20
1210.5
 30
0.0
 40
12.5
100
AcDbArc
 50
0.0
 51
180.0
  0
LINE
  5
1A5
100
AcDbEntity
  8
LAY-1
  6
CONTINUOUS
 62
     2
100
AcDbLine
 10
2460.0
 20
1210.5
 30
0.0
 11
2460.0
 21
1115.5
 31
0.0
  0
LINE
  5
1A6
100
AcDbEntity
  8
LAY-1
  6
CONTINUOUS
 62
     2
100
AcDbLine
 10
2485.0
 20
1210.5
 30
0.0
 11
2485.0
 21
1115.5
 31
0.0
  0
CIRCLE
  5
1A7
100
AcDbEntity
  8
LAY-1
  6
CONTINUOUS
 62
     2
100
AcDbCircle
 10
2665.69392
 20
1141.75
 30
0.0
 40
1.5
  0
LINE
  5
1A8
100
AcDbEntity
  8
LAY-1
  6
CONTINUOUS
 62
     2
100
AcDbLine
 10
2896.5
 20
1353.0
 30
0.0
 11
2408.5
 21
1353.0
 31
0.0
  0
LINE
  5
1A9
100
AcDbEntity
  8
LAY-1
  6
CONTINUOUS
 62
     2
100
AcDbLine
 10
2781.5
 20
1356.2
 30
0.0
 11
2771.5
 21
1356.2
 31
0.0
  0
LINE
  5
1AA
100
AcDbEntity
  8
LAY-1
  6
CONTINUOUS
 62
     2
100
AcDbLine
 10
2783.1
 20
1368.0
 30
0.0
 11
2783.1
 21
1354.6
 31
0.0
  0
LINE
  5
1AB
100
AcDbEntity
  8
LAY-1
  6
CONTINUOUS
 62
     2
100
AcDbLine
 10
2808.265029
 20
1368.0
 30
0.0
 11
2808.265029
 21
1354.6
 31
0.0
  0
LINE
  5
1AC
100
AcDbEntity
  8
LAY-1
  6
CONTINUOUS
 62
     2
100
AcDbLine
 10
2808.265029
 20
1368.0
 30
0.0
 11
2783.1
 21
1368.0
 31
0.0
  0
LINE
  5
1AD
100
AcDbEntity
  8
LAY-1
  6
CONTINUOUS
 62
     2
100
AcDbLine
 10
2809.865029
 20
1369.6
 30
0.0
 11
2781.5
 21
1369.6
 31
0.0
  0
LINE
  5
1AE
100
AcDbEntity
  8
LAY-1
  6
CONTINUOUS
 62
     2
100
AcDbLine
 10
2821.5
 20
1356.2
 30
0.0
 11
2809.865029
 21
1356.2
 31
0.0
  0
LINE
  5
1AF
100
AcDbEntity
  8
LAY-1
  6
CONTINUOUS
 62
     2
100
AcDbLine
 10
2771.5
 20
1356.2
 30
0.0
 11
2771.5
 21
1354.6
 31
0.0
  0
LINE
  5
1B0
100
AcDbEntity
  8
LAY-1
  6
CONTINUOUS
 62
     2
100
AcDbLine
 10
2781.5
 20
1369.6
 30
0.0
 11
2781.5
 21
1356.2
 31
0.0
  0
LINE
  5
1B1
100
AcDbEntity
  8
LAY-1
  6
CONTINUOUS
 62
     2
100
AcDbLine
 10
2821.5
 20
1356.2
 30
0.0
 11
2821.5
 21
1354.6
 31
0.0
  0
LINE
  5
1B2
100
AcDbEntity
  8
LAY-1
  6
CONTINUOUS
 62
     2
100
AcDbLine
 10
2809.865029
 20
1369.6
 30
0.0
 11
2809.865029
 21
1356.2
 31
0.0
  0
LINE
  5
1B3
100
AcDbEntity
  8
LAY-1
  6
CONTINUOUS
 62
     2
100
AcDbLine
 10
2866.5
 20
1354.6
 30
0.0
 11
2726.5
 21
1354.6
 31
0.0
  0
LINE
  5
1B4
100
AcDbEntity
  8
LAY-1
  6
CONTINUOUS
 62
     2
100
AcDbLine
 10
2726.5
 20
1354.6
 30
0.0
 11
2726.5
 21
1353.0
 31
0.0
  0
LINE
  5
1B5
100
AcDbEntity
  8
LAY-1
  6
CONTINUOUS
 62
     2
100
AcDbLine
 10
2866.5
 20
1354.6
 30
0.0
 11
2866.5
 21
1353.0
 31
0.0
  0
LINE
  5
1B6
100
AcDbEntity
  8
LAY-1
  6
CONTINUOUS
 62
     2
100
AcDbLine
 10
2884.757013
 20
1370.178734
 30
0.0
 11
2872.242987
 21
1370.178734
 31
0.0
  0
ARC
  5
1B7
100
AcDbEntity
  8
LAY-1
  6
CONTINUOUS
 62
     2
100
AcDbCircle
 10
2878.5
 20
1381.0
 30
0.0
 40
12.5
100
AcDbArc
 50
300.037123
 51
239.962877
  0
ARC
  5
1B8
100
AcDbEntity
  8
LAY-1
  6
CONTINUOUS
 62
     2
100
AcDbCircle
 10
2878.5
 20
1381.0
 30
0.0
 40
20.5
100
AcDbArc
 50
295.233094
 51
244.766906
  0
LINE
  5
1B9
100
AcDbEntity
  8
LAY-1
  6
CONTINUOUS
 62
     2
100
AcDbLine
 10
2870.5
 20
1368.0
 30
0.0
 11
2886.5
 21
1368.0
 31
0.0
  0
LINE
  5
1BA
100
AcDbEntity
  8
LAY-1
  6
CONTINUOUS
 62
     2
100
AcDbLine
 10
2886.5
 20
1368.0
 30
0.0
 11
2888.5
 21
1353.0
 31
0.0
  0
LINE
  5
1BB
100
AcDbEntity
  8
LAY-1
  6
CONTINUOUS
 62
     2
100
AcDbLine
 10
2884.757013
 20
1370.178734
 30
0.0
 11
2886.5
 21
1368.0
 31
0.0
  0
LINE
  5
1BC
100
AcDbEntity
  8
LAY-1
  6
CONTINUOUS
 62
     2
100
AcDbLine
 10
2870.5
 20
1368.0
 30
0.0
 11
2868.5
 21
1353.0
 31
0.0
  0
LINE
  5
1BD
100
AcDbEntity
  8
LAY-1
  6
CONTINUOUS
 62
     2
100
AcDbLine
 10
2872.242987
 20
1370.178734
 30
0.0
 11
2870.5
 21
1368.0
 31
0.0
  0
ARC
  5
1BE
100
AcDbEntity
  8
LAY-1
  6
CONTINUOUS
 62
     2
100
AcDbCircle
 10
2675.0
 20
1310.0
 30
0.0
 40
4.0
100
AcDbArc
 50
0.0
 51
180.0
  0
ARC
  5
1BF
100
AcDbEntity
  8
LAY-1
  6
CONTINUOUS
 62
     2
100
AcDbCircle
 10
2697.5
 20
1310.0
 30
0.0
 40
4.0
100
AcDbArc
 50
0.0
 51
180.0
  0
ARC
  5
1C0
100
AcDbEntity
  8
LAY-1
  6
CONTINUOUS
 62
     2
100
AcDbCircle
 10
2720.0
 20
1310.0
 30
0.0
 40
4.0
100
AcDbArc
 50
0.0
 51
180.0
  0
ARC
  5
1C1
100
AcDbEntity
  8
LAY-1
  6
CONTINUOUS
 62
     2
100
AcDbCircle
 10
2742.5
 20
1310.0
 30
0.0
 40
4.0
100
AcDbArc
 50
0.0
 51
180.0
  0
ARC
  5
1C2
100
AcDbEntity
  8
LAY-1
  6
CONTINUOUS
 62
     2
100
AcDbCircle
 10
2765.0
 20
1310.0
 30
0.0
 40
4.0
100
AcDbArc
 50
0.0
 51
180.0
  0
ARC
  5
1C3
100
AcDbEntity
  8
LAY-1
  6
CONTINUOUS
 62
     2
100
AcDbCircle
 10
2787.5
 20
1310.0
 30
0.0
 40
4.0
100
AcDbArc
 50
0.0
 51
180.0
  0
ARC
  5
1C4
100
AcDbEntity
  8
LAY-1
  6
CONTINUOUS
 62
     2
100
AcDbCircle
 10
2810.0
 20
1310.0
 30
0.0
 40
4.0
100
AcDbArc
 50
0.0
 51
180.0
  0
ARC
  5
1C5
100
AcDbEntity
  8
LAY-1
  6
CONTINUOUS
 62
     2
100
AcDbCircle
 10
2832.5
 20
1310.0
 30
0.0
 40
4.0
100
AcDbArc
 50
0.0
 51
180.0
  0
CIRCLE
  5
1C6
100
AcDbEntity
  8
LAY-1
  6
CONTINUOUS
 62
     2
100
AcDbCircle
 10
2652.5
 20
883.0
 30
0.0
 40
28.0
  0
CIRCLE
  5
1C7
100
AcDbEntity
  8
LAY-1
  6
CONTINUOUS
 62
     2
100
AcDbCircle
 10
2652.5
 20
883.0
 30
0.0
 40
30.0
  0
ARC
  5
1C8
100
AcDbEntity
  8
LAY-1
  6
CONTINUOUS
 62
     2
100
AcDbCircle
 10
2652.5
 20
883.0
 30
0.0
 40
2.5
100
AcDbArc
 50
248.578178
 51
21.421822
  0
LINE
  5
1C9
100
AcDbEntity
  8
LAY-1
  6
CONTINUOUS
 62
     2
100
AcDbLine
 10
2633.181483
 20
877.823619
 30
0.0
 11
2629.31778
 21
876.788343
 31
0.0
  0
LINE
  5
1CA
100
AcDbEntity
  8
LAY-1
  6
CONTINUOUS
 62
     2
100
AcDbLine
 10
2633.181483
 20
888.176381
 30
0.0
 11
2629.31778
 21
889.211657
 31
0.0
  0
LINE
  5
1CB
100
AcDbEntity
  8
LAY-1
  6
CONTINUOUS
 62
     2
100
AcDbLine
 10
2638.357864
 20
897.142136
 30
0.0
 11
2635.529437
 21
899.970563
 31
0.0
  0
LINE
  5
1CC
100
AcDbEntity
  8
LAY-1
  6
CONTINUOUS
 62
     2
100
AcDbLine
 10
2647.323619
 20
902.318517
 30
0.0
 11
2646.288343
 21
906.18222
 31
0.0
  0
LINE
  5
1CD
100
AcDbEntity
  8
LAY-1
  6
CONTINUOUS
 62
     2
100
AcDbLine
 10
2657.676381
 20
902.318517
 30
0.0
 11
2658.711657
 21
906.18222
 31
0.0
  0
LINE
  5
1CE
100
AcDbEntity
  8
LAY-1
  6
CONTINUOUS
 62
     2
100
AcDbLine
 10
2666.642136
 20
897.142136
 30
0.0
 11
2669.470563
 21
899.970563
 31
0.0
  0
LINE
  5
1CF
100
AcDbEntity
  8
LAY-1
  6
CONTINUOUS
 62
     2
100
AcDbLine
 10
2671.818517
 20
888.176381
 30
0.0
 11
2675.68222
 21
889.211657
 31
0.0
  0
LINE
  5
1D0
100
AcDbEntity
  8
LAY-1
  6
CONTINUOUS
 62
     2
100
AcDbLine
 10
2671.818517
 20
877.823619
 30
0.0
 11
2675.68222
 21
876.788343
 31
0.0
  0
ARC
  5
1D1
100
AcDbEntity
  8
LAY-1
  6
CONTINUOUS
 62
     2
100
AcDbCircle
 10
2652.5
 20
883.0
 30
0.0
 40
20.0
100
AcDbArc
 50
315.0
 51
225.0
  0
LINE
  5
1D2
100
AcDbEntity
  8
LAY-1
  6
CONTINUOUS
 62
     2
100
AcDbLine
 10
2666.642136
 20
868.857864
 30
0.0
 11
2669.470563
 21
866.029437
 31
0.0
  0
ARC
  5
1D3
100
AcDbEntity
  8
LAY-1
  6
CONTINUOUS
 62
     2
100
AcDbCircle
 10
2652.5
 20
883.0
 30
0.0
 40
24.0
100
AcDbArc
 50
315.0
 51
225.0
  0
LINE
  5
1D4
100
AcDbEntity
  8
LAY-1
  6
CONTINUOUS
 62
     2
100
AcDbLine
 10
2635.529437
 20
866.029437
 30
0.0
 11
2651.586922
 21
880.672708
 31
0.0
  0
LINE
  5
1D5
100
AcDbEntity
  8
LAY-1
  6
CONTINUOUS
 62
     2
100
AcDbLine
 10
2650.172708
 20
882.086922
 30
0.0
 11
2635.529437
 21
866.029437
 31
0.0
  0
LINE
  5
1D6
100
AcDbEntity
  8
LAY-1
  6
CONTINUOUS
 62
     2
100
AcDbLine
 10
2654.827292
 20
883.913078
 30
0.0
 11
2663.091215
 21
888.641468
 31
0.0
  0
LINE
  5
1D7
100
AcDbEntity
  8
LAY-1
  6
CONTINUOUS
 62
     2
100
AcDbLine
 10
2658.141468
 20
893.591215
 30
0.0
 11
2653.413078
 21
885.327292
 31
0.0
  0
ARC
  5
1D8
100
AcDbEntity
  8
LAY-1
  6
CONTINUOUS
 62
     2
100
AcDbCircle
 10
2652.5
 20
883.0
 30
0.0
 40
12.0
100
AcDbArc
 50
28.042237
 51
61.957763
  0
ARC
  5
1D9
100
AcDbEntity
  8
LAY-1
  6
CONTINUOUS
 62
     2
100
AcDbCircle
 10
2652.5
 20
883.0
 30
0.0
 40
2.5
100
AcDbArc
 50
68.578178
 51
201.421822
  0
LINE
  5
1DA
100
AcDbEntity
  8
LAY-1
  6
EXLTYPE3
 62
     1
100
AcDbLine
 10
455.0
 20
627.5
 30
0.0
 11
455.0
 21
603.0
 31
0.0
  0
LINE
  5
1DB
100
AcDbEntity
  8
LAY-1
  6
EXLTYPE3
 62
     1
100
AcDbLine
 10
1015.0
 20
627.5
 30
0.0
 11
1015.0
 21
603.0
 31
0.0
  0
LINE
  5
1DC
100
AcDbEntity
  8
LAY-1
  6
EXLTYPE3
 62
     1
100
AcDbLine
 10
735.0
 20
1403.0
 30
0.0
 11
735.0
 21
563.0
 31
0.0
  0
LINE
  5
1DD
100
AcDbEntity
  8
LAY-1
  6
CONTINUOUS
 62
     2
100
AcDbLine
 10
491.0
 20
1353.0
 30
0.0
 11
491.0
 21
1053.0
 31
0.0
  0
LINE
  5
1DE
100
AcDbEntity
  8
LAY-1
  6
CONTINUOUS
 62
     2
100
AcDbLine
 10
979.0
 20
1353.0
 30
0.0
 11
979.0
 21
1053.0
 31
0.0
  0
LINE
  5
1DF
100
AcDbEntity
  8
LAY-1
  6
CONTINUOUS
 62
     2
100
AcDbLine
 10
491.0
 20
1053.0
 30
0.0
 11
979.0
 21
1053.0
 31
0.0
  0
LINE
  5
1E0
100
AcDbEntity
  8
LAY-1
  6
CONTINUOUS
 62
     2
100
AcDbLine
 10
495.0
 20
1053.0
 30
0.0
 11
495.0
 21
671.0
 31
0.0
  0
LINE
  5
1E1
100
AcDbEntity
  8
LAY-1
  6
CONTINUOUS
 62
     2
100
AcDbLine
 10
975.0
 20
1053.0
 30
0.0
 11
975.0
 21
671.0
 31
0.0
  0
LINE
  5
1E2
100
AcDbEntity
  8
LAY-1
  6
CONTINUOUS
 62
     2
100
AcDbLine
 10
435.0
 20
613.0
 30
0.0
 11
1035.0
 21
613.0
 31
0.0
  0
LINE
  5
1E3
100
AcDbEntity
  8
LAY-1
  6
CONTINUOUS
 62
     2
100
AcDbLine
 10
435.0
 20
617.5
 30
0.0
 11
435.0
 21
613.0
 31
0.0
  0
LINE
  5
1E4
100
AcDbEntity
  8
LAY-1
  6
CONTINUOUS
 62
     2
100
AcDbLine
 10
1035.0
 20
617.5
 30
0.0
 11
1035.0
 21
613.0
 31
0.0
  0
LINE
  5
1E5
100
AcDbEntity
  8
LAY-1
  6
CONTINUOUS
 62
     2
100
AcDbLine
 10
435.0
 20
617.5
 30
0.0
 11
1035.0
 21
617.5
 31
0.0
  0
LINE
  5
1E6
100
AcDbEntity
  8
LAY-1
  6
CONTINUOUS
 62
     2
100
AcDbLine
 10
525.0
 20
671.0
 30
0.0
 11
525.0
 21
617.5
 31
0.0
  0
LINE
  5
1E7
100
AcDbEntity
  8
LAY-1
  6
CONTINUOUS
 62
     2
100
AcDbLine
 10
945.0
 20
671.0
 30
0.0
 11
945.0
 21
617.5
 31
0.0
  0
LINE
  5
1E8
100
AcDbEntity
  8
LAY-1
  6
CONTINUOUS
 62
     2
100
AcDbLine
 10
515.257013
 20
1370.178734
 30
0.0
 11
517.0
 21
1368.0
 31
0.0
  0
LINE
  5
1E9
100
AcDbEntity
  8
LAY-1
  6
CONTINUOUS
 62
     2
100
AcDbLine
 10
517.0
 20
1368.0
 30
0.0
 11
519.0
 21
1353.0
 31
0.0
  0
LINE
  5
1EA
100
AcDbEntity
  8
LAY-1
  6
CONTINUOUS
 62
     2
100
AcDbLine
 10
502.742987
 20
1370.178734
 30
0.0
 11
501.0
 21
1368.0
 31
0.0
  0
LINE
  5
1EB
100
AcDbEntity
  8
LAY-1
  6
CONTINUOUS
 62
     2
100
AcDbLine
 10
501.0
 20
1368.0
 30
0.0
 11
499.0
 21
1353.0
 31
0.0
  0
LINE
  5
1EC
100
AcDbEntity
  8
LAY-1
  6
CONTINUOUS
 62
     2
100
AcDbLine
 10
517.0
 20
1368.0
 30
0.0
 11
501.0
 21
1368.0
 31
0.0
  0
ARC
  5
1ED
100
AcDbEntity
  8
LAY-1
  6
CONTINUOUS
 62
     2
100
AcDbCircle
 10
509.0
 20
1381.0
 30
0.0
 40
20.5
100
AcDbArc
 50
295.233094
 51
244.766906
  0
ARC
  5
1EE
100
AcDbEntity
  8
LAY-1
  6
CONTINUOUS
 62
     2
100
AcDbCircle
 10
509.0
 20
1381.0
 30
0.0
 40
12.5
100
AcDbArc
 50
300.037123
 51
239.962877
  0
LINE
  5
1EF
100
AcDbEntity
  8
LAY-1
  6
CONTINUOUS
 62
     2
100
AcDbLine
 10
502.742987
 20
1370.178734
 30
0.0
 11
515.257013
 21
1370.178734
 31
0.0
  0
LINE
  5
1F0
100
AcDbEntity
  8
LAY-1
  6
CONTINUOUS
 62
     2
100
AcDbLine
 10
954.742987
 20
1370.178734
 30
0.0
 11
953.0
 21
1368.0
 31
0.0
  0
LINE
  5
1F1
100
AcDbEntity
  8
LAY-1
  6
CONTINUOUS
 62
     2
100
AcDbLine
 10
953.0
 20
1368.0
 30
0.0
 11
951.0
 21
1353.0
 31
0.0
  0
LINE
  5
1F2
100
AcDbEntity
  8
LAY-1
  6
CONTINUOUS
 62
     2
100
AcDbLine
 10
967.257013
 20
1370.178734
 30
0.0
 11
969.0
 21
1368.0
 31
0.0
  0
LINE
  5
1F3
100
AcDbEntity
  8
LAY-1
  6
CONTINUOUS
 62
     2
100
AcDbLine
 10
969.0
 20
1368.0
 30
0.0
 11
971.0
 21
1353.0
 31
0.0
  0
LINE
  5
1F4
100
AcDbEntity
  8
LAY-1
  6
CONTINUOUS
 62
     2
100
AcDbLine
 10
953.0
 20
1368.0
 30
0.0
 11
969.0
 21
1368.0
 31
0.0
  0
ARC
  5
1F5
100
AcDbEntity
  8
LAY-1
  6
CONTINUOUS
 62
     2
100
AcDbCircle
 10
961.0
 20
1381.0
 30
0.0
 40
20.5
100
AcDbArc
 50
295.233094
 51
244.766906
  0
ARC
  5
1F6
100
AcDbEntity
  8
LAY-1
  6
CONTINUOUS
 62
     2
100
AcDbCircle
 10
961.0
 20
1381.0
 30
0.0
 40
12.5
100
AcDbArc
 50
300.037123
 51
239.962877
  0
LINE
  5
1F7
100
AcDbEntity
  8
LAY-1
  6
CONTINUOUS
 62
     2
100
AcDbLine
 10
967.257013
 20
1370.178734
 30
0.0
 11
954.742987
 21
1370.178734
 31
0.0
  0
LINE
  5
1F8
100
AcDbEntity
  8
LAY-1
  6
CONTINUOUS
 62
     2
100
AcDbLine
 10
521.0
 20
1354.6
 30
0.0
 11
521.0
 21
1353.0
 31
0.0
  0
LINE
  5
1F9
100
AcDbEntity
  8
LAY-1
  6
CONTINUOUS
 62
     2
100
AcDbLine
 10
661.0
 20
1354.6
 30
0.0
 11
661.0
 21
1353.0
 31
0.0
  0
LINE
  5
1FA
100
AcDbEntity
  8
LAY-1
  6
CONTINUOUS
 62
     2
100
AcDbLine
 10
521.0
 20
1354.6
 30
0.0
 11
661.0
 21
1354.6
 31
0.0
  0
LINE
  5
1FB
100
AcDbEntity
  8
LAY-1
  6
CONTINUOUS
 62
     2
100
AcDbLine
 10
577.634971
 20
1369.6
 30
0.0
 11
577.634971
 21
1356.2
 31
0.0
  0
LINE
  5
1FC
100
AcDbEntity
  8
LAY-1
  6
CONTINUOUS
 62
     2
100
AcDbLine
 10
566.0
 20
1356.2
 30
0.0
 11
566.0
 21
1354.6
 31
0.0
  0
LINE
  5
1FD
100
AcDbEntity
  8
LAY-1
  6
CONTINUOUS
 62
     2
100
AcDbLine
 10
606.0
 20
1369.6
 30
0.0
 11
606.0
 21
1356.2
 31
0.0
  0
LINE
  5
1FE
100
AcDbEntity
  8
LAY-1
  6
CONTINUOUS
 62
     2
100
AcDbLine
 10
616.0
 20
1356.2
 30
0.0
 11
616.0
 21
1354.6
 31
0.0
  0
LINE
  5
1FF
100
AcDbEntity
  8
LAY-1
  6
CONTINUOUS
 62
     2
100
AcDbLine
 10
566.0
 20
1356.2
 30
0.0
 11
577.634971
 21
1356.2
 31
0.0
  0
LINE
  5
200
100
AcDbEntity
  8
LAY-1
  6
CONTINUOUS
 62
     2
100
AcDbLine
 10
577.634971
 20
1369.6
 30
0.0
 11
606.0
 21
1369.6
 31
0.0
  0
LINE
  5
201
100
AcDbEntity
  8
LAY-1
  6
CONTINUOUS
 62
     2
100
AcDbLine
 10
579.234971
 20
1368.0
 30
0.0
 11
604.4
 21
1368.0
 31
0.0
  0
LINE
  5
202
100
AcDbEntity
  8
LAY-1
  6
CONTINUOUS
 62
     2
100
AcDbLine
 10
579.234971
 20
1368.0
 30
0.0
 11
579.234971
 21
1354.6
 31
0.0
  0
LINE
  5
203
100
AcDbEntity
  8
LAY-1
  6
CONTINUOUS
 62
     2
100
AcDbLine
 10
604.4
 20
1368.0
 30
0.0
 11
604.4
 21
1354.6
 31
0.0
  0
LINE
  5
204
100
AcDbEntity
  8
LAY-1
  6
CONTINUOUS
 62
     2
100
AcDbLine
 10
606.0
 20
1356.2
 30
0.0
 11
616.0
 21
1356.2
 31
0.0
  0
LINE
  5
205
100
AcDbEntity
  8
LAY-1
  6
CONTINUOUS
 62
     2
100
AcDbLine
 10
996.0
 20
1106.0
 30
0.0
 11
996.0
 21
1160.0
 31
0.0
  0
LINE
  5
206
100
AcDbEntity
  8
LAY-1
  6
CONTINUOUS
 62
     2
100
AcDbLine
 10
1006.0
 20
1107.054089
 30
0.0
 11
1006.0
 21
1158.945911
 31
0.0
  0
LINE
  5
207
100
AcDbEntity
  8
LAY-1
  6
CONTINUOUS
 62
     2
100
AcDbLine
 10
986.0
 20
1120.0
 30
0.0
 11
986.0
 21
1146.0
 31
0.0
  0
ARC
  5
208
100
AcDbEntity
  8
LAY-1
  6
CONTINUOUS
 62
     2
100
AcDbCircle
 10
985.1875
 20
1124.25
 30
0.0
 40
7.8125
100
AcDbArc
 50
339.390307
 51
20.609693
  0
LINE
  5
209
100
AcDbEntity
  8
LAY-1
  6
CONTINUOUS
 62
     2
100
AcDbLine
 10
987.0
 20
1121.5
 30
0.0
 11
987.0
 21
1144.5
 31
0.0
  0
ARC
  5
20A
100
AcDbEntity
  8
LAY-1
  6
CONTINUOUS
 62
     2
100
AcDbCircle
 10
996.5
 20
1106.0
 30
0.0
 40
0.5
100
AcDbArc
 50
180.0
 51
270.0
  0
ARC
  5
20B
100
AcDbEntity
  8
LAY-1
  6
CONTINUOUS
 62
     2
100
AcDbCircle
 10
1004.445911
 20
1107.054089
 30
0.0
 40
1.554089
100
AcDbArc
 50
270.0
 51
0.0
  0
ARC
  5
20C
100
AcDbEntity
  8
LAY-1
  6
CONTINUOUS
 62
     2
100
AcDbCircle
 10
1004.141326
 20
1114.65347
 30
0.0
 40
1.858674
100
AcDbArc
 50
270.0
 51
90.0
  0
LINE
  5
20D
100
AcDbEntity
  8
LAY-1
  6
CONTINUOUS
 62
     2
100
AcDbLine
 10
1006.0
 20
1107.054089
 30
0.0
 11
996.0
 21
1107.054089
 31
0.0
  0
LINE
  5
20E
100
AcDbEntity
  8
LAY-1
  6
CONTINUOUS
 62
     2
100
AcDbLine
 10
1004.141326
 20
1112.794796
 30
0.0
 11
996.0
 21
1112.794796
 31
0.0
  0
LINE
  5
20F
100
AcDbEntity
  8
LAY-1
  6
CONTINUOUS
 62
     2
100
AcDbLine
 10
1004.141326
 20
1116.512145
 30
0.0
 11
996.0
 21
1116.512145
 31
0.0
  0
LINE
  5
210
100
AcDbEntity
  8
LAY-1
  6
CONTINUOUS
 62
     2
100
AcDbLine
 10
1004.445911
 20
1105.5
 30
0.0
 11
996.5
 21
1105.5
 31
0.0
  0
LINE
  5
211
100
AcDbEntity
  8
LAY-1
  6
CONTINUOUS
 62
     2
100
AcDbLine
 10
986.0
 20
1120.0
 30
0.0
 11
979.0
 21
1120.0
 31
0.0
  0
LINE
  5
212
100
AcDbEntity
  8
LAY-1
  6
CONTINUOUS
 62
     2
100
AcDbLine
 10
992.5
 20
1121.5
 30
0.0
 11
987.0
 21
1121.5
 31
0.0
  0
ARC
  5
213
100
AcDbEntity
  8
LAY-1
  6
CONTINUOUS
 62
     2
100
AcDbCircle
 10
996.5
 20
1160.0
 30
0.0
 40
0.5
100
AcDbArc
 50
90.0
 51
180.0
  0
ARC
  5
214
100
AcDbEntity
  8
LAY-1
  6
CONTINUOUS
 62
     2
100
AcDbCircle
 10
1004.141326
 20
1151.34653
 30
0.0
 40
1.858674
100
AcDbArc
 50
270.0
 51
90.0
  0
LINE
  5
215
100
AcDbEntity
  8
LAY-1
  6
CONTINUOUS
 62
     2
100
AcDbLine
 10
1004.141326
 20
1153.205204
 30
0.0
 11
996.0
 21
1153.205204
 31
0.0
  0
LINE
  5
216
100
AcDbEntity
  8
LAY-1
  6
CONTINUOUS
 62
     2
100
AcDbLine
 10
1004.141326
 20
1149.487855
 30
0.0
 11
996.0
 21
1149.487855
 31
0.0
  0
LINE
  5
217
100
AcDbEntity
  8
LAY-1
  6
CONTINUOUS
 62
     2
100
AcDbLine
 10
1006.0
 20
1158.945911
 30
0.0
 11
996.0
 21
1158.945911
 31
0.0
  0
ARC
  5
218
100
AcDbEntity
  8
LAY-1
  6
CONTINUOUS
 62
     2
100
AcDbCircle
 10
1004.445911
 20
1158.945911
 30
0.0
 40
1.554089
100
AcDbArc
 50
0.0
 51
90.0
  0
LINE
  5
219
100
AcDbEntity
  8
LAY-1
  6
CONTINUOUS
 62
     2
100
AcDbLine
 10
1004.445911
 20
1160.5
 30
0.0
 11
996.5
 21
1160.5
 31
0.0
  0
ARC
  5
21A
100
AcDbEntity
  8
LAY-1
  6
CONTINUOUS
 62
     2
100
AcDbCircle
 10
1003.371438
 20
1133.0
 30
0.0
 40
2.628562
100
AcDbArc
 50
270.0
 51
90.0
  0
LINE
  5
21B
100
AcDbEntity
  8
LAY-1
  6
CONTINUOUS
 62
     2
100
AcDbLine
 10
1003.371438
 20
1135.628562
 30
0.0
 11
996.0
 21
1135.628562
 31
0.0
  0
LINE
  5
21C
100
AcDbEntity
  8
LAY-1
  6
CONTINUOUS
 62
     2
100
AcDbLine
 10
1003.371438
 20
1130.371438
 30
0.0
 11
996.0
 21
1130.371438
 31
0.0
  0
LINE
  5
21D
100
AcDbEntity
  8
LAY-1
  6
CONTINUOUS
 62
     2
100
AcDbLine
 10
986.0
 20
1146.0
 30
0.0
 11
979.0
 21
1146.0
 31
0.0
  0
LINE
  5
21E
100
AcDbEntity
  8
LAY-1
  6
CONTINUOUS
 62
     2
100
AcDbLine
 10
987.0
 20
1141.5
 30
0.0
 11
986.0
 21
1141.5
 31
0.0
  0
LINE
  5
21F
100
AcDbEntity
  8
LAY-1
  6
CONTINUOUS
 62
     2
100
AcDbLine
 10
987.0
 20
1124.5
 30
0.0
 11
986.0
 21
1124.5
 31
0.0
  0
LINE
  5
220
100
AcDbEntity
  8
LAY-1
  6
CONTINUOUS
 62
     2
100
AcDbLine
 10
996.0
 20
1130.0
 30
0.0
 11
993.0
 21
1130.0
 31
0.0
  0
LINE
  5
221
100
AcDbEntity
  8
LAY-1
  6
CONTINUOUS
 62
     2
100
AcDbLine
 10
996.0
 20
1136.0
 30
0.0
 11
993.0
 21
1136.0
 31
0.0
  0
LINE
  5
222
100
AcDbEntity
  8
LAY-1
  6
CONTINUOUS
 62
     2
100
AcDbLine
 10
993.0
 20
1124.25
 30
0.0
 11
993.0
 21
1141.75
 31
0.0
  0
LINE
  5
223
100
AcDbEntity
  8
LAY-1
  6
CONTINUOUS
 62
     2
100
AcDbLine
 10
992.5
 20
1144.5
 30
0.0
 11
987.0
 21
1144.5
 31
0.0
  0
LINE
  5
224
100
AcDbEntity
  8
LAY-1
  6
CONTINUOUS
 62
     2
100
AcDbLine
 10
992.5
 20
1139.0
 30
0.0
 11
987.0
 21
1139.0
 31
0.0
  0
LINE
  5
225
100
AcDbEntity
  8
LAY-1
  6
CONTINUOUS
 62
     2
100
AcDbLine
 10
992.5
 20
1127.0
 30
0.0
 11
987.0
 21
1127.0
 31
0.0
  0
ARC
  5
226
100
AcDbEntity
  8
LAY-1
  6
CONTINUOUS
 62
     2
100
AcDbCircle
 10
985.1875
 20
1141.75
 30
0.0
 40
7.8125
100
AcDbArc
 50
339.390307
 51
20.609693
  0
ARC
  5
227
100
AcDbEntity
  8
LAY-1
  6
CONTINUOUS
 62
     2
100
AcDbCircle
 10
956.75
 20
1133.0
 30
0.0
 40
36.25
100
AcDbArc
 50
350.472717
 51
9.527283
  0
ARC
  5
228
100
AcDbEntity
  8
LAY-1
  6
CONTINUOUS
 62
     2
100
AcDbCircle
 10
1008.0095
 20
1110.392286
 30
0.0
 40
3.896364
100
AcDbArc
 50
132.232219
 51
238.953252
  0
ARC
  5
229
100
AcDbEntity
  8
LAY-1
  6
CONTINUOUS
 62
     2
100
AcDbCircle
 10
1018.434565
 20
1123.716326
 30
0.0
 40
15.065629
100
AcDbArc
 50
148.353731
 51
212.377391
  0
ARC
  5
22A
100
AcDbEntity
  8
LAY-1
  6
CONTINUOUS
 62
     2
100
AcDbCircle
 10
1018.434565
 20
1142.283674
 30
0.0
 40
15.065629
100
AcDbArc
 50
147.622609
 51
211.646269
  0
ARC
  5
22B
100
AcDbEntity
  8
LAY-1
  6
CONTINUOUS
 62
     2
100
AcDbCircle
 10
1008.0095
 20
1155.607714
 30
0.0
 40
3.896364
100
AcDbArc
 50
121.046748
 51
227.767781
  0
LINE
  5
22C
100
AcDbEntity
  8
LAY-1
  6
CONTINUOUS
 62
     2
100
AcDbLine
 10
890.85
 20
1630.521447
 30
0.0
 11
890.85
 21
1595.521447
 31
0.0
  0
LINE
  5
22D
100
AcDbEntity
  8
LAY-1
  6
CONTINUOUS
 62
     2
100
AcDbLine
 10
859.15
 20
1630.521447
 30
0.0
 11
859.15
 21
1595.521447
 31
0.0
  0
LINE
  5
22E
100
AcDbEntity
  8
LAY-1
  6
CONTINUOUS
 62
     2
100
AcDbLine
 10
890.85
 20
1630.521447
 30
0.0
 11
859.15
 21
1630.521447
 31
0.0
  0
LINE
  5
22F
100
AcDbEntity
  8
LAY-1
  6
CONTINUOUS
 62
     2
100
AcDbLine
 10
890.85
 20
1595.521447
 30
0.0
 11
859.15
 21
1595.521447
 31
0.0
  0
CIRCLE
  5
230
100
AcDbEntity
  8
LAY-1
  6
CONTINUOUS
 62
     2
100
AcDbCircle
 10
595.0
 20
1238.0
 30
0.0
 40
50.0
  0
LINE
  5
231
100
AcDbEntity
  8
LAY-1
  6
CONTINUOUS
 62
     1
100
AcDbLine
 10
883.65
 20
1260.22
 30
0.0
 11
882.15
 21
1258.22
 31
0.0
  0
LINE
  5
232
100
AcDbEntity
  8
LAY-1
  6
CONTINUOUS
 62
     1
100
AcDbLine
 10
866.35
 20
1260.22
 30
0.0
 11
867.85
 21
1258.22
 31
0.0
  0
ARC
  5
233
100
AcDbEntity
  8
LAY-1
  6
CONTINUOUS
 62
     2
100
AcDbCircle
 10
887.75
 20
1269.75125
 30
0.0
 40
9.53125
100
AcDbArc
 50
243.51896
 51
296.48104
  0
ARC
  5
234
100
AcDbEntity
  8
LAY-1
  6
CONTINUOUS
 62
     2
100
AcDbCircle
 10
875.0
 20
1296.845
 30
0.0
 40
36.625
100
AcDbArc
 50
256.580326
 51
283.419674
  0
ARC
  5
235
100
AcDbEntity
  8
LAY-1
  6
CONTINUOUS
 62
     2
100
AcDbCircle
 10
862.25
 20
1269.75125
 30
0.0
 40
9.53125
100
AcDbArc
 50
243.51896
 51
296.48104
  0
LINE
  5
236
100
AcDbEntity
  8
LAY-1
  6
CONTINUOUS
 62
     2
100
AcDbLine
 10
892.0
 20
1261.22
 30
0.0
 11
892.0
 21
1304.22
 31
0.0
  0
LINE
  5
237
100
AcDbEntity
  8
LAY-1
  6
CONTINUOUS
 62
     2
100
AcDbLine
 10
858.0
 20
1261.22
 30
0.0
 11
858.0
 21
1304.22
 31
0.0
  0
LINE
  5
238
100
AcDbEntity
  8
LAY-1
  6
CONTINUOUS
 62
     2
100
AcDbLine
 10
866.5
 20
1261.22
 30
0.0
 11
866.5
 21
1304.22
 31
0.0
  0
LINE
  5
239
100
AcDbEntity
  8
LAY-1
  6
CONTINUOUS
 62
     2
100
AcDbLine
 10
883.5
 20
1261.22
 30
0.0
 11
883.5
 21
1304.22
 31
0.0
  0
LINE
  5
23A
100
AcDbEntity
  8
LAY-1
  6
CONTINUOUS
 62
     2
100
AcDbLine
 10
862.25
 20
1260.22
 30
0.0
 11
887.75
 21
1260.22
 31
0.0
  0
ARC
  5
23B
100
AcDbEntity
  8
LAY-1
  6
CONTINUOUS
 62
     2
100
AcDbCircle
 10
887.75
 20
1295.68875
 30
0.0
 40
9.53125
100
AcDbArc
 50
63.51896
 51
116.48104
  0
ARC
  5
23C
100
AcDbEntity
  8
LAY-1
  6
CONTINUOUS
 62
     2
100
AcDbCircle
 10
875.0
 20
1268.595
 30
0.0
 40
36.625
100
AcDbArc
 50
76.580326
 51
103.419674
  0
ARC
  5
23D
100
AcDbEntity
  8
LAY-1
  6
CONTINUOUS
 62
     2
100
AcDbCircle
 10
862.25
 20
1295.68875
 30
0.0
 40
9.53125
100
AcDbArc
 50
63.51896
 51
116.48104
  0
LINE
  5
23E
100
AcDbEntity
  8
LAY-1
  6
CONTINUOUS
 62
     2
100
AcDbLine
 10
892.0
 20
1306.22
 30
0.0
 11
892.0
 21
1329.22
 31
0.0
  0
ARC
  5
23F
100
AcDbEntity
  8
LAY-1
  6
CONTINUOUS
 62
     2
100
AcDbCircle
 10
887.75
 20
1314.75125
 30
0.0
 40
9.53125
100
AcDbArc
 50
243.51896
 51
296.48104
  0
ARC
  5
240
100
AcDbEntity
  8
LAY-1
  6
CONTINUOUS
 62
     2
100
AcDbCircle
 10
875.0
 20
1341.845
 30
0.0
 40
36.625
100
AcDbArc
 50
256.580326
 51
283.419674
  0
ARC
  5
241
100
AcDbEntity
  8
LAY-1
  6
CONTINUOUS
 62
     2
100
AcDbCircle
 10
862.25
 20
1314.75125
 30
0.0
 40
9.53125
100
AcDbArc
 50
243.51896
 51
296.48104
  0
LINE
  5
242
100
AcDbEntity
  8
LAY-1
  6
CONTINUOUS
 62
     2
100
AcDbLine
 10
862.25
 20
1305.22
 30
0.0
 11
887.75
 21
1305.22
 31
0.0
  0
LINE
  5
243
100
AcDbEntity
  8
LAY-1
  6
CONTINUOUS
 62
     2
100
AcDbLine
 10
858.0
 20
1329.22
 30
0.0
 11
858.0
 21
1306.22
 31
0.0
  0
LINE
  5
244
100
AcDbEntity
  8
LAY-1
  6
CONTINUOUS
 62
     2
100
AcDbLine
 10
866.5
 20
1329.22
 30
0.0
 11
866.5
 21
1306.22
 31
0.0
  0
LINE
  5
245
100
AcDbEntity
  8
LAY-1
  6
CONTINUOUS
 62
     2
100
AcDbLine
 10
883.5
 20
1329.22
 30
0.0
 11
883.5
 21
1306.22
 31
0.0
  0
ARC
  5
246
100
AcDbEntity
  8
LAY-1
  6
CONTINUOUS
 62
     2
100
AcDbCircle
 10
887.75
 20
1320.68875
 30
0.0
 40
9.53125
100
AcDbArc
 50
63.51896
 51
116.48104
  0
ARC
  5
247
100
AcDbEntity
  8
LAY-1
  6
CONTINUOUS
 62
     2
100
AcDbCircle
 10
875.0
 20
1293.595
 30
0.0
 40
36.625
100
AcDbArc
 50
76.580326
 51
103.419674
  0
ARC
  5
248
100
AcDbEntity
  8
LAY-1
  6
CONTINUOUS
 62
     2
100
AcDbCircle
 10
862.25
 20
1320.68875
 30
0.0
 40
9.53125
100
AcDbArc
 50
63.51896
 51
116.48104
  0
LINE
  5
249
100
AcDbEntity
  8
LAY-1
  6
CONTINUOUS
 62
     2
100
AcDbLine
 10
862.25
 20
1330.22
 30
0.0
 11
887.75
 21
1330.22
 31
0.0
  0
LINE
  5
24A
100
AcDbEntity
  8
LAY-1
  6
CONTINUOUS
 62
     2
100
AcDbLine
 10
883.65
 20
1260.22
 30
0.0
 11
883.65
 21
1249.72
 31
0.0
  0
LINE
  5
24B
100
AcDbEntity
  8
LAY-1
  6
CONTINUOUS
 62
     1
100
AcDbLine
 10
882.15
 20
1258.22
 30
0.0
 11
882.15
 21
1249.72
 31
0.0
  0
LINE
  5
24C
100
AcDbEntity
  8
LAY-1
  6
CONTINUOUS
 62
     2
100
AcDbLine
 10
875.0
 20
1258.22
 30
0.0
 11
883.65
 21
1258.22
 31
0.0
  0
LINE
  5
24D
100
AcDbEntity
  8
LAY-1
  6
CONTINUOUS
 62
     2
100
AcDbLine
 10
866.35
 20
1258.22
 30
0.0
 11
875.0
 21
1258.22
 31
0.0
  0
LINE
  5
24E
100
AcDbEntity
  8
LAY-1
  6
CONTINUOUS
 62
     1
100
AcDbLine
 10
867.85
 20
1258.22
 30
0.0
 11
867.85
 21
1249.72
 31
0.0
  0
LINE
  5
24F
100
AcDbEntity
  8
LAY-1
  6
CONTINUOUS
 62
     2
100
AcDbLine
 10
866.35
 20
1260.22
 30
0.0
 11
866.35
 21
1249.72
 31
0.0
  0
LINE
  5
250
100
AcDbEntity
  8
LAY-1
  6
CONTINUOUS
 62
     2
100
AcDbLine
 10
888.5
 20
1249.72
 30
0.0
 11
861.5
 21
1249.72
 31
0.0
  0
LINE
  5
251
100
AcDbEntity
  8
LAY-1
  6
CONTINUOUS
 62
     2
100
AcDbLine
 10
885.85
 20
1595.521447
 30
0.0
 11
885.85
 21
1330.22
 31
0.0
  0
LINE
  5
252
100
AcDbEntity
  8
LAY-1
  6
CONTINUOUS
 62
     2
100
AcDbLine
 10
864.15
 20
1595.521447
 30
0.0
 11
864.15
 21
1330.22
 31
0.0
  0
LINE
  5
253
100
AcDbEntity
  8
LAY-1
  6
CONTINUOUS
 62
     2
100
AcDbLine
 10
491.0
 20
1353.0
 30
0.0
 11
864.15
 21
1353.0
 31
0.0
  0
LINE
  5
254
100
AcDbEntity
  8
LAY-1
  6
CONTINUOUS
 62
     2
100
AcDbLine
 10
885.85
 20
1353.0
 30
0.0
 11
979.0
 21
1353.0
 31
0.0
  0
LINE
  5
255
100
AcDbEntity
  8
LAY-1
  6
EXLTYPE3
 62
     1
100
AcDbLine
 10
875.0
 20
1101.298155
 30
0.0
 11
875.0
 21
1632.0
 31
0.0
  0
LINE
  5
256
100
AcDbEntity
  8
LAY-1
  6
EXLTYPE3
 62
     1
100
AcDbLine
 10
534.6
 20
1238.0
 30
0.0
 11
655.2
 21
1238.0
 31
0.0
  0
LINE
  5
257
100
AcDbEntity
  8
LAY-1
  6
EXLTYPE3
 62
     1
100
AcDbLine
 10
595.0
 20
1181.8
 30
0.0
 11
595.0
 21
1299.0
 31
0.0
  0
LINE
  5
258
100
AcDbEntity
  8
LAY-1
  6
EXLTYPE3
 62
     1
100
AcDbLine
 10
805.8
 20
1173.0
 30
0.0
 11
947.3
 21
1173.0
 31
0.0
  0
CIRCLE
  5
259
100
AcDbEntity
  8
LAY-1
  6
CONTINUOUS
 62
     2
100
AcDbCircle
 10
621.516504
 20
1211.483496
 30
0.0
 40
7.5
  0
CIRCLE
  5
25A
100
AcDbEntity
  8
LAY-1
  6
CONTINUOUS
 62
     2
100
AcDbCircle
 10
568.483496
 20
1211.483496
 30
0.0
 40
7.5
  0
CIRCLE
  5
25B
100
AcDbEntity
  8
LAY-1
  6
CONTINUOUS
 62
     2
100
AcDbCircle
 10
621.516504
 20
1264.516504
 30
0.0
 40
7.5
  0
CIRCLE
  5
25C
100
AcDbEntity
  8
LAY-1
  6
CONTINUOUS
 62
     2
100
AcDbCircle
 10
568.483496
 20
1264.516504
 30
0.0
 40
7.5
  0
CIRCLE
  5
25D
100
AcDbEntity
  8
LAY-1
  6
CONTINUOUS
 62
     2
100
AcDbCircle
 10
595.0
 20
1238.0
 30
0.0
 40
10.7
  0
CIRCLE
  5
25E
100
AcDbEntity
  8
LAY-1
  6
CONTINUOUS
 62
     2
100
AcDbCircle
 10
595.0
 20
1238.0
 30
0.0
 40
28.0
  0
CIRCLE
  5
25F
100
AcDbEntity
  8
LAY-1
  6
CONTINUOUS
 62
     2
100
AcDbCircle
 10
875.0
 20
1173.0
 30
0.0
 40
50.0
  0
CIRCLE
  5
260
100
AcDbEntity
  8
LAY-1
  6
CONTINUOUS
 62
     2
100
AcDbCircle
 10
901.516504
 20
1146.483496
 30
0.0
 40
7.5
  0
CIRCLE
  5
261
100
AcDbEntity
  8
LAY-1
  6
CONTINUOUS
 62
     2
100
AcDbCircle
 10
848.483496
 20
1146.483496
 30
0.0
 40
7.5
  0
CIRCLE
  5
262
100
AcDbEntity
  8
LAY-1
  6
CONTINUOUS
 62
     2
100
AcDbCircle
 10
901.516504
 20
1199.516504
 30
0.0
 40
7.5
  0
CIRCLE
  5
263
100
AcDbEntity
  8
LAY-1
  6
CONTINUOUS
 62
     2
100
AcDbCircle
 10
848.483496
 20
1199.516504
 30
0.0
 40
7.5
  0
CIRCLE
  5
264
100
AcDbEntity
  8
LAY-1
  6
CONTINUOUS
 62
     2
100
AcDbCircle
 10
875.0
 20
1173.0
 30
0.0
 40
10.7
  0
CIRCLE
  5
265
100
AcDbEntity
  8
LAY-1
  6
CONTINUOUS
 62
     2
100
AcDbCircle
 10
875.0
 20
1173.0
 30
0.0
 40
28.0
  0
LINE
  5
266
100
AcDbEntity
  8
LAY-1
  6
CONTINUOUS
 62
     2
100
AcDbLine
 10
888.5
 20
1236.337314
 30
0.0
 11
888.5
 21
1242.22
 31
0.0
  0
ARC
  5
267
100
AcDbEntity
  8
LAY-1
  6
CONTINUOUS
 62
     2
100
AcDbCircle
 10
927.0095
 20
1255.327714
 30
0.0
 40
3.896364
100
AcDbArc
 50
121.046748
 51
227.767781
  0
ARC
  5
268
100
AcDbEntity
  8
LAY-1
  6
CONTINUOUS
 62
     2
100
AcDbCircle
 10
937.434565
 20
1242.003674
 30
0.0
 40
15.065629
100
AcDbArc
 50
147.622609
 51
211.646269
  0
ARC
  5
269
100
AcDbEntity
  8
LAY-1
  6
CONTINUOUS
 62
     2
100
AcDbCircle
 10
937.434565
 20
1223.436326
 30
0.0
 40
15.065629
100
AcDbArc
 50
148.353731
 51
212.377391
  0
ARC
  5
26A
100
AcDbEntity
  8
LAY-1
  6
CONTINUOUS
 62
     2
100
AcDbCircle
 10
927.0095
 20
1210.112286
 30
0.0
 40
3.896364
100
AcDbArc
 50
132.232219
 51
238.953252
  0
ARC
  5
26B
100
AcDbEntity
  8
LAY-1
  6
CONTINUOUS
 62
     2
100
AcDbCircle
 10
875.75
 20
1232.72
 30
0.0
 40
36.25
100
AcDbArc
 50
350.472717
 51
9.527283
  0
ARC
  5
26C
100
AcDbEntity
  8
LAY-1
  6
CONTINUOUS
 62
     2
100
AcDbCircle
 10
904.1875
 20
1241.47
 30
0.0
 40
7.8125
100
AcDbArc
 50
339.390307
 51
20.609693
  0
LINE
  5
26D
100
AcDbEntity
  8
LAY-1
  6
CONTINUOUS
 62
     2
100
AcDbLine
 10
911.5
 20
1226.72
 30
0.0
 11
906.0
 21
1226.72
 31
0.0
  0
LINE
  5
26E
100
AcDbEntity
  8
LAY-1
  6
CONTINUOUS
 62
     2
100
AcDbLine
 10
911.5
 20
1238.72
 30
0.0
 11
906.0
 21
1238.72
 31
0.0
  0
LINE
  5
26F
100
AcDbEntity
  8
LAY-1
  6
CONTINUOUS
 62
     2
100
AcDbLine
 10
911.5
 20
1244.22
 30
0.0
 11
906.0
 21
1244.22
 31
0.0
  0
LINE
  5
270
100
AcDbEntity
  8
LAY-1
  6
CONTINUOUS
 62
     2
100
AcDbLine
 10
912.0
 20
1223.97
 30
0.0
 11
912.0
 21
1241.47
 31
0.0
  0
LINE
  5
271
100
AcDbEntity
  8
LAY-1
  6
CONTINUOUS
 62
     2
100
AcDbLine
 10
915.0
 20
1235.72
 30
0.0
 11
912.0
 21
1235.72
 31
0.0
  0
LINE
  5
272
100
AcDbEntity
  8
LAY-1
  6
CONTINUOUS
 62
     2
100
AcDbLine
 10
915.0
 20
1229.72
 30
0.0
 11
912.0
 21
1229.72
 31
0.0
  0
LINE
  5
273
100
AcDbEntity
  8
LAY-1
  6
CONTINUOUS
 62
     2
100
AcDbLine
 10
906.0
 20
1224.22
 30
0.0
 11
905.0
 21
1224.22
 31
0.0
  0
LINE
  5
274
100
AcDbEntity
  8
LAY-1
  6
CONTINUOUS
 62
     2
100
AcDbLine
 10
906.0
 20
1241.22
 30
0.0
 11
905.0
 21
1241.22
 31
0.0
  0
LINE
  5
275
100
AcDbEntity
  8
LAY-1
  6
CONTINUOUS
 62
     2
100
AcDbLine
 10
905.0
 20
1245.72
 30
0.0
 11
891.0
 21
1245.72
 31
0.0
  0
LINE
  5
276
100
AcDbEntity
  8
LAY-1
  6
CONTINUOUS
 62
     2
100
AcDbLine
 10
891.0
 20
1245.72
 30
0.0
 11
888.5
 21
1242.22
 31
0.0
  0
LINE
  5
277
100
AcDbEntity
  8
LAY-1
  6
CONTINUOUS
 62
     2
100
AcDbLine
 10
922.371438
 20
1230.091438
 30
0.0
 11
915.0
 21
1230.091438
 31
0.0
  0
LINE
  5
278
100
AcDbEntity
  8
LAY-1
  6
CONTINUOUS
 62
     2
100
AcDbLine
 10
922.371438
 20
1235.348562
 30
0.0
 11
915.0
 21
1235.348562
 31
0.0
  0
ARC
  5
279
100
AcDbEntity
  8
LAY-1
  6
CONTINUOUS
 62
     2
100
AcDbCircle
 10
922.371438
 20
1232.72
 30
0.0
 40
2.628562
100
AcDbArc
 50
270.0
 51
90.0
  0
LINE
  5
27A
100
AcDbEntity
  8
LAY-1
  6
CONTINUOUS
 62
     2
100
AcDbLine
 10
923.445911
 20
1260.22
 30
0.0
 11
915.5
 21
1260.22
 31
0.0
  0
ARC
  5
27B
100
AcDbEntity
  8
LAY-1
  6
CONTINUOUS
 62
     2
100
AcDbCircle
 10
923.445911
 20
1258.665911
 30
0.0
 40
1.554089
100
AcDbArc
 50
0.0
 51
90.0
  0
LINE
  5
27C
100
AcDbEntity
  8
LAY-1
  6
CONTINUOUS
 62
     2
100
AcDbLine
 10
925.0
 20
1258.665911
 30
0.0
 11
915.0
 21
1258.665911
 31
0.0
  0
LINE
  5
27D
100
AcDbEntity
  8
LAY-1
  6
CONTINUOUS
 62
     2
100
AcDbLine
 10
923.141326
 20
1249.207855
 30
0.0
 11
915.0
 21
1249.207855
 31
0.0
  0
LINE
  5
27E
100
AcDbEntity
  8
LAY-1
  6
CONTINUOUS
 62
     2
100
AcDbLine
 10
923.141326
 20
1252.925204
 30
0.0
 11
915.0
 21
1252.925204
 31
0.0
  0
ARC
  5
27F
100
AcDbEntity
  8
LAY-1
  6
CONTINUOUS
 62
     2
100
AcDbCircle
 10
923.141326
 20
1251.06653
 30
0.0
 40
1.858674
100
AcDbArc
 50
270.0
 51
90.0
  0
ARC
  5
280
100
AcDbEntity
  8
LAY-1
  6
CONTINUOUS
 62
     2
100
AcDbCircle
 10
915.5
 20
1259.72
 30
0.0
 40
0.5
100
AcDbArc
 50
90.0
 51
180.0
  0
LINE
  5
281
100
AcDbEntity
  8
LAY-1
  6
CONTINUOUS
 62
     2
100
AcDbLine
 10
911.5
 20
1221.22
 30
0.0
 11
906.0
 21
1221.22
 31
0.0
  0
LINE
  5
282
100
AcDbEntity
  8
LAY-1
  6
CONTINUOUS
 62
     2
100
AcDbLine
 10
923.445911
 20
1205.22
 30
0.0
 11
915.5
 21
1205.22
 31
0.0
  0
LINE
  5
283
100
AcDbEntity
  8
LAY-1
  6
CONTINUOUS
 62
     2
100
AcDbLine
 10
923.141326
 20
1216.232145
 30
0.0
 11
915.0
 21
1216.232145
 31
0.0
  0
LINE
  5
284
100
AcDbEntity
  8
LAY-1
  6
CONTINUOUS
 62
     2
100
AcDbLine
 10
923.141326
 20
1212.514796
 30
0.0
 11
915.0
 21
1212.514796
 31
0.0
  0
LINE
  5
285
100
AcDbEntity
  8
LAY-1
  6
CONTINUOUS
 62
     2
100
AcDbLine
 10
925.0
 20
1206.774089
 30
0.0
 11
915.0
 21
1206.774089
 31
0.0
  0
ARC
  5
286
100
AcDbEntity
  8
LAY-1
  6
CONTINUOUS
 62
     2
100
AcDbCircle
 10
923.141326
 20
1214.37347
 30
0.0
 40
1.858674
100
AcDbArc
 50
270.0
 51
90.0
  0
ARC
  5
287
100
AcDbEntity
  8
LAY-1
  6
CONTINUOUS
 62
     2
100
AcDbCircle
 10
923.445911
 20
1206.774089
 30
0.0
 40
1.554089
100
AcDbArc
 50
270.0
 51
0.0
  0
ARC
  5
288
100
AcDbEntity
  8
LAY-1
  6
CONTINUOUS
 62
     2
100
AcDbCircle
 10
915.5
 20
1205.72
 30
0.0
 40
0.5
100
AcDbArc
 50
180.0
 51
270.0
  0
LINE
  5
289
100
AcDbEntity
  8
LAY-1
  6
CONTINUOUS
 62
     2
100
AcDbLine
 10
906.0
 20
1221.22
 30
0.0
 11
906.0
 21
1244.22
 31
0.0
  0
ARC
  5
28A
100
AcDbEntity
  8
LAY-1
  6
CONTINUOUS
 62
     2
100
AcDbCircle
 10
904.1875
 20
1223.97
 30
0.0
 40
7.8125
100
AcDbArc
 50
339.390307
 51
20.609693
  0
LINE
  5
28B
100
AcDbEntity
  8
LAY-1
  6
CONTINUOUS
 62
     2
100
AcDbLine
 10
905.0
 20
1219.72
 30
0.0
 11
905.0
 21
1245.72
 31
0.0
  0
LINE
  5
28C
100
AcDbEntity
  8
LAY-1
  6
CONTINUOUS
 62
     2
100
AcDbLine
 10
925.0
 20
1206.774089
 30
0.0
 11
925.0
 21
1258.665911
 31
0.0
  0
LINE
  5
28D
100
AcDbEntity
  8
LAY-1
  6
CONTINUOUS
 62
     2
100
AcDbLine
 10
915.0
 20
1205.72
 30
0.0
 11
915.0
 21
1259.72
 31
0.0
  0
LINE
  5
28E
100
AcDbEntity
  8
LAY-1
  6
CONTINUOUS
 62
     2
100
AcDbLine
 10
888.5
 20
1221.143016
 30
0.0
 11
888.5
 21
1249.72
 31
0.0
  0
LINE
  5
28F
100
AcDbEntity
  8
LAY-1
  6
CONTINUOUS
 62
     2
100
AcDbLine
 10
905.0
 20
1219.72
 30
0.0
 11
892.811277
 21
1219.72
 31
0.0
  0
LINE
  5
290
100
AcDbEntity
  8
LAY-1
  6
CONTINUOUS
 62
     2
100
AcDbLine
 10
891.0
 20
1220.370877
 30
0.0
 11
891.0
 21
1245.72
 31
0.0
  0
LINE
  5
291
100
AcDbEntity
  8
LAY-1
  6
CONTINUOUS
 62
     2
100
AcDbLine
 10
890.391343
 20
1220.57212
 30
0.0
 11
888.5
 21
1223.22
 31
0.0
  0
LINE
  5
292
100
AcDbEntity
  8
LAY-1
  6
CONTINUOUS
 62
     2
100
AcDbLine
 10
861.5
 20
1221.143016
 30
0.0
 11
861.5
 21
1249.72
 31
0.0
  0
LINE
  5
293
100
AcDbEntity
  8
LAY-1
  6
EXLTYPE3
 62
     1
100
AcDbLine
 10
2000.5
 20
627.5
 30
0.0
 11
2000.5
 21
603.0
 31
0.0
  0
LINE
  5
294
100
AcDbEntity
  8
LAY-1
  6
EXLTYPE3
 62
     1
100
AcDbLine
 10
1840.5
 20
1403.0
 30
0.0
 11
1840.5
 21
563.0
 31
0.0
  0
LINE
  5
295
100
AcDbEntity
  8
LAY-1
  6
CONTINUOUS
 62
     1
100
AcDbLine
 10
1557.65
 20
1258.22
 30
0.0
 11
1557.65
 21
1254.053105
 31
0.0
  0
LINE
  5
296
100
AcDbEntity
  8
LAY-1
  6
CONTINUOUS
 62
     1
100
AcDbLine
 10
1559.15
 20
1260.22
 30
0.0
 11
1557.65
 21
1258.22
 31
0.0
  0
LINE
  5
297
100
AcDbEntity
  8
LAY-1
  6
CONTINUOUS
 62
     1
100
AcDbLine
 10
1543.35
 20
1258.22
 30
0.0
 11
1543.35
 21
1254.053105
 31
0.0
  0
LINE
  5
298
100
AcDbEntity
  8
LAY-1
  6
CONTINUOUS
 62
     1
100
AcDbLine
 10
1541.85
 20
1260.22
 30
0.0
 11
1543.35
 21
1258.22
 31
0.0
  0
LINE
  5
299
100
AcDbEntity
  8
LAY-1
  6
CONTINUOUS
 62
     2
100
AcDbLine
 10
1476.5
 20
1251.6
 30
0.0
 11
1530.610884
 21
1251.6
 31
0.0
  0
LINE
  5
29A
100
AcDbEntity
  8
LAY-1
  6
CONTINUOUS
 62
     2
100
AcDbLine
 10
1476.5
 20
1224.4
 30
0.0
 11
1529.758641
 21
1224.4
 31
0.0
  0
LINE
  5
29B
100
AcDbEntity
  8
LAY-1
  6
CONTINUOUS
 62
     2
100
AcDbLine
 10
1571.241359
 20
1224.4
 30
0.0
 11
1596.5
 21
1224.4
 31
0.0
  0
LINE
  5
29C
100
AcDbEntity
  8
LAY-1
  6
CONTINUOUS
 62
     2
100
AcDbLine
 10
1570.389116
 20
1251.6
 30
0.0
 11
1596.5
 21
1251.6
 31
0.0
  0
LINE
  5
29D
100
AcDbEntity
  8
LAY-1
  6
CONTINUOUS
 62
     2
100
AcDbLine
 10
1476.5
 20
1186.6
 30
0.0
 11
1596.5
 21
1186.6
 31
0.0
  0
LINE
  5
29E
100
AcDbEntity
  8
LAY-1
  6
CONTINUOUS
 62
     2
100
AcDbLine
 10
1476.5
 20
1159.4
 30
0.0
 11
1596.5
 21
1159.4
 31
0.0
  0
LINE
  5
29F
100
AcDbEntity
  8
LAY-1
  6
CONTINUOUS
 62
     2
100
AcDbLine
 10
1600.5
 20
1053.0
 30
0.0
 11
1600.5
 21
671.0
 31
0.0
  0
LINE
  5
2A0
100
AcDbEntity
  8
LAY-1
  6
CONTINUOUS
 62
     2
100
AcDbLine
 10
2080.5
 20
1053.0
 30
0.0
 11
2080.5
 21
671.0
 31
0.0
  0
LINE
  5
2A1
100
AcDbEntity
  8
LAY-1
  6
CONTINUOUS
 62
     2
100
AcDbLine
 10
1630.5
 20
671.0
 30
0.0
 11
1630.5
 21
617.5
 31
0.0
  0
LINE
  5
2A2
100
AcDbEntity
  8
LAY-1
  6
CONTINUOUS
 62
     2
100
AcDbLine
 10
2050.5
 20
671.0
 30
0.0
 11
2050.5
 21
617.5
 31
0.0
  0
LINE
  5
2A3
100
AcDbEntity
  8
LAY-1
  6
CONTINUOUS
 62
     2
100
AcDbLine
 10
1590.5
 20
617.5
 30
0.0
 11
2090.5
 21
617.5
 31
0.0
  0
LINE
  5
2A4
100
AcDbEntity
  8
LAY-1
  6
CONTINUOUS
 62
     2
100
AcDbLine
 10
1590.5
 20
617.5
 30
0.0
 11
1590.5
 21
613.0
 31
0.0
  0
LINE
  5
2A5
100
AcDbEntity
  8
LAY-1
  6
CONTINUOUS
 62
     2
100
AcDbLine
 10
2090.5
 20
617.5
 30
0.0
 11
2090.5
 21
613.0
 31
0.0
  0
LINE
  5
2A6
100
AcDbEntity
  8
LAY-1
  6
CONTINUOUS
 62
     2
100
AcDbLine
 10
1590.5
 20
613.0
 30
0.0
 11
2090.5
 21
613.0
 31
0.0
  0
LINE
  5
2A7
100
AcDbEntity
  8
LAY-1
  6
CONTINUOUS
 62
     2
100
AcDbLine
 10
1936.5
 20
1053.0
 30
0.0
 11
2084.5
 21
1053.0
 31
0.0
  0
LINE
  5
2A8
100
AcDbEntity
  8
LAY-1
  6
CONTINUOUS
 62
     2
100
AcDbLine
 10
1896.5
 20
1114.319549
 30
0.0
 11
1896.5
 21
1053.0
 31
0.0
  0
LINE
  5
2A9
100
AcDbEntity
  8
LAY-1
  6
CONTINUOUS
 62
     2
100
AcDbLine
 10
1936.5
 20
1114.319549
 30
0.0
 11
1936.5
 21
1053.0
 31
0.0
  0
LINE
  5
2AA
100
AcDbEntity
  8
LAY-1
  6
CONTINUOUS
 62
     2
100
AcDbLine
 10
1596.5
 20
1053.0
 30
0.0
 11
1896.5
 21
1053.0
 31
0.0
  0
LINE
  5
2AB
100
AcDbEntity
  8
LAY-1
  6
CONTINUOUS
 62
     2
100
AcDbLine
 10
1596.5
 20
1353.0
 30
0.0
 11
1596.5
 21
1053.0
 31
0.0
  0
LINE
  5
2AC
100
AcDbEntity
  8
LAY-1
  6
CONTINUOUS
 62
     2
100
AcDbLine
 10
2084.5
 20
1353.0
 30
0.0
 11
2084.5
 21
1053.0
 31
0.0
  0
LINE
  5
2AD
100
AcDbEntity
  8
LAY-1
  6
CONTINUOUS
 62
     2
100
AcDbLine
 10
1596.5
 20
1353.0
 30
0.0
 11
2084.5
 21
1353.0
 31
0.0
  0
LINE
  5
2AE
100
AcDbEntity
  8
LAY-1
  6
CONTINUOUS
 62
     2
100
AcDbLine
 10
1692.5
 20
1369.6
 30
0.0
 11
1710.5
 21
1369.6
 31
0.0
  0
LINE
  5
2AF
100
AcDbEntity
  8
LAY-1
  6
CONTINUOUS
 62
     2
100
AcDbLine
 10
1692.5
 20
1356.2
 30
0.0
 11
1710.5
 21
1356.2
 31
0.0
  0
LINE
  5
2B0
100
AcDbEntity
  8
LAY-1
  6
CONTINUOUS
 62
     2
100
AcDbLine
 10
1692.5
 20
1369.6
 30
0.0
 11
1692.5
 21
1354.6
 31
0.0
  0
LINE
  5
2B1
100
AcDbEntity
  8
LAY-1
  6
CONTINUOUS
 62
     2
100
AcDbLine
 10
1710.5
 20
1369.6
 30
0.0
 11
1710.5
 21
1354.6
 31
0.0
  0
LINE
  5
2B2
100
AcDbEntity
  8
LAY-1
  6
CONTINUOUS
 62
     2
100
AcDbLine
 10
1631.5
 20
1354.6
 30
0.0
 11
1771.5
 21
1354.6
 31
0.0
  0
LINE
  5
2B3
100
AcDbEntity
  8
LAY-1
  6
CONTINUOUS
 62
     2
100
AcDbLine
 10
1771.5
 20
1354.6
 30
0.0
 11
1771.5
 21
1353.0
 31
0.0
  0
LINE
  5
2B4
100
AcDbEntity
  8
LAY-1
  6
CONTINUOUS
 62
     2
100
AcDbLine
 10
1794.5
 20
1368.0
 30
0.0
 11
1810.5
 21
1368.0
 31
0.0
  0
LINE
  5
2B5
100
AcDbEntity
  8
LAY-1
  6
CONTINUOUS
 62
     2
100
AcDbLine
 10
1798.5
 20
1373.0
 30
0.0
 11
1806.5
 21
1373.0
 31
0.0
  0
LINE
  5
2B6
100
AcDbEntity
  8
LAY-1
  6
CONTINUOUS
 62
     2
100
AcDbLine
 10
1810.5
 20
1368.0
 30
0.0
 11
1812.5
 21
1353.0
 31
0.0
  0
LINE
  5
2B7
100
AcDbEntity
  8
LAY-1
  6
CONTINUOUS
 62
     2
100
AcDbLine
 10
1806.5
 20
1373.0
 30
0.0
 11
1810.5
 21
1368.0
 31
0.0
  0
LINE
  5
2B8
100
AcDbEntity
  8
LAY-1
  6
CONTINUOUS
 62
     2
100
AcDbLine
 10
1794.5
 20
1368.0
 30
0.0
 11
1792.5
 21
1353.0
 31
0.0
  0
LINE
  5
2B9
100
AcDbEntity
  8
LAY-1
  6
CONTINUOUS
 62
     2
100
AcDbLine
 10
1798.5
 20
1373.0
 30
0.0
 11
1794.5
 21
1368.0
 31
0.0
  0
ARC
  5
2BA
100
AcDbEntity
  8
LAY-1
  6
CONTINUOUS
 62
     2
100
AcDbCircle
 10
1802.5
 20
1397.5
 30
0.0
 40
4.0
100
AcDbArc
 50
0.0
 51
180.0
  0
LINE
  5
2BB
100
AcDbEntity
  8
LAY-1
  6
CONTINUOUS
 62
     2
100
AcDbLine
 10
1798.5
 20
1397.5
 30
0.0
 11
1798.5
 21
1373.0
 31
0.0
  0
LINE
  5
2BC
100
AcDbEntity
  8
LAY-1
  6
CONTINUOUS
 62
     2
100
AcDbLine
 10
1806.5
 20
1397.5
 30
0.0
 11
1806.5
 21
1373.0
 31
0.0
  0
LINE
  5
2BD
100
AcDbEntity
  8
LAY-1
  6
CONTINUOUS
 62
     2
100
AcDbLine
 10
1476.5
 20
1223.0
 30
0.0
 11
1476.5
 21
1288.0
 31
0.0
  0
LINE
  5
2BE
100
AcDbEntity
  8
LAY-1
  6
CONTINUOUS
 62
     2
100
AcDbLine
 10
1462.5
 20
1223.0
 30
0.0
 11
1462.5
 21
1288.0
 31
0.0
  0
LINE
  5
2BF
100
AcDbEntity
  8
LAY-1
  6
CONTINUOUS
 62
     2
100
AcDbLine
 10
1476.5
 20
1288.0
 30
0.0
 11
1462.5
 21
1288.0
 31
0.0
  0
LINE
  5
2C0
100
AcDbEntity
  8
LAY-1
  6
CONTINUOUS
 62
     2
100
AcDbLine
 10
1462.5
 20
1266.0
 30
0.0
 11
1461.5
 21
1266.0
 31
0.0
  0
LINE
  5
2C1
100
AcDbEntity
  8
LAY-1
  6
CONTINUOUS
 62
     2
100
AcDbLine
 10
1461.5
 20
1266.0
 30
0.0
 11
1461.5
 21
1223.0
 31
0.0
  0
LINE
  5
2C2
100
AcDbEntity
  8
LAY-1
  6
CONTINUOUS
 62
     2
100
AcDbLine
 10
1461.5
 20
1223.0
 30
0.0
 11
1461.5
 21
1123.0
 31
0.0
  0
LINE
  5
2C3
100
AcDbEntity
  8
LAY-1
  6
CONTINUOUS
 62
     2
100
AcDbLine
 10
1476.5
 20
1223.0
 30
0.0
 11
1476.5
 21
1123.0
 31
0.0
  0
LINE
  5
2C4
100
AcDbEntity
  8
LAY-1
  6
CONTINUOUS
 62
     2
100
AcDbLine
 10
1461.5
 20
1123.0
 30
0.0
 11
1476.5
 21
1123.0
 31
0.0
  0
LINE
  5
2C5
100
AcDbEntity
  8
LAY-1
  6
CONTINUOUS
 62
     2
100
AcDbLine
 10
1461.5
 20
1223.0
 30
0.0
 11
1476.5
 21
1223.0
 31
0.0
  0
LINE
  5
2C6
100
AcDbEntity
  8
LAY-1
  6
CONTINUOUS
 62
     2
100
AcDbLine
 10
1460.5
 20
1201.0
 30
0.0
 11
1461.5
 21
1201.0
 31
0.0
  0
LINE
  5
2C7
100
AcDbEntity
  8
LAY-1
  6
CONTINUOUS
 62
     2
100
AcDbLine
 10
1460.5
 20
1201.0
 30
0.0
 11
1460.5
 21
1145.0
 31
0.0
  0
LINE
  5
2C8
100
AcDbEntity
  8
LAY-1
  6
CONTINUOUS
 62
     2
100
AcDbLine
 10
1460.5
 20
1145.0
 30
0.0
 11
1461.5
 21
1145.0
 31
0.0
  0
LINE
  5
2C9
100
AcDbEntity
  8
LAY-1
  6
CONTINUOUS
 62
     2
100
AcDbLine
 10
1534.340743
 20
1238.0
 30
0.0
 11
1534.556851
 21
1238.0
 31
0.0
  0
LINE
  5
2CA
100
AcDbEntity
  8
LAY-1
  6
CONTINUOUS
 62
     2
100
AcDbLine
 10
1566.443149
 20
1238.0
 30
0.0
 11
1566.659257
 21
1238.0
 31
0.0
  0
LINE
  5
2CB
100
AcDbEntity
  8
LAY-1
  6
CONTINUOUS
 62
     2
100
AcDbLine
 10
1553.386467
 20
1258.22
 30
0.0
 11
1559.15
 21
1258.22
 31
0.0
  0
ARC
  5
2CC
100
AcDbEntity
  8
LAY-1
  6
CONTINUOUS
 62
     2
100
AcDbCircle
 10
1563.25
 20
1269.75125
 30
0.0
 40
9.53125
100
AcDbArc
 50
243.51896
 51
296.48104
  0
ARC
  5
2CD
100
AcDbEntity
  8
LAY-1
  6
CONTINUOUS
 62
     2
100
AcDbCircle
 10
1550.5
 20
1296.845
 30
0.0
 40
36.625
100
AcDbArc
 50
256.580326
 51
283.419674
  0
ARC
  5
2CE
100
AcDbEntity
  8
LAY-1
  6
CONTINUOUS
 62
     2
100
AcDbCircle
 10
1537.75
 20
1269.75125
 30
0.0
 40
9.53125
100
AcDbArc
 50
243.51896
 51
296.48104
  0
LINE
  5
2CF
100
AcDbEntity
  8
LAY-1
  6
CONTINUOUS
 62
     2
100
AcDbLine
 10
1567.5
 20
1261.22
 30
0.0
 11
1567.5
 21
1304.22
 31
0.0
  0
LINE
  5
2D0
100
AcDbEntity
  8
LAY-1
  6
CONTINUOUS
 62
     2
100
AcDbLine
 10
1533.5
 20
1261.22
 30
0.0
 11
1533.5
 21
1304.22
 31
0.0
  0
LINE
  5
2D1
100
AcDbEntity
  8
LAY-1
  6
CONTINUOUS
 62
     2
100
AcDbLine
 10
1542.0
 20
1261.22
 30
0.0
 11
1542.0
 21
1304.22
 31
0.0
  0
LINE
  5
2D2
100
AcDbEntity
  8
LAY-1
  6
CONTINUOUS
 62
     2
100
AcDbLine
 10
1559.0
 20
1261.22
 30
0.0
 11
1559.0
 21
1304.22
 31
0.0
  0
LINE
  5
2D3
100
AcDbEntity
  8
LAY-1
  6
CONTINUOUS
 62
     2
100
AcDbLine
 10
1559.15
 20
1260.22
 30
0.0
 11
1559.15
 21
1253.322354
 31
0.0
  0
LINE
  5
2D4
100
AcDbEntity
  8
LAY-1
  6
CONTINUOUS
 62
     2
100
AcDbLine
 10
1541.85
 20
1260.22
 30
0.0
 11
1541.85
 21
1253.322354
 31
0.0
  0
LINE
  5
2D5
100
AcDbEntity
  8
LAY-1
  6
CONTINUOUS
 62
     2
100
AcDbLine
 10
1541.85
 20
1258.22
 30
0.0
 11
1547.613533
 21
1258.22
 31
0.0
  0
LINE
  5
2D6
100
AcDbEntity
  8
LAY-1
  6
CONTINUOUS
 62
     2
100
AcDbLine
 10
1537.75
 20
1260.22
 30
0.0
 11
1563.25
 21
1260.22
 31
0.0
  0
LINE
  5
2D7
100
AcDbEntity
  8
LAY-1
  6
CONTINUOUS
 62
     2
100
AcDbLine
 10
1541.32
 20
1199.56
 30
0.0
 11
1559.68
 21
1199.56
 31
0.0
  0
LINE
  5
2D8
100
AcDbEntity
  8
LAY-1
  6
CONTINUOUS
 62
     2
100
AcDbLine
 10
1564.455286
 20
1229.22
 30
0.0
 11
1556.0
 21
1229.22
 31
0.0
  0
LINE
  5
2D9
100
AcDbEntity
  8
LAY-1
  6
CONTINUOUS
 62
     2
100
AcDbLine
 10
1554.0
 20
1227.22
 30
0.0
 11
1554.0
 21
1218.764714
 31
0.0
  0
ARC
  5
2DA
100
AcDbEntity
  8
LAY-1
  6
CONTINUOUS
 62
     2
100
AcDbCircle
 10
1556.0
 20
1218.764714
 30
0.0
 40
2.0
100
AcDbArc
 50
180.0
 51
291.510188
  0
ARC
  5
2DB
100
AcDbEntity
  8
LAY-1
  6
CONTINUOUS
 62
     2
100
AcDbCircle
 10
1556.0
 20
1227.22
 30
0.0
 40
2.0
100
AcDbArc
 50
90.0
 51
180.0
  0
ARC
  5
2DC
100
AcDbEntity
  8
LAY-1
  6
CONTINUOUS
 62
     2
100
AcDbCircle
 10
1564.455286
 20
1227.22
 30
0.0
 40
2.0
100
AcDbArc
 50
338.489812
 51
90.0
  0
LINE
  5
2DD
100
AcDbEntity
  8
LAY-1
  6
CONTINUOUS
 62
     2
100
AcDbLine
 10
1547.0
 20
1218.764714
 30
0.0
 11
1547.0
 21
1227.22
 31
0.0
  0
LINE
  5
2DE
100
AcDbEntity
  8
LAY-1
  6
CONTINUOUS
 62
     2
100
AcDbLine
 10
1545.0
 20
1229.22
 30
0.0
 11
1536.544714
 21
1229.22
 31
0.0
  0
ARC
  5
2DF
100
AcDbEntity
  8
LAY-1
  6
CONTINUOUS
 62
     2
100
AcDbCircle
 10
1536.544714
 20
1227.22
 30
0.0
 40
2.0
100
AcDbArc
 50
90.0
 51
201.510188
  0
ARC
  5
2E0
100
AcDbEntity
  8
LAY-1
  6
CONTINUOUS
 62
     2
100
AcDbCircle
 10
1545.0
 20
1227.22
 30
0.0
 40
2.0
100
AcDbArc
 50
0.0
 51
90.0
  0
ARC
  5
2E1
100
AcDbEntity
  8
LAY-1
  6
CONTINUOUS
 62
     2
100
AcDbCircle
 10
1545.0
 20
1218.764714
 30
0.0
 40
2.0
100
AcDbArc
 50
248.489812
 51
0.0
  0
LINE
  5
2E2
100
AcDbEntity
  8
LAY-1
  6
CONTINUOUS
 62
     2
100
AcDbLine
 10
1536.544714
 20
1236.22
 30
0.0
 11
1545.0
 21
1236.22
 31
0.0
  0
LINE
  5
2E3
100
AcDbEntity
  8
LAY-1
  6
CONTINUOUS
 62
     2
100
AcDbLine
 10
1547.0
 20
1238.22
 30
0.0
 11
1547.0
 21
1246.675286
 31
0.0
  0
ARC
  5
2E4
100
AcDbEntity
  8
LAY-1
  6
CONTINUOUS
 62
     2
100
AcDbCircle
 10
1545.0
 20
1246.675286
 30
0.0
 40
2.0
100
AcDbArc
 50
0.0
 51
111.510188
  0
ARC
  5
2E5
100
AcDbEntity
  8
LAY-1
  6
CONTINUOUS
 62
     2
100
AcDbCircle
 10
1545.0
 20
1238.22
 30
0.0
 40
2.0
100
AcDbArc
 50
270.0
 51
0.0
  0
ARC
  5
2E6
100
AcDbEntity
  8
LAY-1
  6
CONTINUOUS
 62
     2
100
AcDbCircle
 10
1536.544714
 20
1238.22
 30
0.0
 40
2.0
100
AcDbArc
 50
158.489812
 51
270.0
  0
ARC
  5
2E7
100
AcDbEntity
  8
LAY-1
  6
CONTINUOUS
 62
     2
100
AcDbCircle
 10
1564.455286
 20
1238.22
 30
0.0
 40
2.0
100
AcDbArc
 50
270.0
 51
21.510188
  0
ARC
  5
2E8
100
AcDbEntity
  8
LAY-1
  6
CONTINUOUS
 62
     2
100
AcDbCircle
 10
1556.0
 20
1238.22
 30
0.0
 40
2.0
100
AcDbArc
 50
180.0
 51
270.0
  0
ARC
  5
2E9
100
AcDbEntity
  8
LAY-1
  6
CONTINUOUS
 62
     2
100
AcDbCircle
 10
1556.0
 20
1246.675286
 30
0.0
 40
2.0
100
AcDbArc
 50
68.489812
 51
180.0
  0
LINE
  5
2EA
100
AcDbEntity
  8
LAY-1
  6
CONTINUOUS
 62
     2
100
AcDbLine
 10
1556.0
 20
1236.22
 30
0.0
 11
1564.455286
 21
1236.22
 31
0.0
  0
LINE
  5
2EB
100
AcDbEntity
  8
LAY-1
  6
CONTINUOUS
 62
     2
100
AcDbLine
 10
1554.0
 20
1246.675286
 30
0.0
 11
1554.0
 21
1238.22
 31
0.0
  0
ARC
  5
2EC
100
AcDbEntity
  8
LAY-1
  6
CONTINUOUS
 62
     2
100
AcDbCircle
 10
1563.642812
 20
1264.449556
 30
0.0
 40
12.0
100
AcDbArc
 50
208.814171
 51
286.185829
  0
ARC
  5
2ED
100
AcDbEntity
  8
LAY-1
  6
CONTINUOUS
 62
     2
100
AcDbCircle
 10
1582.229556
 20
1245.862812
 30
0.0
 40
12.0
100
AcDbArc
 50
163.814171
 51
241.185829
  0
ARC
  5
2EE
100
AcDbEntity
  8
LAY-1
  6
CONTINUOUS
 62
     2
100
AcDbCircle
 10
1582.229556
 20
1219.577188
 30
0.0
 40
12.0
100
AcDbArc
 50
118.814171
 51
196.185829
  0
ARC
  5
2EF
100
AcDbEntity
  8
LAY-1
  6
CONTINUOUS
 62
     2
100
AcDbCircle
 10
1563.642812
 20
1200.990444
 30
0.0
 40
12.0
100
AcDbArc
 50
73.814171
 51
151.185829
  0
ARC
  5
2F0
100
AcDbEntity
  8
LAY-1
  6
CONTINUOUS
 62
     2
100
AcDbCircle
 10
1537.357188
 20
1200.990444
 30
0.0
 40
12.0
100
AcDbArc
 50
28.814171
 51
106.185829
  0
ARC
  5
2F1
100
AcDbEntity
  8
LAY-1
  6
CONTINUOUS
 62
     2
100
AcDbCircle
 10
1518.770444
 20
1219.577188
 30
0.0
 40
12.0
100
AcDbArc
 50
343.814171
 51
61.185829
  0
ARC
  5
2F2
100
AcDbEntity
  8
LAY-1
  6
CONTINUOUS
 62
     2
100
AcDbCircle
 10
1518.770444
 20
1245.862812
 30
0.0
 40
12.0
100
AcDbArc
 50
298.814171
 51
16.185829
  0
ARC
  5
2F3
100
AcDbEntity
  8
LAY-1
  6
CONTINUOUS
 62
     2
100
AcDbCircle
 10
1537.357188
 20
1264.449556
 30
0.0
 40
12.0
100
AcDbArc
 50
253.814171
 51
331.185829
  0
ARC
  5
2F4
100
AcDbEntity
  8
LAY-1
  6
CONTINUOUS
 62
     2
100
AcDbCircle
 10
1567.824116
 20
1250.044116
 30
0.0
 40
3.0
100
AcDbArc
 50
343.814171
 51
106.185829
  0
ARC
  5
2F5
100
AcDbEntity
  8
LAY-1
  6
CONTINUOUS
 62
     2
100
AcDbCircle
 10
1575.0
 20
1232.72
 30
0.0
 40
3.0
100
AcDbArc
 50
298.814171
 51
61.185829
  0
ARC
  5
2F6
100
AcDbEntity
  8
LAY-1
  6
CONTINUOUS
 62
     2
100
AcDbCircle
 10
1567.824116
 20
1215.395884
 30
0.0
 40
3.0
100
AcDbArc
 50
253.814171
 51
16.185829
  0
ARC
  5
2F7
100
AcDbEntity
  8
LAY-1
  6
CONTINUOUS
 62
     2
100
AcDbCircle
 10
1550.5
 20
1208.22
 30
0.0
 40
3.0
100
AcDbArc
 50
208.814171
 51
331.185829
  0
ARC
  5
2F8
100
AcDbEntity
  8
LAY-1
  6
CONTINUOUS
 62
     2
100
AcDbCircle
 10
1533.175884
 20
1215.395884
 30
0.0
 40
3.0
100
AcDbArc
 50
163.814171
 51
286.185829
  0
ARC
  5
2F9
100
AcDbEntity
  8
LAY-1
  6
CONTINUOUS
 62
     2
100
AcDbCircle
 10
1526.0
 20
1232.72
 30
0.0
 40
3.0
100
AcDbArc
 50
118.814171
 51
241.185829
  0
ARC
  5
2FA
100
AcDbEntity
  8
LAY-1
  6
CONTINUOUS
 62
     2
100
AcDbCircle
 10
1533.175884
 20
1250.044116
 30
0.0
 40
3.0
100
AcDbArc
 50
73.814171
 51
196.185829
  0
ARC
  5
2FB
100
AcDbEntity
  8
LAY-1
  6
CONTINUOUS
 62
     2
100
AcDbCircle
 10
1550.5
 20
1257.22
 30
0.0
 40
3.0
100
AcDbArc
 50
28.814171
 51
151.185829
  0
CIRCLE
  5
2FC
100
AcDbEntity
  8
LAY-1
  6
CONTINUOUS
 62
     2
100
AcDbCircle
 10
1550.5
 20
1232.72
 30
0.0
 40
17.0
  0
CIRCLE
  5
2FD
100
AcDbEntity
  8
LAY-1
  6
CONTINUOUS
 62
     2
100
AcDbCircle
 10
1550.5
 20
1232.72
 30
0.0
 40
5.0
  0
CIRCLE
  5
2FE
100
AcDbEntity
  8
LAY-1
  6
CONTINUOUS
 62
     2
100
AcDbCircle
 10
1550.5
 20
1232.72
 30
0.0
 40
3.0
  0
LINE
  5
2FF
100
AcDbEntity
  8
LAY-1
  6
CONTINUOUS
 62
     2
100
AcDbLine
 10
1560.76
 20
1190.92
 30
0.0
 11
1565.08
 21
1186.6
 31
0.0
  0
LINE
  5
300
100
AcDbEntity
  8
LAY-1
  6
CONTINUOUS
 62
     2
100
AcDbLine
 10
1540.24
 20
1190.92
 30
0.0
 11
1535.92
 21
1186.6
 31
0.0
  0
LINE
  5
301
100
AcDbEntity
  8
LAY-1
  6
CONTINUOUS
 62
     2
100
AcDbLine
 10
1559.68
 20
1199.56
 30
0.0
 11
1560.76
 21
1199.02
 31
0.0
  0
LINE
  5
302
100
AcDbEntity
  8
LAY-1
  6
CONTINUOUS
 62
     2
100
AcDbLine
 10
1560.76
 20
1190.92
 30
0.0
 11
1560.76
 21
1199.02
 31
0.0
  0
LINE
  5
303
100
AcDbEntity
  8
LAY-1
  6
CONTINUOUS
 62
     2
100
AcDbLine
 10
1541.32
 20
1199.56
 30
0.0
 11
1540.24
 21
1199.02
 31
0.0
  0
LINE
  5
304
100
AcDbEntity
  8
LAY-1
  6
CONTINUOUS
 62
     2
100
AcDbLine
 10
1540.24
 20
1190.92
 30
0.0
 11
1540.24
 21
1199.02
 31
0.0
  0
LINE
  5
305
100
AcDbEntity
  8
LAY-1
  6
CONTINUOUS
 62
     2
100
AcDbLine
 10
1560.76
 20
1190.92
 30
0.0
 11
1540.24
 21
1190.92
 31
0.0
  0
LINE
  5
306
100
AcDbEntity
  8
LAY-1
  6
CONTINUOUS
 62
     2
100
AcDbLine
 10
1540.24
 20
1199.02
 30
0.0
 11
1560.76
 21
1199.02
 31
0.0
  0
LINE
  5
307
100
AcDbEntity
  8
LAY-1
  6
CONTINUOUS
 62
     2
100
AcDbLine
 10
1541.32
 20
1199.56
 30
0.0
 11
1541.786047
 21
1212.143256
 31
0.0
  0
LINE
  5
308
100
AcDbEntity
  8
LAY-1
  6
CONTINUOUS
 62
     2
100
AcDbLine
 10
1559.68
 20
1199.56
 30
0.0
 11
1559.213953
 21
1212.143256
 31
0.0
  0
LINE
  5
309
100
AcDbEntity
  8
LAY-1
  6
CONTINUOUS
 62
     2
100
AcDbLine
 10
1551.887227
 20
1205.56
 30
0.0
 11
1559.457778
 21
1205.56
 31
0.0
  0
LINE
  5
30A
100
AcDbEntity
  8
LAY-1
  6
CONTINUOUS
 62
     2
100
AcDbLine
 10
1541.542222
 20
1205.56
 30
0.0
 11
1549.112773
 21
1205.56
 31
0.0
  0
LINE
  5
30B
100
AcDbEntity
  8
LAY-1
  6
CONTINUOUS
 62
     2
100
AcDbLine
 10
1541.468148
 20
1203.56
 30
0.0
 11
1559.531852
 21
1203.56
 31
0.0
  0
LINE
  5
30C
100
AcDbEntity
  8
LAY-1
  6
CONTINUOUS
 62
     2
100
AcDbLine
 10
1541.394074
 20
1201.56
 30
0.0
 11
1559.605926
 21
1201.56
 31
0.0
  0
LINE
  5
30D
100
AcDbEntity
  8
LAY-1
  6
CONTINUOUS
 62
     2
100
AcDbLine
 10
1631.5
 20
1354.6
 30
0.0
 11
1631.5
 21
1353.0
 31
0.0
  0
ARC
  5
30E
100
AcDbEntity
  8
LAY-1
  6
CONTINUOUS
 62
     2
100
AcDbCircle
 10
1563.25
 20
1295.68875
 30
0.0
 40
9.53125
100
AcDbArc
 50
63.51896
 51
116.48104
  0
ARC
  5
30F
100
AcDbEntity
  8
LAY-1
  6
CONTINUOUS
 62
     2
100
AcDbCircle
 10
1550.5
 20
1268.595
 30
0.0
 40
36.625
100
AcDbArc
 50
76.580326
 51
103.419674
  0
ARC
  5
310
100
AcDbEntity
  8
LAY-1
  6
CONTINUOUS
 62
     2
100
AcDbCircle
 10
1537.75
 20
1295.68875
 30
0.0
 40
9.53125
100
AcDbArc
 50
63.51896
 51
116.48104
  0
LINE
  5
311
100
AcDbEntity
  8
LAY-1
  6
CONTINUOUS
 62
     2
100
AcDbLine
 10
1567.5
 20
1306.22
 30
0.0
 11
1567.5
 21
1329.22
 31
0.0
  0
ARC
  5
312
100
AcDbEntity
  8
LAY-1
  6
CONTINUOUS
 62
     2
100
AcDbCircle
 10
1563.25
 20
1314.75125
 30
0.0
 40
9.53125
100
AcDbArc
 50
243.51896
 51
296.48104
  0
ARC
  5
313
100
AcDbEntity
  8
LAY-1
  6
CONTINUOUS
 62
     2
100
AcDbCircle
 10
1550.5
 20
1341.845
 30
0.0
 40
36.625
100
AcDbArc
 50
256.580326
 51
283.419674
  0
ARC
  5
314
100
AcDbEntity
  8
LAY-1
  6
CONTINUOUS
 62
     2
100
AcDbCircle
 10
1537.75
 20
1314.75125
 30
0.0
 40
9.53125
100
AcDbArc
 50
243.51896
 51
296.48104
  0
LINE
  5
315
100
AcDbEntity
  8
LAY-1
  6
CONTINUOUS
 62
     2
100
AcDbLine
 10
1537.75
 20
1305.22
 30
0.0
 11
1563.25
 21
1305.22
 31
0.0
  0
LINE
  5
316
100
AcDbEntity
  8
LAY-1
  6
CONTINUOUS
 62
     2
100
AcDbLine
 10
1533.5
 20
1329.22
 30
0.0
 11
1533.5
 21
1306.22
 31
0.0
  0
LINE
  5
317
100
AcDbEntity
  8
LAY-1
  6
CONTINUOUS
 62
     2
100
AcDbLine
 10
1542.0
 20
1329.22
 30
0.0
 11
1542.0
 21
1306.22
 31
0.0
  0
LINE
  5
318
100
AcDbEntity
  8
LAY-1
  6
CONTINUOUS
 62
     2
100
AcDbLine
 10
1559.0
 20
1329.22
 30
0.0
 11
1559.0
 21
1306.22
 31
0.0
  0
LINE
  5
319
100
AcDbEntity
  8
LAY-1
  6
CONTINUOUS
 62
     2
100
AcDbLine
 10
1566.35
 20
1630.22
 30
0.0
 11
1566.35
 21
1595.22
 31
0.0
  0
LINE
  5
31A
100
AcDbEntity
  8
LAY-1
  6
CONTINUOUS
 62
     2
100
AcDbLine
 10
1534.65
 20
1630.22
 30
0.0
 11
1534.65
 21
1595.22
 31
0.0
  0
LINE
  5
31B
100
AcDbEntity
  8
LAY-1
  6
CONTINUOUS
 62
     2
100
AcDbLine
 10
1534.65
 20
1595.22
 30
0.0
 11
1566.35
 21
1595.22
 31
0.0
  0
LINE
  5
31C
100
AcDbEntity
  8
LAY-1
  6
CONTINUOUS
 62
     2
100
AcDbLine
 10
1534.65
 20
1630.22
 30
0.0
 11
1566.35
 21
1630.22
 31
0.0
  0
LINE
  5
31D
100
AcDbEntity
  8
LAY-1
  6
CONTINUOUS
 62
     2
100
AcDbLine
 10
1539.65
 20
1595.22
 30
0.0
 11
1539.65
 21
1330.22
 31
0.0
  0
LINE
  5
31E
100
AcDbEntity
  8
LAY-1
  6
CONTINUOUS
 62
     2
100
AcDbLine
 10
1561.35
 20
1595.22
 30
0.0
 11
1561.35
 21
1330.22
 31
0.0
  0
ARC
  5
31F
100
AcDbEntity
  8
LAY-1
  6
CONTINUOUS
 62
     2
100
AcDbCircle
 10
1563.25
 20
1320.68875
 30
0.0
 40
9.53125
100
AcDbArc
 50
63.51896
 51
116.48104
  0
ARC
  5
320
100
AcDbEntity
  8
LAY-1
  6
CONTINUOUS
 62
     2
100
AcDbCircle
 10
1550.5
 20
1293.595
 30
0.0
 40
36.625
100
AcDbArc
 50
76.580326
 51
103.419674
  0
ARC
  5
321
100
AcDbEntity
  8
LAY-1
  6
CONTINUOUS
 62
     2
100
AcDbCircle
 10
1537.75
 20
1320.68875
 30
0.0
 40
9.53125
100
AcDbArc
 50
63.51896
 51
116.48104
  0
LINE
  5
322
100
AcDbEntity
  8
LAY-1
  6
CONTINUOUS
 62
     2
100
AcDbLine
 10
1537.75
 20
1330.22
 30
0.0
 11
1563.25
 21
1330.22
 31
0.0
  0
LINE
  5
323
100
AcDbEntity
  8
LAY-1
  6
CONTINUOUS
 62
     2
100
AcDbLine
 10
1930.455286
 20
1129.5
 30
0.0
 11
1922.0
 21
1129.5
 31
0.0
  0
LINE
  5
324
100
AcDbEntity
  8
LAY-1
  6
CONTINUOUS
 62
     2
100
AcDbLine
 10
1920.0
 20
1127.5
 30
0.0
 11
1920.0
 21
1119.044714
 31
0.0
  0
ARC
  5
325
100
AcDbEntity
  8
LAY-1
  6
CONTINUOUS
 62
     2
100
AcDbCircle
 10
1922.0
 20
1119.044714
 30
0.0
 40
2.0
100
AcDbArc
 50
180.0
 51
291.510188
  0
ARC
  5
326
100
AcDbEntity
  8
LAY-1
  6
CONTINUOUS
 62
     2
100
AcDbCircle
 10
1922.0
 20
1127.5
 30
0.0
 40
2.0
100
AcDbArc
 50
90.0
 51
180.0
  0
ARC
  5
327
100
AcDbEntity
  8
LAY-1
  6
CONTINUOUS
 62
     2
100
AcDbCircle
 10
1930.455286
 20
1127.5
 30
0.0
 40
2.0
100
AcDbArc
 50
338.489812
 51
90.0
  0
LINE
  5
328
100
AcDbEntity
  8
LAY-1
  6
CONTINUOUS
 62
     2
100
AcDbLine
 10
1913.0
 20
1119.044714
 30
0.0
 11
1913.0
 21
1127.5
 31
0.0
  0
LINE
  5
329
100
AcDbEntity
  8
LAY-1
  6
CONTINUOUS
 62
     2
100
AcDbLine
 10
1911.0
 20
1129.5
 30
0.0
 11
1902.544714
 21
1129.5
 31
0.0
  0
ARC
  5
32A
100
AcDbEntity
  8
LAY-1
  6
CONTINUOUS
 62
     2
100
AcDbCircle
 10
1902.544714
 20
1127.5
 30
0.0
 40
2.0
100
AcDbArc
 50
90.0
 51
201.510188
  0
ARC
  5
32B
100
AcDbEntity
  8
LAY-1
  6
CONTINUOUS
 62
     2
100
AcDbCircle
 10
1911.0
 20
1127.5
 30
0.0
 40
2.0
100
AcDbArc
 50
0.0
 51
90.0
  0
ARC
  5
32C
100
AcDbEntity
  8
LAY-1
  6
CONTINUOUS
 62
     2
100
AcDbCircle
 10
1911.0
 20
1119.044714
 30
0.0
 40
2.0
100
AcDbArc
 50
248.489812
 51
0.0
  0
LINE
  5
32D
100
AcDbEntity
  8
LAY-1
  6
CONTINUOUS
 62
     2
100
AcDbLine
 10
1902.544714
 20
1136.5
 30
0.0
 11
1911.0
 21
1136.5
 31
0.0
  0
LINE
  5
32E
100
AcDbEntity
  8
LAY-1
  6
CONTINUOUS
 62
     2
100
AcDbLine
 10
1913.0
 20
1138.5
 30
0.0
 11
1913.0
 21
1146.955286
 31
0.0
  0
ARC
  5
32F
100
AcDbEntity
  8
LAY-1
  6
CONTINUOUS
 62
     2
100
AcDbCircle
 10
1911.0
 20
1146.955286
 30
0.0
 40
2.0
100
AcDbArc
 50
0.0
 51
111.510188
  0
ARC
  5
330
100
AcDbEntity
  8
LAY-1
  6
CONTINUOUS
 62
     2
100
AcDbCircle
 10
1911.0
 20
1138.5
 30
0.0
 40
2.0
100
AcDbArc
 50
270.0
 51
0.0
  0
ARC
  5
331
100
AcDbEntity
  8
LAY-1
  6
CONTINUOUS
 62
     2
100
AcDbCircle
 10
1902.544714
 20
1138.5
 30
0.0
 40
2.0
100
AcDbArc
 50
158.489812
 51
270.0
  0
ARC
  5
332
100
AcDbEntity
  8
LAY-1
  6
CONTINUOUS
 62
     2
100
AcDbCircle
 10
1930.455286
 20
1138.5
 30
0.0
 40
2.0
100
AcDbArc
 50
270.0
 51
21.510188
  0
ARC
  5
333
100
AcDbEntity
  8
LAY-1
  6
CONTINUOUS
 62
     2
100
AcDbCircle
 10
1922.0
 20
1138.5
 30
0.0
 40
2.0
100
AcDbArc
 50
180.0
 51
270.0
  0
ARC
  5
334
100
AcDbEntity
  8
LAY-1
  6
CONTINUOUS
 62
     2
100
AcDbCircle
 10
1922.0
 20
1146.955286
 30
0.0
 40
2.0
100
AcDbArc
 50
68.489812
 51
180.0
  0
LINE
  5
335
100
AcDbEntity
  8
LAY-1
  6
CONTINUOUS
 62
     2
100
AcDbLine
 10
1922.0
 20
1136.5
 30
0.0
 11
1930.455286
 21
1136.5
 31
0.0
  0
LINE
  5
336
100
AcDbEntity
  8
LAY-1
  6
CONTINUOUS
 62
     2
100
AcDbLine
 10
1920.0
 20
1146.955286
 30
0.0
 11
1920.0
 21
1138.5
 31
0.0
  0
ARC
  5
337
100
AcDbEntity
  8
LAY-1
  6
CONTINUOUS
 62
     2
100
AcDbCircle
 10
1929.642812
 20
1164.729556
 30
0.0
 40
12.0
100
AcDbArc
 50
208.814171
 51
286.185829
  0
ARC
  5
338
100
AcDbEntity
  8
LAY-1
  6
CONTINUOUS
 62
     2
100
AcDbCircle
 10
1948.229556
 20
1146.142812
 30
0.0
 40
12.0
100
AcDbArc
 50
163.814171
 51
241.185829
  0
ARC
  5
339
100
AcDbEntity
  8
LAY-1
  6
CONTINUOUS
 62
     2
100
AcDbCircle
 10
1948.229556
 20
1119.857188
 30
0.0
 40
12.0
100
AcDbArc
 50
118.814171
 51
196.185829
  0
ARC
  5
33A
100
AcDbEntity
  8
LAY-1
  6
CONTINUOUS
 62
     2
100
AcDbCircle
 10
1929.642812
 20
1101.270444
 30
0.0
 40
12.0
100
AcDbArc
 50
73.814171
 51
151.185829
  0
ARC
  5
33B
100
AcDbEntity
  8
LAY-1
  6
CONTINUOUS
 62
     2
100
AcDbCircle
 10
1903.357188
 20
1101.270444
 30
0.0
 40
12.0
100
AcDbArc
 50
28.814171
 51
106.185829
  0
ARC
  5
33C
100
AcDbEntity
  8
LAY-1
  6
CONTINUOUS
 62
     2
100
AcDbCircle
 10
1884.770444
 20
1119.857188
 30
0.0
 40
12.0
100
AcDbArc
 50
343.814171
 51
61.185829
  0
ARC
  5
33D
100
AcDbEntity
  8
LAY-1
  6
CONTINUOUS
 62
     2
100
AcDbCircle
 10
1884.770444
 20
1146.142812
 30
0.0
 40
12.0
100
AcDbArc
 50
298.814171
 51
16.185829
  0
ARC
  5
33E
100
AcDbEntity
  8
LAY-1
  6
CONTINUOUS
 62
     2
100
AcDbCircle
 10
1903.357188
 20
1164.729556
 30
0.0
 40
12.0
100
AcDbArc
 50
253.814171
 51
331.185829
  0
ARC
  5
33F
100
AcDbEntity
  8
LAY-1
  6
CONTINUOUS
 62
     2
100
AcDbCircle
 10
1933.824116
 20
1150.324116
 30
0.0
 40
3.0
100
AcDbArc
 50
343.814171
 51
106.185829
  0
ARC
  5
340
100
AcDbEntity
  8
LAY-1
  6
CONTINUOUS
 62
     2
100
AcDbCircle
 10
1941.0
 20
1133.0
 30
0.0
 40
3.0
100
AcDbArc
 50
298.814171
 51
61.185829
  0
ARC
  5
341
100
AcDbEntity
  8
LAY-1
  6
CONTINUOUS
 62
     2
100
AcDbCircle
 10
1933.824116
 20
1115.675884
 30
0.0
 40
3.0
100
AcDbArc
 50
253.814171
 51
16.185829
  0
ARC
  5
342
100
AcDbEntity
  8
LAY-1
  6
CONTINUOUS
 62
     2
100
AcDbCircle
 10
1916.5
 20
1108.5
 30
0.0
 40
3.0
100
AcDbArc
 50
208.814171
 51
331.185829
  0
ARC
  5
343
100
AcDbEntity
  8
LAY-1
  6
CONTINUOUS
 62
     2
100
AcDbCircle
 10
1899.175884
 20
1115.675884
 30
0.0
 40
3.0
100
AcDbArc
 50
163.814171
 51
286.185829
  0
ARC
  5
344
100
AcDbEntity
  8
LAY-1
  6
CONTINUOUS
 62
     2
100
AcDbCircle
 10
1899.175884
 20
1150.324116
 30
0.0
 40
3.0
100
AcDbArc
 50
73.814171
 51
196.185829
  0
ARC
  5
345
100
AcDbEntity
  8
LAY-1
  6
CONTINUOUS
 62
     2
100
AcDbCircle
 10
1916.5
 20
1157.5
 30
0.0
 40
3.0
100
AcDbArc
 50
28.814171
 51
151.185829
  0
CIRCLE
  5
346
100
AcDbEntity
  8
LAY-1
  6
CONTINUOUS
 62
     2
100
AcDbCircle
 10
1916.5
 20
1133.0
 30
0.0
 40
17.0
  0
CIRCLE
  5
347
100
AcDbEntity
  8
LAY-1
  6
CONTINUOUS
 62
     2
100
AcDbCircle
 10
1916.5
 20
1133.0
 30
0.0
 40
5.0
  0
CIRCLE
  5
348
100
AcDbEntity
  8
LAY-1
  6
CONTINUOUS
 62
     2
100
AcDbCircle
 10
1916.5
 20
1133.0
 30
0.0
 40
3.0
  0
ARC
  5
349
100
AcDbEntity
  8
LAY-1
  6
CONTINUOUS
 62
     2
100
AcDbCircle
 10
1892.0
 20
1133.0
 30
0.0
 40
3.0
100
AcDbArc
 50
118.814171
 51
241.185829
  0
LINE
  5
34A
100
AcDbEntity
  8
LAY-1
  6
CONTINUOUS
 62
     2
100
AcDbLine
 10
2094.5
 20
913.0
 30
0.0
 11
2104.5
 21
913.0
 31
0.0
  0
LINE
  5
34B
100
AcDbEntity
  8
LAY-1
  6
CONTINUOUS
 62
     2
100
AcDbLine
 10
2104.5
 20
913.0
 30
0.0
 11
2104.5
 21
853.0
 31
0.0
  0
LINE
  5
34C
100
AcDbEntity
  8
LAY-1
  6
CONTINUOUS
 62
     2
100
AcDbLine
 10
2094.5
 20
913.0
 30
0.0
 11
2094.5
 21
853.0
 31
0.0
  0
ARC
  5
34D
100
AcDbEntity
  8
LAY-1
  6
CONTINUOUS
 62
     2
100
AcDbCircle
 10
1909.5
 20
883.0
 30
0.0
 40
197.0
100
AcDbArc
 50
351.828766
 51
8.171234
  0
LINE
  5
34E
100
AcDbEntity
  8
LAY-1
  6
CONTINUOUS
 62
     2
100
AcDbLine
 10
2094.5
 20
853.0
 30
0.0
 11
2104.5
 21
853.0
 31
0.0
  0
LINE
  5
34F
100
AcDbEntity
  8
LAY-1
  6
CONTINUOUS
 62
     2
100
AcDbLine
 10
2092.5
 20
861.5
 30
0.0
 11
2094.5
 21
861.5
 31
0.0
  0
LINE
  5
350
100
AcDbEntity
  8
LAY-1
  6
CONTINUOUS
 62
     2
100
AcDbLine
 10
2092.5
 20
904.5
 30
0.0
 11
2094.5
 21
904.5
 31
0.0
  0
LINE
  5
351
100
AcDbEntity
  8
LAY-1
  6
CONTINUOUS
 62
     2
100
AcDbLine
 10
2089.5
 20
893.5
 30
0.0
 11
2092.5
 21
893.5
 31
0.0
  0
LINE
  5
352
100
AcDbEntity
  8
LAY-1
  6
CONTINUOUS
 62
     2
100
AcDbLine
 10
2089.5
 20
872.5
 30
0.0
 11
2092.5
 21
872.5
 31
0.0
  0
LINE
  5
353
100
AcDbEntity
  8
LAY-1
  6
CONTINUOUS
 62
     2
100
AcDbLine
 10
2092.5
 20
904.5
 30
0.0
 11
2092.5
 21
861.5
 31
0.0
  0
LINE
  5
354
100
AcDbEntity
  8
LAY-1
  6
CONTINUOUS
 62
     2
100
AcDbLine
 10
2080.5
 20
876.0
 30
0.0
 11
2088.5
 21
876.0
 31
0.0
  0
LINE
  5
355
100
AcDbEntity
  8
LAY-1
  6
CONTINUOUS
 62
     2
100
AcDbLine
 10
2080.5
 20
890.0
 30
0.0
 11
2088.5
 21
890.0
 31
0.0
  0
ARC
  5
356
100
AcDbEntity
  8
LAY-1
  6
CONTINUOUS
 62
     2
100
AcDbCircle
 10
2064.5
 20
883.0
 30
0.0
 40
25.0
100
AcDbArc
 50
343.739795
 51
16.260205
  0
ARC
  5
357
100
AcDbEntity
  8
LAY-1
  6
CONTINUOUS
 62
     2
100
AcDbCircle
 10
2082.875
 20
872.5
 30
0.0
 40
6.625
100
AcDbArc
 50
328.109208
 51
31.890792
  0
ARC
  5
358
100
AcDbEntity
  8
LAY-1
  6
CONTINUOUS
 62
     2
100
AcDbCircle
 10
2082.875
 20
893.5
 30
0.0
 40
6.625
100
AcDbArc
 50
328.109208
 51
31.890792
  0
LINE
  5
359
100
AcDbEntity
  8
LAY-1
  6
CONTINUOUS
 62
     2
100
AcDbLine
 10
2080.5
 20
869.0
 30
0.0
 11
2088.5
 21
869.0
 31
0.0
  0
LINE
  5
35A
100
AcDbEntity
  8
LAY-1
  6
CONTINUOUS
 62
     2
100
AcDbLine
 10
2080.5
 20
897.0
 30
0.0
 11
2088.5
 21
897.0
 31
0.0
  0
LINE
  5
35B
100
AcDbEntity
  8
LAY-1
  6
CONTINUOUS
 62
     2
100
AcDbLine
 10
2089.5
 20
893.5
 30
0.0
 11
2089.5
 21
872.5
 31
0.0
  0
LINE
  5
35C
100
AcDbEntity
  8
LAY-1
  6
EXLTYPE3
 62
     1
100
AcDbLine
 10
3458.5
 20
1403.0
 30
0.0
 11
3458.5
 21
563.0
 31
0.0
  0
LINE
  5
35D
100
AcDbEntity
  8
LAY-1
  6
CONTINUOUS
 62
     1
100
AcDbLine
 10
3741.35
 20
1258.22
 30
0.0
 11
3741.35
 21
1251.6
 31
0.0
  0
LINE
  5
35E
100
AcDbEntity
  8
LAY-1
  6
CONTINUOUS
 62
     1
100
AcDbLine
 10
3755.65
 20
1258.22
 30
0.0
 11
3755.65
 21
1251.6
 31
0.0
  0
LINE
  5
35F
100
AcDbEntity
  8
LAY-1
  6
CONTINUOUS
 62
     1
100
AcDbLine
 10
3757.15
 20
1260.22
 30
0.0
 11
3755.65
 21
1258.22
 31
0.0
  0
LINE
  5
360
100
AcDbEntity
  8
LAY-1
  6
CONTINUOUS
 62
     1
100
AcDbLine
 10
3739.85
 20
1260.22
 30
0.0
 11
3741.35
 21
1258.22
 31
0.0
  0
LINE
  5
361
100
AcDbEntity
  8
LAY-1
  6
CONTINUOUS
 62
     2
100
AcDbLine
 10
3698.5
 20
1053.0
 30
0.0
 11
3698.5
 21
671.0
 31
0.0
  0
LINE
  5
362
100
AcDbEntity
  8
LAY-1
  6
CONTINUOUS
 62
     2
100
AcDbLine
 10
3248.5
 20
671.0
 30
0.0
 11
3248.5
 21
617.5
 31
0.0
  0
LINE
  5
363
100
AcDbEntity
  8
LAY-1
  6
CONTINUOUS
 62
     2
100
AcDbLine
 10
3668.5
 20
671.0
 30
0.0
 11
3668.5
 21
617.5
 31
0.0
  0
LINE
  5
364
100
AcDbEntity
  8
LAY-1
  6
CONTINUOUS
 62
     2
100
AcDbLine
 10
3698.5
 20
671.0
 30
0.0
 11
3218.5
 21
671.0
 31
0.0
  0
LINE
  5
365
100
AcDbEntity
  8
LAY-1
  6
CONTINUOUS
 62
     2
100
AcDbLine
 10
3218.5
 20
1053.0
 30
0.0
 11
3218.5
 21
671.0
 31
0.0
  0
LINE
  5
366
100
AcDbEntity
  8
LAY-1
  6
CONTINUOUS
 62
     2
100
AcDbLine
 10
3214.5
 20
1353.0
 30
0.0
 11
3214.5
 21
1054.0
 31
0.0
  0
LINE
  5
367
100
AcDbEntity
  8
LAY-1
  6
CONTINUOUS
 62
     2
100
AcDbLine
 10
3702.5
 20
1353.0
 30
0.0
 11
3702.5
 21
1054.0
 31
0.0
  0
LINE
  5
368
100
AcDbEntity
  8
LAY-1
  6
CONTINUOUS
 62
     2
100
AcDbLine
 10
3702.5
 20
1353.0
 30
0.0
 11
3214.5
 21
1353.0
 31
0.0
  0
LINE
  5
369
100
AcDbEntity
  8
LAY-1
  6
CONTINUOUS
 62
     2
100
AcDbLine
 10
3702.5
 20
1053.0
 30
0.0
 11
3214.5
 21
1053.0
 31
0.0
  0
LINE
  5
36A
100
AcDbEntity
  8
LAY-1
  6
CONTINUOUS
 62
     2
100
AcDbLine
 10
3708.5
 20
613.0
 30
0.0
 11
3208.5
 21
613.0
 31
0.0
  0
LINE
  5
36B
100
AcDbEntity
  8
LAY-1
  6
CONTINUOUS
 62
     2
100
AcDbLine
 10
3708.5
 20
617.5
 30
0.0
 11
3208.5
 21
617.5
 31
0.0
  0
LINE
  5
36C
100
AcDbEntity
  8
LAY-1
  6
CONTINUOUS
 62
     2
100
AcDbLine
 10
3208.5
 20
617.5
 30
0.0
 11
3208.5
 21
613.0
 31
0.0
  0
LINE
  5
36D
100
AcDbEntity
  8
LAY-1
  6
CONTINUOUS
 62
     2
100
AcDbLine
 10
3708.5
 20
617.5
 30
0.0
 11
3708.5
 21
613.0
 31
0.0
  0
ARC
  5
36E
100
AcDbEntity
  8
LAY-1
  6
CONTINUOUS
 62
     2
100
AcDbCircle
 10
3389.5
 20
883.0
 30
0.0
 40
197.0
100
AcDbArc
 50
171.828766
 51
188.171234
  0
LINE
  5
36F
100
AcDbEntity
  8
LAY-1
  6
CONTINUOUS
 62
     2
100
AcDbLine
 10
3204.5
 20
853.0
 30
0.0
 11
3194.5
 21
853.0
 31
0.0
  0
LINE
  5
370
100
AcDbEntity
  8
LAY-1
  6
CONTINUOUS
 62
     2
100
AcDbLine
 10
3204.5
 20
913.0
 30
0.0
 11
3194.5
 21
913.0
 31
0.0
  0
LINE
  5
371
100
AcDbEntity
  8
LAY-1
  6
CONTINUOUS
 62
     2
100
AcDbLine
 10
3194.5
 20
913.0
 30
0.0
 11
3194.5
 21
853.0
 31
0.0
  0
LINE
  5
372
100
AcDbEntity
  8
LAY-1
  6
CONTINUOUS
 62
     2
100
AcDbLine
 10
3204.5
 20
913.0
 30
0.0
 11
3204.5
 21
853.0
 31
0.0
  0
LINE
  5
373
100
AcDbEntity
  8
LAY-1
  6
CONTINUOUS
 62
     2
100
AcDbLine
 10
3206.5
 20
861.5
 30
0.0
 11
3204.5
 21
861.5
 31
0.0
  0
LINE
  5
374
100
AcDbEntity
  8
LAY-1
  6
CONTINUOUS
 62
     2
100
AcDbLine
 10
3206.5
 20
904.5
 30
0.0
 11
3204.5
 21
904.5
 31
0.0
  0
LINE
  5
375
100
AcDbEntity
  8
LAY-1
  6
CONTINUOUS
 62
     2
100
AcDbLine
 10
3209.5
 20
893.5
 30
0.0
 11
3206.5
 21
893.5
 31
0.0
  0
LINE
  5
376
100
AcDbEntity
  8
LAY-1
  6
CONTINUOUS
 62
     2
100
AcDbLine
 10
3209.5
 20
872.5
 30
0.0
 11
3206.5
 21
872.5
 31
0.0
  0
LINE
  5
377
100
AcDbEntity
  8
LAY-1
  6
CONTINUOUS
 62
     2
100
AcDbLine
 10
3206.5
 20
904.5
 30
0.0
 11
3206.5
 21
861.5
 31
0.0
  0
LINE
  5
378
100
AcDbEntity
  8
LAY-1
  6
CONTINUOUS
 62
     2
100
AcDbLine
 10
3218.5
 20
876.0
 30
0.0
 11
3210.5
 21
876.0
 31
0.0
  0
LINE
  5
379
100
AcDbEntity
  8
LAY-1
  6
CONTINUOUS
 62
     2
100
AcDbLine
 10
3218.5
 20
890.0
 30
0.0
 11
3210.5
 21
890.0
 31
0.0
  0
ARC
  5
37A
100
AcDbEntity
  8
LAY-1
  6
CONTINUOUS
 62
     2
100
AcDbCircle
 10
3234.5
 20
883.0
 30
0.0
 40
25.0
100
AcDbArc
 50
163.739795
 51
196.260205
  0
ARC
  5
37B
100
AcDbEntity
  8
LAY-1
  6
CONTINUOUS
 62
     2
100
AcDbCircle
 10
3216.125
 20
872.5
 30
0.0
 40
6.625
100
AcDbArc
 50
148.109208
 51
211.890792
  0
ARC
  5
37C
100
AcDbEntity
  8
LAY-1
  6
CONTINUOUS
 62
     2
100
AcDbCircle
 10
3216.125
 20
893.5
 30
0.0
 40
6.625
100
AcDbArc
 50
148.109208
 51
211.890792
  0
LINE
  5
37D
100
AcDbEntity
  8
LAY-1
  6
CONTINUOUS
 62
     2
100
AcDbLine
 10
3218.5
 20
869.0
 30
0.0
 11
3210.5
 21
869.0
 31
0.0
  0
LINE
  5
37E
100
AcDbEntity
  8
LAY-1
  6
CONTINUOUS
 62
     2
100
AcDbLine
 10
3218.5
 20
897.0
 30
0.0
 11
3210.5
 21
897.0
 31
0.0
  0
LINE
  5
37F
100
AcDbEntity
  8
LAY-1
  6
CONTINUOUS
 62
     2
100
AcDbLine
 10
3209.5
 20
893.5
 30
0.0
 11
3209.5
 21
872.5
 31
0.0
  0
LINE
  5
380
100
AcDbEntity
  8
LAY-1
  6
CONTINUOUS
 62
     2
100
AcDbLine
 10
3606.5
 20
1369.6
 30
0.0
 11
3588.5
 21
1369.6
 31
0.0
  0
LINE
  5
381
100
AcDbEntity
  8
LAY-1
  6
CONTINUOUS
 62
     2
100
AcDbLine
 10
3606.5
 20
1356.2
 30
0.0
 11
3588.5
 21
1356.2
 31
0.0
  0
LINE
  5
382
100
AcDbEntity
  8
LAY-1
  6
CONTINUOUS
 62
     2
100
AcDbLine
 10
3606.5
 20
1369.6
 30
0.0
 11
3606.5
 21
1354.6
 31
0.0
  0
LINE
  5
383
100
AcDbEntity
  8
LAY-1
  6
CONTINUOUS
 62
     2
100
AcDbLine
 10
3588.5
 20
1369.6
 30
0.0
 11
3588.5
 21
1354.6
 31
0.0
  0
LINE
  5
384
100
AcDbEntity
  8
LAY-1
  6
CONTINUOUS
 62
     2
100
AcDbLine
 10
3667.5
 20
1354.6
 30
0.0
 11
3527.5
 21
1354.6
 31
0.0
  0
LINE
  5
385
100
AcDbEntity
  8
LAY-1
  6
CONTINUOUS
 62
     2
100
AcDbLine
 10
3667.5
 20
1354.6
 30
0.0
 11
3667.5
 21
1353.0
 31
0.0
  0
LINE
  5
386
100
AcDbEntity
  8
LAY-1
  6
CONTINUOUS
 62
     2
100
AcDbLine
 10
3527.5
 20
1354.6
 30
0.0
 11
3527.5
 21
1353.0
 31
0.0
  0
LINE
  5
387
100
AcDbEntity
  8
LAY-1
  6
CONTINUOUS
 62
     2
100
AcDbLine
 10
3504.5
 20
1368.0
 30
0.0
 11
3488.5
 21
1368.0
 31
0.0
  0
LINE
  5
388
100
AcDbEntity
  8
LAY-1
  6
CONTINUOUS
 62
     2
100
AcDbLine
 10
3500.5
 20
1373.0
 30
0.0
 11
3492.5
 21
1373.0
 31
0.0
  0
LINE
  5
389
100
AcDbEntity
  8
LAY-1
  6
CONTINUOUS
 62
     2
100
AcDbLine
 10
3488.5
 20
1368.0
 30
0.0
 11
3486.5
 21
1353.0
 31
0.0
  0
LINE
  5
38A
100
AcDbEntity
  8
LAY-1
  6
CONTINUOUS
 62
     2
100
AcDbLine
 10
3492.5
 20
1373.0
 30
0.0
 11
3488.5
 21
1368.0
 31
0.0
  0
LINE
  5
38B
100
AcDbEntity
  8
LAY-1
  6
CONTINUOUS
 62
     2
100
AcDbLine
 10
3504.5
 20
1368.0
 30
0.0
 11
3506.5
 21
1353.0
 31
0.0
  0
LINE
  5
38C
100
AcDbEntity
  8
LAY-1
  6
CONTINUOUS
 62
     2
100
AcDbLine
 10
3500.5
 20
1373.0
 30
0.0
 11
3504.5
 21
1368.0
 31
0.0
  0
ARC
  5
38D
100
AcDbEntity
  8
LAY-1
  6
CONTINUOUS
 62
     2
100
AcDbCircle
 10
3496.5
 20
1397.5
 30
0.0
 40
4.0
100
AcDbArc
 50
0.0
 51
180.0
  0
LINE
  5
38E
100
AcDbEntity
  8
LAY-1
  6
CONTINUOUS
 62
     2
100
AcDbLine
 10
3500.5
 20
1397.5
 30
0.0
 11
3500.5
 21
1373.0
 31
0.0
  0
LINE
  5
38F
100
AcDbEntity
  8
LAY-1
  6
CONTINUOUS
 62
     2
100
AcDbLine
 10
3492.5
 20
1397.5
 30
0.0
 11
3492.5
 21
1373.0
 31
0.0
  0
LINE
  5
390
100
AcDbEntity
  8
LAY-1
  6
CONTINUOUS
 62
     2
100
AcDbLine
 10
3837.5
 20
1210.0
 30
0.0
 11
3837.5
 21
1123.0
 31
0.0
  0
LINE
  5
391
100
AcDbEntity
  8
LAY-1
  6
CONTINUOUS
 62
     2
100
AcDbLine
 10
3836.5
 20
1188.0
 30
0.0
 11
3836.5
 21
1288.0
 31
0.0
  0
LINE
  5
392
100
AcDbEntity
  8
LAY-1
  6
CONTINUOUS
 62
     2
100
AcDbLine
 10
3837.5
 20
1266.0
 30
0.0
 11
3837.5
 21
1210.0
 31
0.0
  0
LINE
  5
393
100
AcDbEntity
  8
LAY-1
  6
CONTINUOUS
 62
     2
100
AcDbLine
 10
3822.5
 20
1188.0
 30
0.0
 11
3836.5
 21
1188.0
 31
0.0
  0
LINE
  5
394
100
AcDbEntity
  8
LAY-1
  6
CONTINUOUS
 62
     2
100
AcDbLine
 10
3836.5
 20
1210.0
 30
0.0
 11
3837.5
 21
1210.0
 31
0.0
  0
LINE
  5
395
100
AcDbEntity
  8
LAY-1
  6
CONTINUOUS
 62
     2
100
AcDbLine
 10
3822.5
 20
1288.0
 30
0.0
 11
3836.5
 21
1288.0
 31
0.0
  0
LINE
  5
396
100
AcDbEntity
  8
LAY-1
  6
CONTINUOUS
 62
     2
100
AcDbLine
 10
3822.5
 20
1223.0
 30
0.0
 11
3822.5
 21
1288.0
 31
0.0
  0
LINE
  5
397
100
AcDbEntity
  8
LAY-1
  6
CONTINUOUS
 62
     2
100
AcDbLine
 10
3836.5
 20
1266.0
 30
0.0
 11
3837.5
 21
1266.0
 31
0.0
  0
LINE
  5
398
100
AcDbEntity
  8
LAY-1
  6
CONTINUOUS
 62
     2
100
AcDbLine
 10
3838.5
 20
1201.0
 30
0.0
 11
3837.5
 21
1201.0
 31
0.0
  0
LINE
  5
399
100
AcDbEntity
  8
LAY-1
  6
CONTINUOUS
 62
     2
100
AcDbLine
 10
3822.5
 20
1223.0
 30
0.0
 11
3822.5
 21
1123.0
 31
0.0
  0
LINE
  5
39A
100
AcDbEntity
  8
LAY-1
  6
CONTINUOUS
 62
     2
100
AcDbLine
 10
3838.5
 20
1201.0
 30
0.0
 11
3838.5
 21
1145.0
 31
0.0
  0
LINE
  5
39B
100
AcDbEntity
  8
LAY-1
  6
CONTINUOUS
 62
     2
100
AcDbLine
 10
3837.5
 20
1123.0
 30
0.0
 11
3822.5
 21
1123.0
 31
0.0
  0
LINE
  5
39C
100
AcDbEntity
  8
LAY-1
  6
CONTINUOUS
 62
     2
100
AcDbLine
 10
3838.5
 20
1145.0
 30
0.0
 11
3837.5
 21
1145.0
 31
0.0
  0
LINE
  5
39D
100
AcDbEntity
  8
LAY-1
  6
CONTINUOUS
 62
     2
100
AcDbLine
 10
3822.5
 20
1123.0
 30
0.0
 11
3822.5
 21
1223.0
 31
0.0
  0
LINE
  5
39E
100
AcDbEntity
  8
LAY-1
  6
CONTINUOUS
 62
     2
100
AcDbLine
 10
3702.5
 20
1251.6
 30
0.0
 11
3822.5
 21
1251.6
 31
0.0
  0
LINE
  5
39F
100
AcDbEntity
  8
LAY-1
  6
CONTINUOUS
 62
     2
100
AcDbLine
 10
3702.5
 20
1224.4
 30
0.0
 11
3822.5
 21
1224.4
 31
0.0
  0
LINE
  5
3A0
100
AcDbEntity
  8
LAY-1
  6
CONTINUOUS
 62
     2
100
AcDbLine
 10
3757.457778
 20
1205.56
 30
0.0
 11
3739.542222
 21
1205.56
 31
0.0
  0
ARC
  5
3A1
100
AcDbEntity
  8
LAY-1
  6
CONTINUOUS
 62
     2
100
AcDbCircle
 10
3735.357188
 20
1200.990444
 30
0.0
 40
12.0
100
AcDbArc
 50
68.341629
 51
106.185829
  0
ARC
  5
3A2
100
AcDbEntity
  8
LAY-1
  6
CONTINUOUS
 62
     2
100
AcDbCircle
 10
3761.642812
 20
1200.990444
 30
0.0
 40
12.0
100
AcDbArc
 50
73.814171
 51
111.658371
  0
LINE
  5
3A3
100
AcDbEntity
  8
LAY-1
  6
CONTINUOUS
 62
     2
100
AcDbLine
 10
3739.32
 20
1199.56
 30
0.0
 11
3739.918519
 21
1215.72
 31
0.0
  0
LINE
  5
3A4
100
AcDbEntity
  8
LAY-1
  6
CONTINUOUS
 62
     2
100
AcDbLine
 10
3757.68
 20
1199.56
 30
0.0
 11
3757.081481
 21
1215.72
 31
0.0
  0
LINE
  5
3A5
100
AcDbEntity
  8
LAY-1
  6
CONTINUOUS
 62
     2
100
AcDbLine
 10
3735.5
 20
1215.72
 30
0.0
 11
3735.5
 21
1224.4
 31
0.0
  0
LINE
  5
3A6
100
AcDbEntity
  8
LAY-1
  6
CONTINUOUS
 62
     2
100
AcDbLine
 10
3761.5
 20
1224.4
 30
0.0
 11
3761.5
 21
1215.72
 31
0.0
  0
LINE
  5
3A7
100
AcDbEntity
  8
LAY-1
  6
CONTINUOUS
 62
     2
100
AcDbLine
 10
3761.5
 20
1215.72
 30
0.0
 11
3735.5
 21
1215.72
 31
0.0
  0
ARC
  5
3A8
100
AcDbEntity
  8
LAY-1
  6
CONTINUOUS
 62
     2
100
AcDbCircle
 10
3735.357188
 20
1264.449556
 30
0.0
 40
12.0
100
AcDbArc
 50
253.814171
 51
291.987298
  0
ARC
  5
3A9
100
AcDbEntity
  8
LAY-1
  6
CONTINUOUS
 62
     2
100
AcDbCircle
 10
3761.642812
 20
1264.449556
 30
0.0
 40
12.0
100
AcDbArc
 50
248.012702
 51
286.185829
  0
LINE
  5
3AA
100
AcDbEntity
  8
LAY-1
  6
CONTINUOUS
 62
     2
100
AcDbLine
 10
3757.15
 20
1258.22
 30
0.0
 11
3739.85
 21
1258.22
 31
0.0
  0
LINE
  5
3AB
100
AcDbEntity
  8
LAY-1
  6
CONTINUOUS
 62
     2
100
AcDbLine
 10
3739.85
 20
1260.22
 30
0.0
 11
3739.85
 21
1251.6
 31
0.0
  0
LINE
  5
3AC
100
AcDbEntity
  8
LAY-1
  6
CONTINUOUS
 62
     2
100
AcDbLine
 10
3757.15
 20
1260.22
 30
0.0
 11
3757.15
 21
1251.6
 31
0.0
  0
ARC
  5
3AD
100
AcDbEntity
  8
LAY-1
  6
CONTINUOUS
 62
     2
100
AcDbCircle
 10
3780.229556
 20
1219.577188
 30
0.0
 40
12.0
100
AcDbArc
 50
156.302925
 51
196.185829
  0
ARC
  5
3AE
100
AcDbEntity
  8
LAY-1
  6
CONTINUOUS
 62
     2
100
AcDbCircle
 10
3716.770444
 20
1219.577188
 30
0.0
 40
12.0
100
AcDbArc
 50
343.814171
 51
23.697075
  0
ARC
  5
3AF
100
AcDbEntity
  8
LAY-1
  6
CONTINUOUS
 62
     2
100
AcDbCircle
 10
3731.175884
 20
1250.044116
 30
0.0
 40
3.0
100
AcDbArc
 50
73.814171
 51
148.759738
  0
ARC
  5
3B0
100
AcDbEntity
  8
LAY-1
  6
CONTINUOUS
 62
     2
100
AcDbCircle
 10
3765.824116
 20
1250.044116
 30
0.0
 40
3.0
100
AcDbArc
 50
31.240262
 51
106.185829
  0
LINE
  5
3B1
100
AcDbEntity
  8
LAY-1
  6
CONTINUOUS
 62
     2
100
AcDbLine
 10
3732.65
 20
1630.22
 30
0.0
 11
3732.65
 21
1595.22
 31
0.0
  0
LINE
  5
3B2
100
AcDbEntity
  8
LAY-1
  6
CONTINUOUS
 62
     2
100
AcDbLine
 10
3764.35
 20
1630.22
 30
0.0
 11
3764.35
 21
1595.22
 31
0.0
  0
LINE
  5
3B3
100
AcDbEntity
  8
LAY-1
  6
CONTINUOUS
 62
     2
100
AcDbLine
 10
3764.35
 20
1595.22
 30
0.0
 11
3732.65
 21
1595.22
 31
0.0
  0
LINE
  5
3B4
100
AcDbEntity
  8
LAY-1
  6
CONTINUOUS
 62
     2
100
AcDbLine
 10
3764.35
 20
1630.22
 30
0.0
 11
3732.65
 21
1630.22
 31
0.0
  0
LINE
  5
3B5
100
AcDbEntity
  8
LAY-1
  6
CONTINUOUS
 62
     2
100
AcDbLine
 10
3759.35
 20
1595.22
 30
0.0
 11
3759.35
 21
1330.22
 31
0.0
  0
LINE
  5
3B6
100
AcDbEntity
  8
LAY-1
  6
CONTINUOUS
 62
     2
100
AcDbLine
 10
3737.65
 20
1595.22
 30
0.0
 11
3737.65
 21
1330.22
 31
0.0
  0
ARC
  5
3B7
100
AcDbEntity
  8
LAY-1
  6
CONTINUOUS
 62
     2
100
AcDbCircle
 10
3735.75
 20
1269.75125
 30
0.0
 40
9.53125
100
AcDbArc
 50
243.51896
 51
296.48104
  0
ARC
  5
3B8
100
AcDbEntity
  8
LAY-1
  6
CONTINUOUS
 62
     2
100
AcDbCircle
 10
3748.5
 20
1296.845
 30
0.0
 40
36.625
100
AcDbArc
 50
256.580326
 51
283.419674
  0
ARC
  5
3B9
100
AcDbEntity
  8
LAY-1
  6
CONTINUOUS
 62
     2
100
AcDbCircle
 10
3761.25
 20
1269.75125
 30
0.0
 40
9.53125
100
AcDbArc
 50
243.51896
 51
296.48104
  0
ARC
  5
3BA
100
AcDbEntity
  8
LAY-1
  6
CONTINUOUS
 62
     2
100
AcDbCircle
 10
3735.75
 20
1295.68875
 30
0.0
 40
9.53125
100
AcDbArc
 50
63.51896
 51
116.48104
  0
ARC
  5
3BB
100
AcDbEntity
  8
LAY-1
  6
CONTINUOUS
 62
     2
100
AcDbCircle
 10
3748.5
 20
1268.595
 30
0.0
 40
36.625
100
AcDbArc
 50
76.580326
 51
103.419674
  0
ARC
  5
3BC
100
AcDbEntity
  8
LAY-1
  6
CONTINUOUS
 62
     2
100
AcDbCircle
 10
3761.25
 20
1295.68875
 30
0.0
 40
9.53125
100
AcDbArc
 50
63.51896
 51
116.48104
  0
LINE
  5
3BD
100
AcDbEntity
  8
LAY-1
  6
CONTINUOUS
 62
     2
100
AcDbLine
 10
3731.5
 20
1306.22
 30
0.0
 11
3731.5
 21
1329.22
 31
0.0
  0
LINE
  5
3BE
100
AcDbEntity
  8
LAY-1
  6
CONTINUOUS
 62
     2
100
AcDbLine
 10
3731.5
 20
1261.22
 30
0.0
 11
3731.5
 21
1304.22
 31
0.0
  0
LINE
  5
3BF
100
AcDbEntity
  8
LAY-1
  6
CONTINUOUS
 62
     2
100
AcDbLine
 10
3765.5
 20
1261.22
 30
0.0
 11
3765.5
 21
1304.22
 31
0.0
  0
LINE
  5
3C0
100
AcDbEntity
  8
LAY-1
  6
CONTINUOUS
 62
     2
100
AcDbLine
 10
3757.0
 20
1261.22
 30
0.0
 11
3757.0
 21
1304.22
 31
0.0
  0
LINE
  5
3C1
100
AcDbEntity
  8
LAY-1
  6
CONTINUOUS
 62
     2
100
AcDbLine
 10
3740.0
 20
1261.22
 30
0.0
 11
3740.0
 21
1304.22
 31
0.0
  0
ARC
  5
3C2
100
AcDbEntity
  8
LAY-1
  6
CONTINUOUS
 62
     2
100
AcDbCircle
 10
3735.75
 20
1314.75125
 30
0.0
 40
9.53125
100
AcDbArc
 50
243.51896
 51
296.48104
  0
ARC
  5
3C3
100
AcDbEntity
  8
LAY-1
  6
CONTINUOUS
 62
     2
100
AcDbCircle
 10
3748.5
 20
1341.845
 30
0.0
 40
36.625
100
AcDbArc
 50
256.580326
 51
283.419674
  0
ARC
  5
3C4
100
AcDbEntity
  8
LAY-1
  6
CONTINUOUS
 62
     2
100
AcDbCircle
 10
3761.25
 20
1314.75125
 30
0.0
 40
9.53125
100
AcDbArc
 50
243.51896
 51
296.48104
  0
LINE
  5
3C5
100
AcDbEntity
  8
LAY-1
  6
CONTINUOUS
 62
     2
100
AcDbLine
 10
3761.25
 20
1305.22
 30
0.0
 11
3735.75
 21
1305.22
 31
0.0
  0
ARC
  5
3C6
100
AcDbEntity
  8
LAY-1
  6
CONTINUOUS
 62
     2
100
AcDbCircle
 10
3735.75
 20
1320.68875
 30
0.0
 40
9.53125
100
AcDbArc
 50
63.51896
 51
116.48104
  0
ARC
  5
3C7
100
AcDbEntity
  8
LAY-1
  6
CONTINUOUS
 62
     2
100
AcDbCircle
 10
3748.5
 20
1293.595
 30
0.0
 40
36.625
100
AcDbArc
 50
76.580326
 51
103.419674
  0
ARC
  5
3C8
100
AcDbEntity
  8
LAY-1
  6
CONTINUOUS
 62
     2
100
AcDbCircle
 10
3761.25
 20
1320.68875
 30
0.0
 40
9.53125
100
AcDbArc
 50
63.51896
 51
116.48104
  0
LINE
  5
3C9
100
AcDbEntity
  8
LAY-1
  6
CONTINUOUS
 62
     2
100
AcDbLine
 10
3765.5
 20
1329.22
 30
0.0
 11
3765.5
 21
1306.22
 31
0.0
  0
LINE
  5
3CA
100
AcDbEntity
  8
LAY-1
  6
CONTINUOUS
 62
     2
100
AcDbLine
 10
3757.0
 20
1329.22
 30
0.0
 11
3757.0
 21
1306.22
 31
0.0
  0
LINE
  5
3CB
100
AcDbEntity
  8
LAY-1
  6
CONTINUOUS
 62
     2
100
AcDbLine
 10
3740.0
 20
1329.22
 30
0.0
 11
3740.0
 21
1306.22
 31
0.0
  0
LINE
  5
3CC
100
AcDbEntity
  8
LAY-1
  6
CONTINUOUS
 62
     2
100
AcDbLine
 10
3761.25
 20
1260.22
 30
0.0
 11
3735.75
 21
1260.22
 31
0.0
  0
LINE
  5
3CD
100
AcDbEntity
  8
LAY-1
  6
CONTINUOUS
 62
     2
100
AcDbLine
 10
3761.25
 20
1330.22
 30
0.0
 11
3735.75
 21
1330.22
 31
0.0
  0
LINE
  5
3CE
100
AcDbEntity
  8
LAY-1
  6
CONTINUOUS
 62
     2
100
AcDbLine
 10
3757.68
 20
1199.56
 30
0.0
 11
3739.32
 21
1199.56
 31
0.0
  0
ARC
  5
3CF
100
AcDbEntity
  8
LAY-1
  6
CONTINUOUS
 62
     2
100
AcDbCircle
 10
3731.175884
 20
1215.395884
 30
0.0
 40
3.0
100
AcDbArc
 50
163.814171
 51
286.185829
  0
ARC
  5
3D0
100
AcDbEntity
  8
LAY-1
  6
CONTINUOUS
 62
     2
100
AcDbCircle
 10
3765.824116
 20
1215.395884
 30
0.0
 40
3.0
100
AcDbArc
 50
253.814171
 51
16.185829
  0
LINE
  5
3D1
100
AcDbEntity
  8
LAY-1
  6
CONTINUOUS
 62
     2
100
AcDbLine
 10
3738.24
 20
1190.92
 30
0.0
 11
3733.92
 21
1186.6
 31
0.0
  0
LINE
  5
3D2
100
AcDbEntity
  8
LAY-1
  6
CONTINUOUS
 62
     2
100
AcDbLine
 10
3758.76
 20
1190.92
 30
0.0
 11
3763.08
 21
1186.6
 31
0.0
  0
LINE
  5
3D3
100
AcDbEntity
  8
LAY-1
  6
CONTINUOUS
 62
     2
100
AcDbLine
 10
3739.32
 20
1199.56
 30
0.0
 11
3738.24
 21
1199.02
 31
0.0
  0
LINE
  5
3D4
100
AcDbEntity
  8
LAY-1
  6
CONTINUOUS
 62
     2
100
AcDbLine
 10
3738.24
 20
1190.92
 30
0.0
 11
3738.24
 21
1199.02
 31
0.0
  0
LINE
  5
3D5
100
AcDbEntity
  8
LAY-1
  6
CONTINUOUS
 62
     2
100
AcDbLine
 10
3757.68
 20
1199.56
 30
0.0
 11
3758.76
 21
1199.02
 31
0.0
  0
LINE
  5
3D6
100
AcDbEntity
  8
LAY-1
  6
CONTINUOUS
 62
     2
100
AcDbLine
 10
3758.76
 20
1190.92
 30
0.0
 11
3758.76
 21
1199.02
 31
0.0
  0
LINE
  5
3D7
100
AcDbEntity
  8
LAY-1
  6
CONTINUOUS
 62
     2
100
AcDbLine
 10
3738.24
 20
1190.92
 30
0.0
 11
3758.76
 21
1190.92
 31
0.0
  0
LINE
  5
3D8
100
AcDbEntity
  8
LAY-1
  6
CONTINUOUS
 62
     2
100
AcDbLine
 10
3758.76
 20
1199.02
 30
0.0
 11
3738.24
 21
1199.02
 31
0.0
  0
LINE
  5
3D9
100
AcDbEntity
  8
LAY-1
  6
CONTINUOUS
 62
     2
100
AcDbLine
 10
3757.531852
 20
1203.56
 30
0.0
 11
3739.468148
 21
1203.56
 31
0.0
  0
LINE
  5
3DA
100
AcDbEntity
  8
LAY-1
  6
CONTINUOUS
 62
     2
100
AcDbLine
 10
3757.605926
 20
1201.56
 30
0.0
 11
3739.394074
 21
1201.56
 31
0.0
  0
LINE
  5
3DB
100
AcDbEntity
  8
LAY-1
  6
CONTINUOUS
 62
     2
100
AcDbLine
 10
3702.5
 20
1186.6
 30
0.0
 11
3822.5
 21
1186.6
 31
0.0
  0
LINE
  5
3DC
100
AcDbEntity
  8
LAY-1
  6
CONTINUOUS
 62
     2
100
AcDbLine
 10
3702.5
 20
1159.4
 30
0.0
 11
3822.5
 21
1159.4
 31
0.0
  0
LINE
  5
3DD
100
AcDbEntity
  8
LAY-1
  6
EXLTYPE3
 62
     1
100
AcDbLine
 10
3002.5
 20
2129.0
 30
0.0
 11
2322.5
 21
2129.0
 31
0.0
  0
LINE
  5
3DE
100
AcDbEntity
  8
LAY-1
  6
EXLTYPE3
 62
     1
100
AcDbLine
 10
2652.5
 20
2424.0
 30
0.0
 11
2652.5
 21
1829.0
 31
0.0
  0
LINE
  5
3DF
100
AcDbEntity
  8
LAY-1
  6
CONTINUOUS
 62
     2
100
AcDbLine
 10
2778.9
 20
2493.0
 30
0.0
 11
2778.9
 21
2373.0
 31
0.0
  0
LINE
  5
3E0
100
AcDbEntity
  8
LAY-1
  6
CONTINUOUS
 62
     2
100
AcDbLine
 10
2806.1
 20
2493.0
 30
0.0
 11
2806.1
 21
2373.0
 31
0.0
  0
LINE
  5
3E1
100
AcDbEntity
  8
LAY-1
  6
CONTINUOUS
 62
     2
100
AcDbLine
 10
2876.5
 20
1885.0
 30
0.0
 11
2428.5
 21
1885.0
 31
0.0
  0
LINE
  5
3E2
100
AcDbEntity
  8
LAY-1
  6
CONTINUOUS
 62
     2
100
AcDbLine
 10
2642.0
 20
1879.0
 30
0.0
 11
2372.5
 21
1879.0
 31
0.0
  0
LINE
  5
3E3
100
AcDbEntity
  8
LAY-1
  6
CONTINUOUS
 62
     2
100
AcDbLine
 10
2498.9
 20
2379.0
 30
0.0
 11
2372.5
 21
2379.0
 31
0.0
  0
LINE
  5
3E4
100
AcDbEntity
  8
LAY-1
  6
CONTINUOUS
 62
     2
100
AcDbLine
 10
2408.5
 20
2163.291901
 30
0.0
 11
2408.5
 21
1905.0
 31
0.0
  0
LINE
  5
3E5
100
AcDbEntity
  8
LAY-1
  6
CONTINUOUS
 62
     2
100
AcDbLine
 10
2896.5
 20
2163.291901
 30
0.0
 11
2896.5
 21
1905.0
 31
0.0
  0
LINE
  5
3E6
100
AcDbEntity
  8
LAY-1
  6
CONTINUOUS
 62
     2
100
AcDbLine
 10
2771.5
 20
2282.0
 30
0.0
 11
2771.5
 21
2264.0
 31
0.0
  0
LINE
  5
3E7
100
AcDbEntity
  8
LAY-1
  6
CONTINUOUS
 62
     2
100
AcDbLine
 10
2821.5
 20
2282.0
 30
0.0
 11
2821.5
 21
2264.0
 31
0.0
  0
LINE
  5
3E8
100
AcDbEntity
  8
LAY-1
  6
CONTINUOUS
 62
     2
100
AcDbLine
 10
2781.5
 20
2282.0
 30
0.0
 11
2781.5
 21
2264.0
 31
0.0
  0
LINE
  5
3E9
100
AcDbEntity
  8
LAY-1
  6
CONTINUOUS
 62
     2
100
AcDbLine
 10
2811.5
 20
2282.0
 30
0.0
 11
2811.5
 21
2264.0
 31
0.0
  0
LINE
  5
3EA
100
AcDbEntity
  8
LAY-1
  6
CONTINUOUS
 62
     2
100
AcDbLine
 10
2821.5
 20
2282.0
 30
0.0
 11
2771.5
 21
2282.0
 31
0.0
  0
LINE
  5
3EB
100
AcDbEntity
  8
LAY-1
  6
CONTINUOUS
 62
     2
100
AcDbLine
 10
2821.5
 20
2264.0
 30
0.0
 11
2771.5
 21
2264.0
 31
0.0
  0
CIRCLE
  5
3EC
100
AcDbEntity
  8
LAY-1
  6
CONTINUOUS
 62
     2
100
AcDbCircle
 10
2796.5
 20
2273.0
 30
0.0
 40
70.0
  0
ARC
  5
3ED
100
AcDbEntity
  8
LAY-1
  6
CONTINUOUS
 62
     2
100
AcDbCircle
 10
2426.5
 20
2167.0
 30
0.0
 40
10.0
100
AcDbArc
 50
203.578178
 51
336.421822
  0
ARC
  5
3EE
100
AcDbEntity
  8
LAY-1
  6
CONTINUOUS
 62
     2
100
AcDbCircle
 10
2426.5
 20
2167.0
 30
0.0
 40
10.0
100
AcDbArc
 50
23.578178
 51
156.421822
  0
ARC
  5
3EF
100
AcDbEntity
  8
LAY-1
  6
CONTINUOUS
 62
     2
100
AcDbCircle
 10
2443.0
 20
2167.0
 30
0.0
 40
4.0
100
AcDbArc
 50
270.0
 51
90.0
  0
ARC
  5
3F0
100
AcDbEntity
  8
LAY-1
  6
CONTINUOUS
 62
     2
100
AcDbCircle
 10
2410.0
 20
2167.0
 30
0.0
 40
4.0
100
AcDbArc
 50
90.0
 51
270.0
  0
LINE
  5
3F1
100
AcDbEntity
  8
LAY-1
  6
CONTINUOUS
 62
     2
100
AcDbLine
 10
2410.0
 20
2163.0
 30
0.0
 11
2443.0
 21
2163.0
 31
0.0
  0
LINE
  5
3F2
100
AcDbEntity
  8
LAY-1
  6
CONTINUOUS
 62
     2
100
AcDbLine
 10
2410.0
 20
2171.0
 30
0.0
 11
2443.0
 21
2171.0
 31
0.0
  0
ARC
  5
3F3
100
AcDbEntity
  8
LAY-1
  6
CONTINUOUS
 62
     2
100
AcDbCircle
 10
2878.5
 20
2167.0
 30
0.0
 40
10.0
100
AcDbArc
 50
203.578178
 51
336.421822
  0
ARC
  5
3F4
100
AcDbEntity
  8
LAY-1
  6
CONTINUOUS
 62
     2
100
AcDbCircle
 10
2878.5
 20
2167.0
 30
0.0
 40
10.0
100
AcDbArc
 50
23.578178
 51
156.421822
  0
ARC
  5
3F5
100
AcDbEntity
  8
LAY-1
  6
CONTINUOUS
 62
     2
100
AcDbCircle
 10
2862.0
 20
2167.0
 30
0.0
 40
4.0
100
AcDbArc
 50
90.0
 51
270.0
  0
ARC
  5
3F6
100
AcDbEntity
  8
LAY-1
  6
CONTINUOUS
 62
     2
100
AcDbCircle
 10
2895.0
 20
2167.0
 30
0.0
 40
4.0
100
AcDbArc
 50
270.0
 51
90.0
  0
LINE
  5
3F7
100
AcDbEntity
  8
LAY-1
  6
CONTINUOUS
 62
     2
100
AcDbLine
 10
2895.0
 20
2171.0
 30
0.0
 11
2862.0
 21
2171.0
 31
0.0
  0
LINE
  5
3F8
100
AcDbEntity
  8
LAY-1
  6
CONTINUOUS
 62
     2
100
AcDbLine
 10
2895.0
 20
2163.0
 30
0.0
 11
2862.0
 21
2163.0
 31
0.0
  0
ARC
  5
3F9
100
AcDbEntity
  8
LAY-1
  6
CONTINUOUS
 62
     2
100
AcDbCircle
 10
2428.5
 20
1905.0
 30
0.0
 40
20.0
100
AcDbArc
 50
180.0
 51
270.0
  0
ARC
  5
3FA
100
AcDbEntity
  8
LAY-1
  6
CONTINUOUS
 62
     2
100
AcDbCircle
 10
2428.5
 20
2353.0
 30
0.0
 40
20.0
100
AcDbArc
 50
90.0
 51
180.0
  0
ARC
  5
3FB
100
AcDbEntity
  8
LAY-1
  6
CONTINUOUS
 62
     2
100
AcDbCircle
 10
2876.5
 20
1905.0
 30
0.0
 40
20.0
100
AcDbArc
 50
270.0
 51
0.0
  0
ARC
  5
3FC
100
AcDbEntity
  8
LAY-1
  6
CONTINUOUS
 62
     2
100
AcDbCircle
 10
2876.5
 20
2353.0
 30
0.0
 40
20.0
100
AcDbArc
 50
0.0
 51
90.0
  0
LINE
  5
3FD
100
AcDbEntity
  8
LAY-1
  6
CONTINUOUS
 62
     2
100
AcDbLine
 10
2876.5
 20
2373.0
 30
0.0
 11
2428.5
 21
2373.0
 31
0.0
  0
LINE
  5
3FE
100
AcDbEntity
  8
LAY-1
  6
CONTINUOUS
 62
     2
100
AcDbLine
 10
2856.5
 20
1885.0
 30
0.0
 11
2448.5
 21
1885.0
 31
0.0
  0
LINE
  5
3FF
100
AcDbEntity
  8
LAY-1
  6
CONTINUOUS
 62
     2
100
AcDbLine
 10
2408.5
 20
2353.0
 30
0.0
 11
2408.5
 21
2170.708099
 31
0.0
  0
LINE
  5
400
100
AcDbEntity
  8
LAY-1
  6
CONTINUOUS
 62
     2
100
AcDbLine
 10
2896.5
 20
2353.0
 30
0.0
 11
2896.5
 21
2170.708099
 31
0.0
  0
CIRCLE
  5
401
100
AcDbEntity
  8
LAY-1
  6
CONTINUOUS
 62
     2
100
AcDbCircle
 10
2372.5
 20
1969.0
 30
0.0
 40
7.5
  0
CIRCLE
  5
402
100
AcDbEntity
  8
LAY-1
  6
CONTINUOUS
 62
     2
100
AcDbCircle
 10
2932.5
 20
1969.0
 30
0.0
 40
7.5
  0
CIRCLE
  5
403
100
AcDbEntity
  8
LAY-1
  6
CONTINUOUS
 62
     2
100
AcDbCircle
 10
2932.5
 20
2289.0
 30
0.0
 40
7.5
  0
ARC
  5
404
100
AcDbEntity
  8
LAY-1
  6
CONTINUOUS
 62
     2
100
AcDbCircle
 10
2372.5
 20
2359.0
 30
0.0
 40
20.0
100
AcDbArc
 50
90.0
 51
180.0
  0
ARC
  5
405
100
AcDbEntity
  8
LAY-1
  6
CONTINUOUS
 62
     2
100
AcDbCircle
 10
2372.5
 20
1899.0
 30
0.0
 40
20.0
100
AcDbArc
 50
180.0
 51
270.0
  0
ARC
  5
406
100
AcDbEntity
  8
LAY-1
  6
CONTINUOUS
 62
     2
100
AcDbCircle
 10
2932.5
 20
1899.0
 30
0.0
 40
20.0
100
AcDbArc
 50
270.0
 51
0.0
  0
ARC
  5
407
100
AcDbEntity
  8
LAY-1
  6
CONTINUOUS
 62
     2
100
AcDbCircle
 10
2932.5
 20
2359.0
 30
0.0
 40
20.0
100
AcDbArc
 50
0.0
 51
90.0
  0
LINE
  5
408
100
AcDbEntity
  8
LAY-1
  6
CONTINUOUS
 62
     2
100
AcDbLine
 10
2952.5
 20
2359.0
 30
0.0
 11
2952.5
 21
1899.0
 31
0.0
  0
LINE
  5
409
100
AcDbEntity
  8
LAY-1
  6
CONTINUOUS
 62
     2
100
AcDbLine
 10
2932.5
 20
1879.0
 30
0.0
 11
2663.0
 21
1879.0
 31
0.0
  0
ARC
  5
40A
100
AcDbEntity
  8
LAY-1
  6
CONTINUOUS
 62
     2
100
AcDbCircle
 10
2652.5
 20
2060.0
 30
0.0
 40
197.0
100
AcDbArc
 50
261.828766
 51
278.171234
  0
LINE
  5
40B
100
AcDbEntity
  8
LAY-1
  6
CONTINUOUS
 62
     2
100
AcDbLine
 10
2622.5
 20
1875.0
 30
0.0
 11
2622.5
 21
1865.0
 31
0.0
  0
LINE
  5
40C
100
AcDbEntity
  8
LAY-1
  6
CONTINUOUS
 62
     2
100
AcDbLine
 10
2682.5
 20
1875.0
 30
0.0
 11
2682.5
 21
1865.0
 31
0.0
  0
LINE
  5
40D
100
AcDbEntity
  8
LAY-1
  6
CONTINUOUS
 62
     2
100
AcDbLine
 10
2682.5
 20
1865.0
 30
0.0
 11
2622.5
 21
1865.0
 31
0.0
  0
LINE
  5
40E
100
AcDbEntity
  8
LAY-1
  6
CONTINUOUS
 62
     2
100
AcDbLine
 10
2682.5
 20
1875.0
 30
0.0
 11
2622.5
 21
1875.0
 31
0.0
  0
LINE
  5
40F
100
AcDbEntity
  8
LAY-1
  6
CONTINUOUS
 62
     2
100
AcDbLine
 10
2631.0
 20
1877.0
 30
0.0
 11
2631.0
 21
1875.0
 31
0.0
  0
LINE
  5
410
100
AcDbEntity
  8
LAY-1
  6
CONTINUOUS
 62
     2
100
AcDbLine
 10
2674.0
 20
1877.0
 30
0.0
 11
2674.0
 21
1875.0
 31
0.0
  0
LINE
  5
411
100
AcDbEntity
  8
LAY-1
  6
CONTINUOUS
 62
     2
100
AcDbLine
 10
2663.0
 20
1880.0
 30
0.0
 11
2663.0
 21
1877.0
 31
0.0
  0
LINE
  5
412
100
AcDbEntity
  8
LAY-1
  6
CONTINUOUS
 62
     2
100
AcDbLine
 10
2642.0
 20
1880.0
 30
0.0
 11
2642.0
 21
1877.0
 31
0.0
  0
LINE
  5
413
100
AcDbEntity
  8
LAY-1
  6
CONTINUOUS
 62
     2
100
AcDbLine
 10
2674.0
 20
1877.0
 30
0.0
 11
2631.0
 21
1877.0
 31
0.0
  0
LINE
  5
414
100
AcDbEntity
  8
LAY-1
  6
CONTINUOUS
 62
     2
100
AcDbLine
 10
2645.5
 20
1885.0
 30
0.0
 11
2645.5
 21
1881.0
 31
0.0
  0
LINE
  5
415
100
AcDbEntity
  8
LAY-1
  6
CONTINUOUS
 62
     2
100
AcDbLine
 10
2659.5
 20
1885.0
 30
0.0
 11
2659.5
 21
1881.0
 31
0.0
  0
ARC
  5
416
100
AcDbEntity
  8
LAY-1
  6
CONTINUOUS
 62
     2
100
AcDbCircle
 10
2652.5
 20
1905.0
 30
0.0
 40
25.0
100
AcDbArc
 50
253.739795
 51
286.260205
  0
ARC
  5
417
100
AcDbEntity
  8
LAY-1
  6
CONTINUOUS
 62
     2
100
AcDbCircle
 10
2642.0
 20
1886.625
 30
0.0
 40
6.625
100
AcDbArc
 50
238.109208
 51
301.890792
  0
ARC
  5
418
100
AcDbEntity
  8
LAY-1
  6
CONTINUOUS
 62
     2
100
AcDbCircle
 10
2663.0
 20
1886.625
 30
0.0
 40
6.625
100
AcDbArc
 50
238.109208
 51
301.890792
  0
LINE
  5
419
100
AcDbEntity
  8
LAY-1
  6
CONTINUOUS
 62
     2
100
AcDbLine
 10
2638.5
 20
1885.0
 30
0.0
 11
2638.5
 21
1881.0
 31
0.0
  0
LINE
  5
41A
100
AcDbEntity
  8
LAY-1
  6
CONTINUOUS
 62
     2
100
AcDbLine
 10
2666.5
 20
1885.0
 30
0.0
 11
2666.5
 21
1881.0
 31
0.0
  0
LINE
  5
41B
100
AcDbEntity
  8
LAY-1
  6
CONTINUOUS
 62
     2
100
AcDbLine
 10
2663.0
 20
1880.0
 30
0.0
 11
2642.0
 21
1880.0
 31
0.0
  0
ARC
  5
41C
100
AcDbEntity
  8
LAY-1
  6
CONTINUOUS
 62
     2
100
AcDbCircle
 10
2379.4905
 20
2075.607714
 30
0.0
 40
3.896364
100
AcDbArc
 50
312.232219
 51
58.953252
  0
ARC
  5
41D
100
AcDbEntity
  8
LAY-1
  6
CONTINUOUS
 62
     2
100
AcDbCircle
 10
2369.065435
 20
2062.283674
 30
0.0
 40
15.065629
100
AcDbArc
 50
328.353731
 51
32.377391
  0
ARC
  5
41E
100
AcDbEntity
  8
LAY-1
  6
CONTINUOUS
 62
     2
100
AcDbCircle
 10
2369.065435
 20
2043.716326
 30
0.0
 40
15.065629
100
AcDbArc
 50
327.622609
 51
31.646269
  0
ARC
  5
41F
100
AcDbEntity
  8
LAY-1
  6
CONTINUOUS
 62
     2
100
AcDbCircle
 10
2379.4905
 20
2030.392286
 30
0.0
 40
3.896364
100
AcDbArc
 50
301.046748
 51
47.767781
  0
ARC
  5
420
100
AcDbEntity
  8
LAY-1
  6
CONTINUOUS
 62
     2
100
AcDbCircle
 10
2430.75
 20
2053.0
 30
0.0
 40
36.25
100
AcDbArc
 50
170.472717
 51
189.527283
  0
ARC
  5
421
100
AcDbEntity
  8
LAY-1
  6
CONTINUOUS
 62
     2
100
AcDbCircle
 10
2402.3125
 20
2061.75
 30
0.0
 40
7.8125
100
AcDbArc
 50
159.390307
 51
200.609693
  0
LINE
  5
422
100
AcDbEntity
  8
LAY-1
  6
CONTINUOUS
 62
     2
100
AcDbLine
 10
2395.0
 20
2047.0
 30
0.0
 11
2400.5
 21
2047.0
 31
0.0
  0
LINE
  5
423
100
AcDbEntity
  8
LAY-1
  6
CONTINUOUS
 62
     2
100
AcDbLine
 10
2395.0
 20
2059.0
 30
0.0
 11
2400.5
 21
2059.0
 31
0.0
  0
LINE
  5
424
100
AcDbEntity
  8
LAY-1
  6
CONTINUOUS
 62
     2
100
AcDbLine
 10
2395.0
 20
2064.5
 30
0.0
 11
2400.5
 21
2064.5
 31
0.0
  0
LINE
  5
425
100
AcDbEntity
  8
LAY-1
  6
CONTINUOUS
 62
     2
100
AcDbLine
 10
2394.5
 20
2044.25
 30
0.0
 11
2394.5
 21
2061.75
 31
0.0
  0
LINE
  5
426
100
AcDbEntity
  8
LAY-1
  6
CONTINUOUS
 62
     2
100
AcDbLine
 10
2391.5
 20
2056.0
 30
0.0
 11
2394.5
 21
2056.0
 31
0.0
  0
LINE
  5
427
100
AcDbEntity
  8
LAY-1
  6
CONTINUOUS
 62
     2
100
AcDbLine
 10
2391.5
 20
2050.0
 30
0.0
 11
2394.5
 21
2050.0
 31
0.0
  0
LINE
  5
428
100
AcDbEntity
  8
LAY-1
  6
CONTINUOUS
 62
     2
100
AcDbLine
 10
2400.5
 20
2044.5
 30
0.0
 11
2401.5
 21
2044.5
 31
0.0
  0
LINE
  5
429
100
AcDbEntity
  8
LAY-1
  6
CONTINUOUS
 62
     2
100
AcDbLine
 10
2400.5
 20
2061.5
 30
0.0
 11
2401.5
 21
2061.5
 31
0.0
  0
LINE
  5
42A
100
AcDbEntity
  8
LAY-1
  6
CONTINUOUS
 62
     2
100
AcDbLine
 10
2401.5
 20
2066.0
 30
0.0
 11
2408.5
 21
2066.0
 31
0.0
  0
LINE
  5
42B
100
AcDbEntity
  8
LAY-1
  6
CONTINUOUS
 62
     2
100
AcDbLine
 10
2384.128562
 20
2050.371438
 30
0.0
 11
2391.5
 21
2050.371438
 31
0.0
  0
LINE
  5
42C
100
AcDbEntity
  8
LAY-1
  6
CONTINUOUS
 62
     2
100
AcDbLine
 10
2384.128562
 20
2055.628562
 30
0.0
 11
2391.5
 21
2055.628562
 31
0.0
  0
ARC
  5
42D
100
AcDbEntity
  8
LAY-1
  6
CONTINUOUS
 62
     2
100
AcDbCircle
 10
2384.128562
 20
2053.0
 30
0.0
 40
2.628562
100
AcDbArc
 50
90.0
 51
270.0
  0
LINE
  5
42E
100
AcDbEntity
  8
LAY-1
  6
CONTINUOUS
 62
     2
100
AcDbLine
 10
2383.054089
 20
2080.5
 30
0.0
 11
2391.0
 21
2080.5
 31
0.0
  0
ARC
  5
42F
100
AcDbEntity
  8
LAY-1
  6
CONTINUOUS
 62
     2
100
AcDbCircle
 10
2383.054089
 20
2078.945911
 30
0.0
 40
1.554089
100
AcDbArc
 50
90.0
 51
180.0
  0
LINE
  5
430
100
AcDbEntity
  8
LAY-1
  6
CONTINUOUS
 62
     2
100
AcDbLine
 10
2381.5
 20
2078.945911
 30
0.0
 11
2391.5
 21
2078.945911
 31
0.0
  0
LINE
  5
431
100
AcDbEntity
  8
LAY-1
  6
CONTINUOUS
 62
     2
100
AcDbLine
 10
2383.358674
 20
2069.487855
 30
0.0
 11
2391.5
 21
2069.487855
 31
0.0
  0
LINE
  5
432
100
AcDbEntity
  8
LAY-1
  6
CONTINUOUS
 62
     2
100
AcDbLine
 10
2383.358674
 20
2073.205204
 30
0.0
 11
2391.5
 21
2073.205204
 31
0.0
  0
ARC
  5
433
100
AcDbEntity
  8
LAY-1
  6
CONTINUOUS
 62
     2
100
AcDbCircle
 10
2383.358674
 20
2071.34653
 30
0.0
 40
1.858674
100
AcDbArc
 50
90.0
 51
270.0
  0
ARC
  5
434
100
AcDbEntity
  8
LAY-1
  6
CONTINUOUS
 62
     2
100
AcDbCircle
 10
2391.0
 20
2080.0
 30
0.0
 40
0.5
100
AcDbArc
 50
0.0
 51
90.0
  0
LINE
  5
435
100
AcDbEntity
  8
LAY-1
  6
CONTINUOUS
 62
     2
100
AcDbLine
 10
2395.0
 20
2041.5
 30
0.0
 11
2400.5
 21
2041.5
 31
0.0
  0
LINE
  5
436
100
AcDbEntity
  8
LAY-1
  6
CONTINUOUS
 62
     2
100
AcDbLine
 10
2401.5
 20
2040.0
 30
0.0
 11
2408.5
 21
2040.0
 31
0.0
  0
LINE
  5
437
100
AcDbEntity
  8
LAY-1
  6
CONTINUOUS
 62
     2
100
AcDbLine
 10
2383.054089
 20
2025.5
 30
0.0
 11
2391.0
 21
2025.5
 31
0.0
  0
LINE
  5
438
100
AcDbEntity
  8
LAY-1
  6
CONTINUOUS
 62
     2
100
AcDbLine
 10
2383.358674
 20
2036.512145
 30
0.0
 11
2391.5
 21
2036.512145
 31
0.0
  0
LINE
  5
439
100
AcDbEntity
  8
LAY-1
  6
CONTINUOUS
 62
     2
100
AcDbLine
 10
2383.358674
 20
2032.794796
 30
0.0
 11
2391.5
 21
2032.794796
 31
0.0
  0
LINE
  5
43A
100
AcDbEntity
  8
LAY-1
  6
CONTINUOUS
 62
     2
100
AcDbLine
 10
2381.5
 20
2027.054089
 30
0.0
 11
2391.5
 21
2027.054089
 31
0.0
  0
ARC
  5
43B
100
AcDbEntity
  8
LAY-1
  6
CONTINUOUS
 62
     2
100
AcDbCircle
 10
2383.358674
 20
2034.65347
 30
0.0
 40
1.858674
100
AcDbArc
 50
90.0
 51
270.0
  0
ARC
  5
43C
100
AcDbEntity
  8
LAY-1
  6
CONTINUOUS
 62
     2
100
AcDbCircle
 10
2383.054089
 20
2027.054089
 30
0.0
 40
1.554089
100
AcDbArc
 50
180.0
 51
270.0
  0
ARC
  5
43D
100
AcDbEntity
  8
LAY-1
  6
CONTINUOUS
 62
     2
100
AcDbCircle
 10
2391.0
 20
2026.0
 30
0.0
 40
0.5
100
AcDbArc
 50
270.0
 51
0.0
  0
LINE
  5
43E
100
AcDbEntity
  8
LAY-1
  6
CONTINUOUS
 62
     2
100
AcDbLine
 10
2400.5
 20
2041.5
 30
0.0
 11
2400.5
 21
2064.5
 31
0.0
  0
ARC
  5
43F
100
AcDbEntity
  8
LAY-1
  6
CONTINUOUS
 62
     2
100
AcDbCircle
 10
2402.3125
 20
2044.25
 30
0.0
 40
7.8125
100
AcDbArc
 50
159.390307
 51
200.609693
  0
LINE
  5
440
100
AcDbEntity
  8
LAY-1
  6
CONTINUOUS
 62
     2
100
AcDbLine
 10
2401.5
 20
2040.0
 30
0.0
 11
2401.5
 21
2066.0
 31
0.0
  0
LINE
  5
441
100
AcDbEntity
  8
LAY-1
  6
CONTINUOUS
 62
     2
100
AcDbLine
 10
2381.5
 20
2027.054089
 30
0.0
 11
2381.5
 21
2078.945911
 31
0.0
  0
LINE
  5
442
100
AcDbEntity
  8
LAY-1
  6
CONTINUOUS
 62
     2
100
AcDbLine
 10
2391.5
 20
2026.0
 30
0.0
 11
2391.5
 21
2080.0
 31
0.0
  0
CIRCLE
  5
443
100
AcDbEntity
  8
LAY-1
  6
CONTINUOUS
 62
     2
100
AcDbCircle
 10
2372.5
 20
2289.0
 30
0.0
 40
7.5
  0
LINE
  5
444
100
AcDbEntity
  8
LAY-1
  6
CONTINUOUS
 62
     2
100
AcDbLine
 10
2498.9
 20
2409.36
 30
0.0
 11
2498.9
 21
2373.0
 31
0.0
  0
LINE
  5
445
100
AcDbEntity
  8
LAY-1
  6
CONTINUOUS
 62
     2
100
AcDbLine
 10
2498.9
 20
2493.0
 30
0.0
 11
2498.9
 21
2428.64
 31
0.0
  0
LINE
  5
446
100
AcDbEntity
  8
LAY-1
  6
CONTINUOUS
 62
     2
100
AcDbLine
 10
2499.0
 20
2415.382686
 30
0.0
 11
2499.0
 21
2409.5
 31
0.0
  0
ARC
  5
447
100
AcDbEntity
  8
LAY-1
  6
CONTINUOUS
 62
     2
100
AcDbCircle
 10
2460.4905
 20
2396.392286
 30
0.0
 40
3.896364
100
AcDbArc
 50
301.046748
 51
47.767781
  0
ARC
  5
448
100
AcDbEntity
  8
LAY-1
  6
CONTINUOUS
 62
     2
100
AcDbCircle
 10
2450.065435
 20
2409.716326
 30
0.0
 40
15.065629
100
AcDbArc
 50
327.622609
 51
31.646269
  0
ARC
  5
449
100
AcDbEntity
  8
LAY-1
  6
CONTINUOUS
 62
     2
100
AcDbCircle
 10
2450.065435
 20
2428.283674
 30
0.0
 40
15.065629
100
AcDbArc
 50
328.353731
 51
32.377391
  0
ARC
  5
44A
100
AcDbEntity
  8
LAY-1
  6
CONTINUOUS
 62
     2
100
AcDbCircle
 10
2460.4905
 20
2441.607714
 30
0.0
 40
3.896364
100
AcDbArc
 50
312.232219
 51
58.953252
  0
LINE
  5
44B
100
AcDbEntity
  8
LAY-1
  6
CONTINUOUS
 62
     2
100
AcDbLine
 10
2499.0
 20
2428.5
 30
0.0
 11
2502.39637
 21
2428.5
 31
0.0
  0
LINE
  5
44C
100
AcDbEntity
  8
LAY-1
  6
CONTINUOUS
 62
     2
100
AcDbLine
 10
2499.0
 20
2409.5
 30
0.0
 11
2502.39637
 21
2409.5
 31
0.0
  0
ARC
  5
44D
100
AcDbEntity
  8
LAY-1
  6
CONTINUOUS
 62
     2
100
AcDbCircle
 10
2511.75
 20
2419.0
 30
0.0
 40
36.25
100
AcDbArc
 50
170.472717
 51
189.527283
  0
ARC
  5
44E
100
AcDbEntity
  8
LAY-1
  6
CONTINUOUS
 62
     2
100
AcDbCircle
 10
2483.3125
 20
2410.25
 30
0.0
 40
7.8125
100
AcDbArc
 50
159.390307
 51
200.609693
  0
LINE
  5
44F
100
AcDbEntity
  8
LAY-1
  6
CONTINUOUS
 62
     2
100
AcDbLine
 10
2476.0
 20
2425.0
 30
0.0
 11
2481.5
 21
2425.0
 31
0.0
  0
LINE
  5
450
100
AcDbEntity
  8
LAY-1
  6
CONTINUOUS
 62
     2
100
AcDbLine
 10
2476.0
 20
2413.0
 30
0.0
 11
2481.5
 21
2413.0
 31
0.0
  0
LINE
  5
451
100
AcDbEntity
  8
LAY-1
  6
CONTINUOUS
 62
     2
100
AcDbLine
 10
2476.0
 20
2407.5
 30
0.0
 11
2481.5
 21
2407.5
 31
0.0
  0
LINE
  5
452
100
AcDbEntity
  8
LAY-1
  6
CONTINUOUS
 62
     2
100
AcDbLine
 10
2475.5
 20
2427.75
 30
0.0
 11
2475.5
 21
2410.25
 31
0.0
  0
LINE
  5
453
100
AcDbEntity
  8
LAY-1
  6
CONTINUOUS
 62
     2
100
AcDbLine
 10
2472.5
 20
2416.0
 30
0.0
 11
2475.5
 21
2416.0
 31
0.0
  0
LINE
  5
454
100
AcDbEntity
  8
LAY-1
  6
CONTINUOUS
 62
     2
100
AcDbLine
 10
2472.5
 20
2422.0
 30
0.0
 11
2475.5
 21
2422.0
 31
0.0
  0
LINE
  5
455
100
AcDbEntity
  8
LAY-1
  6
CONTINUOUS
 62
     2
100
AcDbLine
 10
2481.5
 20
2427.5
 30
0.0
 11
2482.5
 21
2427.5
 31
0.0
  0
LINE
  5
456
100
AcDbEntity
  8
LAY-1
  6
CONTINUOUS
 62
     2
100
AcDbLine
 10
2481.5
 20
2410.5
 30
0.0
 11
2482.5
 21
2410.5
 31
0.0
  0
LINE
  5
457
100
AcDbEntity
  8
LAY-1
  6
CONTINUOUS
 62
     2
100
AcDbLine
 10
2482.5
 20
2406.0
 30
0.0
 11
2496.5
 21
2406.0
 31
0.0
  0
LINE
  5
458
100
AcDbEntity
  8
LAY-1
  6
CONTINUOUS
 62
     2
100
AcDbLine
 10
2499.0
 20
2428.5
 30
0.0
 11
2499.0
 21
2422.617314
 31
0.0
  0
LINE
  5
459
100
AcDbEntity
  8
LAY-1
  6
CONTINUOUS
 62
     2
100
AcDbLine
 10
2496.5
 20
2406.0
 30
0.0
 11
2499.0
 21
2409.5
 31
0.0
  0
LINE
  5
45A
100
AcDbEntity
  8
LAY-1
  6
CONTINUOUS
 62
     2
100
AcDbLine
 10
2465.128562
 20
2421.628562
 30
0.0
 11
2472.5
 21
2421.628562
 31
0.0
  0
LINE
  5
45B
100
AcDbEntity
  8
LAY-1
  6
CONTINUOUS
 62
     2
100
AcDbLine
 10
2465.128562
 20
2416.371438
 30
0.0
 11
2472.5
 21
2416.371438
 31
0.0
  0
ARC
  5
45C
100
AcDbEntity
  8
LAY-1
  6
CONTINUOUS
 62
     2
100
AcDbCircle
 10
2465.128562
 20
2419.0
 30
0.0
 40
2.628562
100
AcDbArc
 50
90.0
 51
270.0
  0
LINE
  5
45D
100
AcDbEntity
  8
LAY-1
  6
CONTINUOUS
 62
     2
100
AcDbLine
 10
2464.054089
 20
2391.5
 30
0.0
 11
2472.0
 21
2391.5
 31
0.0
  0
ARC
  5
45E
100
AcDbEntity
  8
LAY-1
  6
CONTINUOUS
 62
     2
100
AcDbCircle
 10
2464.054089
 20
2393.054089
 30
0.0
 40
1.554089
100
AcDbArc
 50
180.0
 51
270.0
  0
LINE
  5
45F
100
AcDbEntity
  8
LAY-1
  6
CONTINUOUS
 62
     2
100
AcDbLine
 10
2462.5
 20
2393.054089
 30
0.0
 11
2472.5
 21
2393.054089
 31
0.0
  0
LINE
  5
460
100
AcDbEntity
  8
LAY-1
  6
CONTINUOUS
 62
     2
100
AcDbLine
 10
2464.358674
 20
2402.512145
 30
0.0
 11
2472.5
 21
2402.512145
 31
0.0
  0
LINE
  5
461
100
AcDbEntity
  8
LAY-1
  6
CONTINUOUS
 62
     2
100
AcDbLine
 10
2464.358674
 20
2398.794796
 30
0.0
 11
2472.5
 21
2398.794796
 31
0.0
  0
ARC
  5
462
100
AcDbEntity
  8
LAY-1
  6
CONTINUOUS
 62
     2
100
AcDbCircle
 10
2464.358674
 20
2400.65347
 30
0.0
 40
1.858674
100
AcDbArc
 50
90.0
 51
270.0
  0
ARC
  5
463
100
AcDbEntity
  8
LAY-1
  6
CONTINUOUS
 62
     2
100
AcDbCircle
 10
2472.0
 20
2392.0
 30
0.0
 40
0.5
100
AcDbArc
 50
270.0
 51
0.0
  0
LINE
  5
464
100
AcDbEntity
  8
LAY-1
  6
CONTINUOUS
 62
     2
100
AcDbLine
 10
2476.0
 20
2430.5
 30
0.0
 11
2481.5
 21
2430.5
 31
0.0
  0
LINE
  5
465
100
AcDbEntity
  8
LAY-1
  6
CONTINUOUS
 62
     2
100
AcDbLine
 10
2482.5
 20
2432.0
 30
0.0
 11
2496.5
 21
2432.0
 31
0.0
  0
LINE
  5
466
100
AcDbEntity
  8
LAY-1
  6
CONTINUOUS
 62
     2
100
AcDbLine
 10
2464.054089
 20
2446.5
 30
0.0
 11
2472.0
 21
2446.5
 31
0.0
  0
LINE
  5
467
100
AcDbEntity
  8
LAY-1
  6
CONTINUOUS
 62
     2
100
AcDbLine
 10
2464.358674
 20
2435.487855
 30
0.0
 11
2472.5
 21
2435.487855
 31
0.0
  0
LINE
  5
468
100
AcDbEntity
  8
LAY-1
  6
CONTINUOUS
 62
     2
100
AcDbLine
 10
2464.358674
 20
2439.205204
 30
0.0
 11
2472.5
 21
2439.205204
 31
0.0
  0
LINE
  5
469
100
AcDbEntity
  8
LAY-1
  6
CONTINUOUS
 62
     2
100
AcDbLine
 10
2462.5
 20
2444.945911
 30
0.0
 11
2472.5
 21
2444.945911
 31
0.0
  0
ARC
  5
46A
100
AcDbEntity
  8
LAY-1
  6
CONTINUOUS
 62
     2
100
AcDbCircle
 10
2464.358674
 20
2437.34653
 30
0.0
 40
1.858674
100
AcDbArc
 50
90.0
 51
270.0
  0
ARC
  5
46B
100
AcDbEntity
  8
LAY-1
  6
CONTINUOUS
 62
     2
100
AcDbCircle
 10
2464.054089
 20
2444.945911
 30
0.0
 40
1.554089
100
AcDbArc
 50
90.0
 51
180.0
  0
ARC
  5
46C
100
AcDbEntity
  8
LAY-1
  6
CONTINUOUS
 62
     2
100
AcDbCircle
 10
2472.0
 20
2446.0
 30
0.0
 40
0.5
100
AcDbArc
 50
0.0
 51
90.0
  0
LINE
  5
46D
100
AcDbEntity
  8
LAY-1
  6
CONTINUOUS
 62
     2
100
AcDbLine
 10
2481.5
 20
2430.5
 30
0.0
 11
2481.5
 21
2407.5
 31
0.0
  0
ARC
  5
46E
100
AcDbEntity
  8
LAY-1
  6
CONTINUOUS
 62
     2
100
AcDbCircle
 10
2483.3125
 20
2427.75
 30
0.0
 40
7.8125
100
AcDbArc
 50
159.390307
 51
200.609693
  0
LINE
  5
46F
100
AcDbEntity
  8
LAY-1
  6
CONTINUOUS
 62
     2
100
AcDbLine
 10
2482.5
 20
2432.0
 30
0.0
 11
2482.5
 21
2406.0
 31
0.0
  0
LINE
  5
470
100
AcDbEntity
  8
LAY-1
  6
CONTINUOUS
 62
     2
100
AcDbLine
 10
2496.5
 20
2432.0
 30
0.0
 11
2496.5
 21
2406.0
 31
0.0
  0
LINE
  5
471
100
AcDbEntity
  8
LAY-1
  6
CONTINUOUS
 62
     2
100
AcDbLine
 10
2496.5
 20
2432.0
 30
0.0
 11
2499.0
 21
2428.5
 31
0.0
  0
LINE
  5
472
100
AcDbEntity
  8
LAY-1
  6
CONTINUOUS
 62
     2
100
AcDbLine
 10
2462.5
 20
2444.945911
 30
0.0
 11
2462.5
 21
2393.054089
 31
0.0
  0
LINE
  5
473
100
AcDbEntity
  8
LAY-1
  6
CONTINUOUS
 62
     2
100
AcDbLine
 10
2472.5
 20
2446.0
 30
0.0
 11
2472.5
 21
2392.0
 31
0.0
  0
CIRCLE
  5
474
100
AcDbEntity
  8
LAY-1
  6
CONTINUOUS
 62
     2
100
AcDbCircle
 10
2512.5
 20
2419.0
 30
0.0
 40
11.0
  0
POLYLINE
  5
475
100
AcDbEntity
  8
LAY-1
  6
CONTINUOUS
 62
     2
100
AcDb2dPolyline
 66
     1
 10
0.0
 20
0.0
 30
0.0
 70
   128
  0
VERTEX
  5
476
100
AcDbEntity
  8
LAY-1
  6
CONTINUOUS
 62
     2
100
AcDbVertex
100
AcDb2dVertex
 10
2504.705771
 20
2432.5
 30
0.0
  0
VERTEX
  5
477
100
AcDbEntity
  8
LAY-1
  6
CONTINUOUS
 62
     2
100
AcDbVertex
100
AcDb2dVertex
 10
2496.911543
 20
2419.0
 30
0.0
  0
VERTEX
  5
478
100
AcDbEntity
  8
LAY-1
  6
CONTINUOUS
 62
     2
100
AcDbVertex
100
AcDb2dVertex
 10
2504.705771
 20
2405.5
 30
0.0
  0
VERTEX
  5
479
100
AcDbEntity
  8
LAY-1
  6
CONTINUOUS
 62
     2
100
AcDbVertex
100
AcDb2dVertex
 10
2520.294229
 20
2405.5
 30
0.0
  0
VERTEX
  5
47A
100
AcDbEntity
  8
LAY-1
  6
CONTINUOUS
 62
     2
100
AcDbVertex
100
AcDb2dVertex
 10
2528.088457
 20
2419.0
 30
0.0
  0
VERTEX
  5
47B
100
AcDbEntity
  8
LAY-1
  6
CONTINUOUS
 62
     2
100
AcDbVertex
100
AcDb2dVertex
 10
2520.294229
 20
2432.5
 30
0.0
  0
VERTEX
  5
47C
100
AcDbEntity
  8
LAY-1
  6
CONTINUOUS
 62
     2
100
AcDbVertex
100
AcDb2dVertex
 10
2504.705771
 20
2432.5
 30
0.0
  0
SEQEND
  5
47D
100
AcDbEntity
  8
LAY-1
  6
CONTINUOUS
 62
     2
  0
CIRCLE
  5
47E
100
AcDbEntity
  8
LAY-1
  6
CONTINUOUS
 62
     2
100
AcDbCircle
 10
2512.5
 20
2419.0
 30
0.0
 40
13.5
  0
LINE
  5
47F
100
AcDbEntity
  8
LAY-1
  6
CONTINUOUS
 62
     2
100
AcDbLine
 10
2562.5
 20
2493.0
 30
0.0
 11
2462.5
 21
2493.0
 31
0.0
  0
LINE
  5
480
100
AcDbEntity
  8
LAY-1
  6
CONTINUOUS
 62
     2
100
AcDbLine
 10
2562.5
 20
2508.0
 30
0.0
 11
2462.5
 21
2508.0
 31
0.0
  0
LINE
  5
481
100
AcDbEntity
  8
LAY-1
  6
CONTINUOUS
 62
     2
100
AcDbLine
 10
2484.5
 20
2509.0
 30
0.0
 11
2484.5
 21
2508.0
 31
0.0
  0
LINE
  5
482
100
AcDbEntity
  8
LAY-1
  6
CONTINUOUS
 62
     2
100
AcDbLine
 10
2540.5
 20
2509.0
 30
0.0
 11
2540.5
 21
2508.0
 31
0.0
  0
LINE
  5
483
100
AcDbEntity
  8
LAY-1
  6
CONTINUOUS
 62
     2
100
AcDbLine
 10
2462.5
 20
2508.0
 30
0.0
 11
2462.5
 21
2493.0
 31
0.0
  0
LINE
  5
484
100
AcDbEntity
  8
LAY-1
  6
CONTINUOUS
 62
     2
100
AcDbLine
 10
2562.5
 20
2508.0
 30
0.0
 11
2562.5
 21
2493.0
 31
0.0
  0
LINE
  5
485
100
AcDbEntity
  8
LAY-1
  6
CONTINUOUS
 62
     2
100
AcDbLine
 10
2540.5
 20
2509.0
 30
0.0
 11
2484.5
 21
2509.0
 31
0.0
  0
LINE
  5
486
100
AcDbEntity
  8
LAY-1
  6
CONTINUOUS
 62
     2
100
AcDbLine
 10
2526.1
 20
2415.555891
 30
0.0
 11
2526.1
 21
2373.0
 31
0.0
  0
LINE
  5
487
100
AcDbEntity
  8
LAY-1
  6
CONTINUOUS
 62
     2
100
AcDbLine
 10
2526.1
 20
2493.0
 30
0.0
 11
2526.1
 21
2422.444109
 31
0.0
  0
LINE
  5
488
100
AcDbEntity
  8
LAY-1
  6
CONTINUOUS
 62
     2
100
AcDbLine
 10
2764.5
 20
2507.0
 30
0.0
 11
2764.5
 21
2508.0
 31
0.0
  0
LINE
  5
489
100
AcDbEntity
  8
LAY-1
  6
CONTINUOUS
 62
     2
100
AcDbLine
 10
2820.5
 20
2507.0
 30
0.0
 11
2820.5
 21
2508.0
 31
0.0
  0
LINE
  5
48A
100
AcDbEntity
  8
LAY-1
  6
CONTINUOUS
 62
     2
100
AcDbLine
 10
2764.5
 20
2508.0
 30
0.0
 11
2820.5
 21
2508.0
 31
0.0
  0
LINE
  5
48B
100
AcDbEntity
  8
LAY-1
  6
CONTINUOUS
 62
     2
100
AcDbLine
 10
2742.5
 20
2493.0
 30
0.0
 11
2842.5
 21
2493.0
 31
0.0
  0
LINE
  5
48C
100
AcDbEntity
  8
LAY-1
  6
CONTINUOUS
 62
     2
100
AcDbLine
 10
2742.5
 20
2493.0
 30
0.0
 11
2742.5
 21
2507.0
 31
0.0
  0
LINE
  5
48D
100
AcDbEntity
  8
LAY-1
  6
CONTINUOUS
 62
     2
100
AcDbLine
 10
2842.5
 20
2493.0
 30
0.0
 11
2842.5
 21
2507.0
 31
0.0
  0
LINE
  5
48E
100
AcDbEntity
  8
LAY-1
  6
CONTINUOUS
 62
     2
100
AcDbLine
 10
2742.5
 20
2507.0
 30
0.0
 11
2842.5
 21
2507.0
 31
0.0
  0
LINE
  5
48F
100
AcDbEntity
  8
LAY-1
  6
EXLTYPE3
 62
     1
100
AcDbLine
 10
2372.5
 20
2303.0
 30
0.0
 11
2372.5
 21
1956.7
 31
0.0
  0
LINE
  5
490
100
AcDbEntity
  8
LAY-1
  6
EXLTYPE3
 62
     1
100
AcDbLine
 10
2362.5
 20
1969.0
 30
0.0
 11
2383.4
 21
1969.0
 31
0.0
  0
LINE
  5
491
100
AcDbEntity
  8
LAY-1
  6
EXLTYPE3
 62
     1
100
AcDbLine
 10
2362.5
 20
2289.0
 30
0.0
 11
2383.4
 21
2289.0
 31
0.0
  0
LINE
  5
492
100
AcDbEntity
  8
LAY-1
  6
EXLTYPE3
 62
     1
100
AcDbLine
 10
2942.5
 20
2289.0
 30
0.0
 11
2921.6
 21
2289.0
 31
0.0
  0
LINE
  5
493
100
AcDbEntity
  8
LAY-1
  6
EXLTYPE3
 62
     1
100
AcDbLine
 10
2932.5
 20
2303.0
 30
0.0
 11
2932.5
 21
1956.7
 31
0.0
  0
LINE
  5
494
100
AcDbEntity
  8
LAY-1
  6
EXLTYPE3
 62
     1
100
AcDbLine
 10
2942.5
 20
1969.0
 30
0.0
 11
2921.6
 21
1969.0
 31
0.0
  0
INSERT
  5
495
100
AcDbEntity
  8
LAY-1
  6
CONTINUOUS
 62
     0
100
AcDbBlockReference
  2
SYM-1
 10
2792.5
 20
2540.0
 30
0.0
 41
10.0
 42
10.0
 50
270.0
  0
INSERT
  5
496
100
AcDbEntity
  8
LAY-1
  6
CONTINUOUS
 62
     0
100
AcDbBlockReference
  2
SYM-1
 10
2512.5
 20
2737.0
 30
0.0
 41
10.0
 42
10.0
 50
90.0
  0
ARC
  5
497
100
AcDbEntity
  8
LAY-1
  6
CONTINUOUS
 62
     2
100
AcDbCircle
 10
605.0
 20
696.400855
 30
0.0
 40
2.0
100
AcDbArc
 50
289.983107
 51
0.0
  0
LINE
  5
498
100
AcDbEntity
  8
LAY-1
  6
CONTINUOUS
 62
     2
100
AcDbLine
 10
605.683486
 20
694.521268
 30
0.0
 11
601.5
 21
693.0
 31
0.0
  0
LINE
  5
499
100
AcDbEntity
  8
LAY-1
  6
CONTINUOUS
 62
     2
100
AcDbLine
 10
604.0
 20
701.3
 30
0.0
 11
607.0
 21
701.3
 31
0.0
  0
LINE
  5
49A
100
AcDbEntity
  8
LAY-1
  6
CONTINUOUS
 62
     2
100
AcDbLine
 10
604.0
 20
701.3
 30
0.0
 11
604.0
 21
698.0
 31
0.0
  0
LINE
  5
49B
100
AcDbEntity
  8
LAY-1
  6
CONTINUOUS
 62
     2
100
AcDbLine
 10
607.0
 20
701.3
 30
0.0
 11
607.0
 21
696.400855
 31
0.0
  0
LINE
  5
49C
100
AcDbEntity
  8
LAY-1
  6
CONTINUOUS
 62
     2
100
AcDbLine
 10
603.0
 20
699.0
 30
0.0
 11
587.0
 21
699.0
 31
0.0
  0
LINE
  5
49D
100
AcDbEntity
  8
LAY-1
  6
CONTINUOUS
 62
     2
100
AcDbLine
 10
603.0
 20
701.3
 30
0.0
 11
587.0
 21
701.3
 31
0.0
  0
LINE
  5
49E
100
AcDbEntity
  8
LAY-1
  6
CONTINUOUS
 62
     2
100
AcDbLine
 10
588.5
 20
691.5
 30
0.0
 11
587.748963
 21
687.434602
 31
0.0
  0
LINE
  5
49F
100
AcDbEntity
  8
LAY-1
  6
CONTINUOUS
 62
     2
100
AcDbLine
 10
601.5
 20
691.5
 30
0.0
 11
602.366191
 21
687.376178
 31
0.0
  0
LINE
  5
4A0
100
AcDbEntity
  8
LAY-1
  6
CONTINUOUS
 62
     2
100
AcDbLine
 10
601.5
 20
698.0
 30
0.0
 11
601.5
 21
691.5
 31
0.0
  0
LINE
  5
4A1
100
AcDbEntity
  8
LAY-1
  6
CONTINUOUS
 62
     2
100
AcDbLine
 10
588.5
 20
698.0
 30
0.0
 11
588.5
 21
691.5
 31
0.0
  0
ARC
  5
4A2
100
AcDbEntity
  8
LAY-1
  6
CONTINUOUS
 62
     2
100
AcDbCircle
 10
590.5
 20
704.8
 30
0.0
 40
2.5
100
AcDbArc
 50
233.130102
 51
306.869898
  0
ARC
  5
4A3
100
AcDbEntity
  8
LAY-1
  6
CONTINUOUS
 62
     2
100
AcDbCircle
 10
590.5
 20
703.8
 30
0.0
 40
2.5
100
AcDbArc
 50
53.130102
 51
126.869898
  0
LINE
  5
4A4
100
AcDbEntity
  8
LAY-1
  6
CONTINUOUS
 62
     2
100
AcDbLine
 10
604.0
 20
698.0
 30
0.0
 11
588.5
 21
698.0
 31
0.0
  0
LINE
  5
4A5
100
AcDbEntity
  8
LAY-1
  6
CONTINUOUS
 62
     2
100
AcDbLine
 10
592.0
 20
706.3
 30
0.0
 11
592.0
 21
707.8
 31
0.0
  0
LINE
  5
4A6
100
AcDbEntity
  8
LAY-1
  6
CONTINUOUS
 62
     2
100
AcDbLine
 10
598.0
 20
706.3
 30
0.0
 11
598.0
 21
707.8
 31
0.0
  0
LINE
  5
4A7
100
AcDbEntity
  8
LAY-1
  6
CONTINUOUS
 62
     2
100
AcDbLine
 10
592.5
 20
708.3
 30
0.0
 11
592.0
 21
707.8
 31
0.0
  0
LINE
  5
4A8
100
AcDbEntity
  8
LAY-1
  6
CONTINUOUS
 62
     2
100
AcDbLine
 10
597.5
 20
708.3
 30
0.0
 11
592.5
 21
708.3
 31
0.0
  0
LINE
  5
4A9
100
AcDbEntity
  8
LAY-1
  6
CONTINUOUS
 62
     2
100
AcDbLine
 10
598.0
 20
707.8
 30
0.0
 11
597.5
 21
708.3
 31
0.0
  0
LINE
  5
4AA
100
AcDbEntity
  8
LAY-1
  6
CONTINUOUS
 62
     2
100
AcDbLine
 10
601.0
 20
705.8
 30
0.0
 11
601.0
 21
702.8
 31
0.0
  0
LINE
  5
4AB
100
AcDbEntity
  8
LAY-1
  6
CONTINUOUS
 62
     2
100
AcDbLine
 10
599.5
 20
706.3
 30
0.0
 11
590.5
 21
706.3
 31
0.0
  0
LINE
  5
4AC
100
AcDbEntity
  8
LAY-1
  6
CONTINUOUS
 62
     2
100
AcDbLine
 10
598.0
 20
705.8
 30
0.0
 11
598.0
 21
702.8
 31
0.0
  0
LINE
  5
4AD
100
AcDbEntity
  8
LAY-1
  6
CONTINUOUS
 62
     2
100
AcDbLine
 10
592.0
 20
705.8
 30
0.0
 11
592.0
 21
702.8
 31
0.0
  0
ARC
  5
4AE
100
AcDbEntity
  8
LAY-1
  6
CONTINUOUS
 62
     2
100
AcDbCircle
 10
595.0
 20
711.55
 30
0.0
 40
9.25
100
AcDbArc
 50
251.075356
 51
288.924644
  0
ARC
  5
4AF
100
AcDbEntity
  8
LAY-1
  6
CONTINUOUS
 62
     2
100
AcDbCircle
 10
599.5
 20
704.8
 30
0.0
 40
2.5
100
AcDbArc
 50
233.130102
 51
306.869898
  0
ARC
  5
4B0
100
AcDbEntity
  8
LAY-1
  6
CONTINUOUS
 62
     2
100
AcDbCircle
 10
595.0
 20
697.05
 30
0.0
 40
9.25
100
AcDbArc
 50
71.075356
 51
108.924644
  0
ARC
  5
4B1
100
AcDbEntity
  8
LAY-1
  6
CONTINUOUS
 62
     2
100
AcDbCircle
 10
599.5
 20
703.8
 30
0.0
 40
2.5
100
AcDbArc
 50
53.130102
 51
126.869898
  0
LINE
  5
4B2
100
AcDbEntity
  8
LAY-1
  6
CONTINUOUS
 62
     2
100
AcDbLine
 10
598.0
 20
699.0
 30
0.0
 11
598.0
 21
698.0
 31
0.0
  0
LINE
  5
4B3
100
AcDbEntity
  8
LAY-1
  6
CONTINUOUS
 62
     2
100
AcDbLine
 10
592.0
 20
699.0
 30
0.0
 11
592.0
 21
698.0
 31
0.0
  0
LINE
  5
4B4
100
AcDbEntity
  8
LAY-1
  6
CONTINUOUS
 62
     2
100
AcDbLine
 10
589.0
 20
705.8
 30
0.0
 11
589.0
 21
702.8
 31
0.0
  0
LINE
  5
4B5
100
AcDbEntity
  8
LAY-1
  6
CONTINUOUS
 62
     2
100
AcDbLine
 10
587.0
 20
699.0
 30
0.0
 11
579.0
 21
699.0
 31
0.0
  0
LINE
  5
4B6
100
AcDbEntity
  8
LAY-1
  6
CONTINUOUS
 62
     2
100
AcDbLine
 10
587.0
 20
701.3
 30
0.0
 11
580.795786
 21
701.3
 31
0.0
  0
LINE
  5
4B7
100
AcDbEntity
  8
LAY-1
  6
CONTINUOUS
 62
     2
100
AcDbLine
 10
603.0
 20
702.3
 30
0.0
 11
587.0
 21
702.3
 31
0.0
  0
LINE
  5
4B8
100
AcDbEntity
  8
LAY-1
  6
CONTINUOUS
 62
     2
100
AcDbLine
 10
603.0
 20
702.3
 30
0.0
 11
603.0
 21
699.0
 31
0.0
  0
LINE
  5
4B9
100
AcDbEntity
  8
LAY-1
  6
CONTINUOUS
 62
     2
100
AcDbLine
 10
597.5
 20
708.3
 30
0.0
 11
597.5
 21
706.3
 31
0.0
  0
LINE
  5
4BA
100
AcDbEntity
  8
LAY-1
  6
CONTINUOUS
 62
     2
100
AcDbLine
 10
592.5
 20
708.3
 30
0.0
 11
592.5
 21
706.3
 31
0.0
  0
LINE
  5
4BB
100
AcDbEntity
  8
LAY-1
  6
CONTINUOUS
 62
     2
100
AcDbLine
 10
598.0
 20
707.8
 30
0.0
 11
592.0
 21
707.8
 31
0.0
  0
LINE
  5
4BC
100
AcDbEntity
  8
LAY-1
  6
CONTINUOUS
 62
     2
100
AcDbLine
 10
587.0
 20
702.3
 30
0.0
 11
587.0
 21
699.0
 31
0.0
  0
LINE
  5
4BD
100
AcDbEntity
  8
LAY-1
  6
CONTINUOUS
 62
     2
100
AcDbLine
 10
574.0
 20
719.0
 30
0.0
 11
579.0
 21
699.0
 31
0.0
  0
LINE
  5
4BE
100
AcDbEntity
  8
LAY-1
  6
CONTINUOUS
 62
     2
100
AcDbLine
 10
575.795786
 20
721.3
 30
0.0
 11
580.795786
 21
701.3
 31
0.0
  0
LINE
  5
4BF
100
AcDbEntity
  8
LAY-1
  6
CONTINUOUS
 62
     2
100
AcDbLine
 10
575.795786
 20
721.3
 30
0.0
 11
516.0
 21
721.3
 31
0.0
  0
LINE
  5
4C0
100
AcDbEntity
  8
LAY-1
  6
CONTINUOUS
 62
     2
100
AcDbLine
 10
574.0
 20
719.0
 30
0.0
 11
516.0
 21
719.0
 31
0.0
  0
LINE
  5
4C1
100
AcDbEntity
  8
LAY-1
  6
CONTINUOUS
 62
     2
100
AcDbLine
 10
516.0
 20
721.3
 30
0.0
 11
516.0
 21
719.0
 31
0.0
  0
LINE
  5
4C2
100
AcDbEntity
  8
LAY-1
  6
CONTINUOUS
 62
     2
100
AcDbLine
 10
1600.5
 20
671.0
 30
0.0
 11
2080.5
 21
671.0
 31
0.0
  0
LINE
  5
4C3
100
AcDbEntity
  8
LAY-1
  6
CONTINUOUS
 62
     2
100
AcDbLine
 10
1578.5
 20
688.0
 30
0.0
 11
1600.5
 21
688.0
 31
0.0
  0
LINE
  5
4C4
100
AcDbEntity
  8
LAY-1
  6
CONTINUOUS
 62
     2
100
AcDbLine
 10
1578.5
 20
658.0
 30
0.0
 11
1630.5
 21
658.0
 31
0.0
  0
LINE
  5
4C5
100
AcDbEntity
  8
LAY-1
  6
CONTINUOUS
 62
     2
100
AcDbLine
 10
1578.5
 20
688.0
 30
0.0
 11
1578.5
 21
658.0
 31
0.0
  0
LINE
  5
4C6
100
AcDbEntity
  8
LAY-1
  6
CONTINUOUS
 62
     2
100
AcDbLine
 10
1520.5
 20
708.3
 30
0.0
 11
1520.0
 21
707.8
 31
0.0
  0
LINE
  5
4C7
100
AcDbEntity
  8
LAY-1
  6
CONTINUOUS
 62
     2
100
AcDbLine
 10
1526.0
 20
707.8
 30
0.0
 11
1525.5
 21
708.3
 31
0.0
  0
LINE
  5
4C8
100
AcDbEntity
  8
LAY-1
  6
CONTINUOUS
 62
     2
100
AcDbLine
 10
1520.0
 20
706.3
 30
0.0
 11
1520.0
 21
707.8
 31
0.0
  0
LINE
  5
4C9
100
AcDbEntity
  8
LAY-1
  6
CONTINUOUS
 62
     2
100
AcDbLine
 10
1526.0
 20
706.3
 30
0.0
 11
1526.0
 21
707.8
 31
0.0
  0
LINE
  5
4CA
100
AcDbEntity
  8
LAY-1
  6
CONTINUOUS
 62
     2
100
AcDbLine
 10
1525.5
 20
708.3
 30
0.0
 11
1520.5
 21
708.3
 31
0.0
  0
LINE
  5
4CB
100
AcDbEntity
  8
LAY-1
  6
CONTINUOUS
 62
     2
100
AcDbLine
 10
1529.0
 20
705.8
 30
0.0
 11
1529.0
 21
702.8
 31
0.0
  0
LINE
  5
4CC
100
AcDbEntity
  8
LAY-1
  6
CONTINUOUS
 62
     2
100
AcDbLine
 10
1527.5
 20
706.3
 30
0.0
 11
1518.5
 21
706.3
 31
0.0
  0
LINE
  5
4CD
100
AcDbEntity
  8
LAY-1
  6
CONTINUOUS
 62
     2
100
AcDbLine
 10
1517.0
 20
705.8
 30
0.0
 11
1517.0
 21
702.8
 31
0.0
  0
ARC
  5
4CE
100
AcDbEntity
  8
LAY-1
  6
CONTINUOUS
 62
     2
100
AcDbCircle
 10
1518.5
 20
704.8
 30
0.0
 40
2.5
100
AcDbArc
 50
233.130102
 51
306.869898
  0
ARC
  5
4CF
100
AcDbEntity
  8
LAY-1
  6
CONTINUOUS
 62
     2
100
AcDbCircle
 10
1523.0
 20
711.55
 30
0.0
 40
9.25
100
AcDbArc
 50
251.075356
 51
288.924644
  0
ARC
  5
4D0
100
AcDbEntity
  8
LAY-1
  6
CONTINUOUS
 62
     2
100
AcDbCircle
 10
1527.5
 20
704.8
 30
0.0
 40
2.5
100
AcDbArc
 50
233.130102
 51
306.869898
  0
ARC
  5
4D1
100
AcDbEntity
  8
LAY-1
  6
CONTINUOUS
 62
     2
100
AcDbCircle
 10
1518.5
 20
703.8
 30
0.0
 40
2.5
100
AcDbArc
 50
53.130102
 51
126.869898
  0
ARC
  5
4D2
100
AcDbEntity
  8
LAY-1
  6
CONTINUOUS
 62
     2
100
AcDbCircle
 10
1523.0
 20
697.05
 30
0.0
 40
9.25
100
AcDbArc
 50
71.075356
 51
108.924644
  0
ARC
  5
4D3
100
AcDbEntity
  8
LAY-1
  6
CONTINUOUS
 62
     2
100
AcDbCircle
 10
1527.5
 20
703.8
 30
0.0
 40
2.5
100
AcDbArc
 50
53.130102
 51
126.869898
  0
LINE
  5
4D4
100
AcDbEntity
  8
LAY-1
  6
CONTINUOUS
 62
     2
100
AcDbLine
 10
1520.0
 20
699.0
 30
0.0
 11
1520.0
 21
698.0
 31
0.0
  0
LINE
  5
4D5
100
AcDbEntity
  8
LAY-1
  6
CONTINUOUS
 62
     2
100
AcDbLine
 10
1526.0
 20
699.0
 30
0.0
 11
1526.0
 21
698.0
 31
0.0
  0
LINE
  5
4D6
100
AcDbEntity
  8
LAY-1
  6
CONTINUOUS
 62
     2
100
AcDbLine
 10
1526.0
 20
705.8
 30
0.0
 11
1526.0
 21
702.8
 31
0.0
  0
LINE
  5
4D7
100
AcDbEntity
  8
LAY-1
  6
CONTINUOUS
 62
     2
100
AcDbLine
 10
1520.0
 20
705.8
 30
0.0
 11
1520.0
 21
702.8
 31
0.0
  0
LINE
  5
4D8
100
AcDbEntity
  8
LAY-1
  6
CONTINUOUS
 62
     2
100
AcDbLine
 10
1516.5
 20
691.5
 30
0.0
 11
1515.5
 21
686.086957
 31
0.0
  0
LINE
  5
4D9
100
AcDbEntity
  8
LAY-1
  6
CONTINUOUS
 62
     2
100
AcDbLine
 10
1529.5
 20
691.5
 30
0.0
 11
1530.5
 21
686.73913
 31
0.0
  0
LINE
  5
4DA
100
AcDbEntity
  8
LAY-1
  6
CONTINUOUS
 62
     2
100
AcDbLine
 10
1529.5
 20
698.0
 30
0.0
 11
1529.5
 21
691.5
 31
0.0
  0
LINE
  5
4DB
100
AcDbEntity
  8
LAY-1
  6
CONTINUOUS
 62
     2
100
AcDbLine
 10
1516.5
 20
698.0
 30
0.0
 11
1516.5
 21
691.5
 31
0.0
  0
LINE
  5
4DC
100
AcDbEntity
  8
LAY-1
  6
CONTINUOUS
 62
     2
100
AcDbLine
 10
1529.5
 20
698.0
 30
0.0
 11
1516.5
 21
698.0
 31
0.0
  0
LINE
  5
4DD
100
AcDbEntity
  8
LAY-1
  6
CONTINUOUS
 62
     2
100
AcDbLine
 10
1515.5
 20
686.086957
 30
0.0
 11
1513.5
 21
686.0
 31
0.0
  0
ARC
  5
4DE
100
AcDbEntity
  8
LAY-1
  6
CONTINUOUS
 62
     2
100
AcDbCircle
 10
1522.657285
 20
694.295483
 30
0.0
 40
10.890668
100
AcDbArc
 50
228.913753
 51
316.065353
  0
LINE
  5
4DF
100
AcDbEntity
  8
LAY-1
  6
CONTINUOUS
 62
     2
100
AcDbLine
 10
1513.5
 20
686.0
 30
0.0
 11
1503.5
 21
686.0
 31
0.0
  0
ARC
  5
4E0
100
AcDbEntity
  8
LAY-1
  6
CONTINUOUS
 62
     2
100
AcDbCircle
 10
1507.541667
 20
678.0
 30
0.0
 40
17.041667
100
AcDbArc
 50
162.938469
 51
197.061531
  0
ARC
  5
4E1
100
AcDbEntity
  8
LAY-1
  6
CONTINUOUS
 62
     2
100
AcDbCircle
 10
1495.041667
 20
685.5
 30
0.0
 40
4.541667
100
AcDbArc
 50
146.601512
 51
213.398488
  0
ARC
  5
4E2
100
AcDbEntity
  8
LAY-1
  6
CONTINUOUS
 62
     2
100
AcDbCircle
 10
1498.958333
 20
685.5
 30
0.0
 40
4.541667
100
AcDbArc
 50
326.601512
 51
33.398488
  0
ARC
  5
4E3
100
AcDbEntity
  8
LAY-1
  6
CONTINUOUS
 62
     2
100
AcDbCircle
 10
1486.458333
 20
678.0
 30
0.0
 40
17.041667
100
AcDbArc
 50
342.938469
 51
17.061531
  0
LINE
  5
4E4
100
AcDbEntity
  8
LAY-1
  6
CONTINUOUS
 62
     2
100
AcDbLine
 10
1491.25
 20
683.0
 30
0.0
 11
1502.75
 21
683.0
 31
0.0
  0
LINE
  5
4E5
100
AcDbEntity
  8
LAY-1
  6
CONTINUOUS
 62
     2
100
AcDbLine
 10
1502.75
 20
688.0
 30
0.0
 11
1491.25
 21
688.0
 31
0.0
  0
LINE
  5
4E6
100
AcDbEntity
  8
LAY-1
  6
CONTINUOUS
 62
     2
100
AcDbLine
 10
1542.5
 20
689.0
 30
0.0
 11
1536.5
 21
689.0
 31
0.0
  0
ARC
  5
4E7
100
AcDbEntity
  8
LAY-1
  6
CONTINUOUS
 62
     2
100
AcDbCircle
 10
1550.958333
 20
685.5
 30
0.0
 40
4.541667
100
AcDbArc
 50
326.601512
 51
33.398488
  0
ARC
  5
4E8
100
AcDbEntity
  8
LAY-1
  6
CONTINUOUS
 62
     2
100
AcDbCircle
 10
1538.458333
 20
678.0
 30
0.0
 40
17.041667
100
AcDbArc
 50
342.938469
 51
17.061531
  0
LINE
  5
4E9
100
AcDbEntity
  8
LAY-1
  6
CONTINUOUS
 62
     2
100
AcDbLine
 10
1554.75
 20
688.0
 30
0.0
 11
1542.5
 21
688.0
 31
0.0
  0
LINE
  5
4EA
100
AcDbEntity
  8
LAY-1
  6
CONTINUOUS
 62
     2
100
AcDbLine
 10
1554.75
 20
683.0
 30
0.0
 11
1542.5
 21
683.0
 31
0.0
  0
LINE
  5
4EB
100
AcDbEntity
  8
LAY-1
  6
CONTINUOUS
 62
     2
100
AcDbLine
 10
1536.5
 20
687.0
 30
0.0
 11
1530.5
 21
686.73913
 31
0.0
  0
LINE
  5
4EC
100
AcDbEntity
  8
LAY-1
  6
CONTINUOUS
 62
     2
100
AcDbLine
 10
1513.5
 20
660.0
 30
0.0
 11
1503.5
 21
660.0
 31
0.0
  0
ARC
  5
4ED
100
AcDbEntity
  8
LAY-1
  6
CONTINUOUS
 62
     2
100
AcDbCircle
 10
1495.041667
 20
660.5
 30
0.0
 40
4.541667
100
AcDbArc
 50
146.601512
 51
213.398488
  0
ARC
  5
4EE
100
AcDbEntity
  8
LAY-1
  6
CONTINUOUS
 62
     2
100
AcDbCircle
 10
1498.958333
 20
660.5
 30
0.0
 40
4.541667
100
AcDbArc
 50
326.601512
 51
33.398488
  0
LINE
  5
4EF
100
AcDbEntity
  8
LAY-1
  6
CONTINUOUS
 62
     2
100
AcDbLine
 10
1502.75
 20
658.0
 30
0.0
 11
1491.25
 21
658.0
 31
0.0
  0
LINE
  5
4F0
100
AcDbEntity
  8
LAY-1
  6
CONTINUOUS
 62
     2
100
AcDbLine
 10
1491.25
 20
663.0
 30
0.0
 11
1502.75
 21
663.0
 31
0.0
  0
LINE
  5
4F1
100
AcDbEntity
  8
LAY-1
  6
CONTINUOUS
 62
     2
100
AcDbLine
 10
1542.5
 20
657.0
 30
0.0
 11
1536.5
 21
657.0
 31
0.0
  0
ARC
  5
4F2
100
AcDbEntity
  8
LAY-1
  6
CONTINUOUS
 62
     2
100
AcDbCircle
 10
1550.958333
 20
660.5
 30
0.0
 40
4.541667
100
AcDbArc
 50
326.601512
 51
33.398488
  0
LINE
  5
4F3
100
AcDbEntity
  8
LAY-1
  6
CONTINUOUS
 62
     2
100
AcDbLine
 10
1554.75
 20
658.0
 30
0.0
 11
1542.5
 21
658.0
 31
0.0
  0
LINE
  5
4F4
100
AcDbEntity
  8
LAY-1
  6
CONTINUOUS
 62
     2
100
AcDbLine
 10
1554.75
 20
663.0
 30
0.0
 11
1542.5
 21
663.0
 31
0.0
  0
LINE
  5
4F5
100
AcDbEntity
  8
LAY-1
  6
CONTINUOUS
 62
     2
100
AcDbLine
 10
1536.5
 20
659.0
 30
0.0
 11
1513.5
 21
660.0
 31
0.0
  0
LINE
  5
4F6
100
AcDbEntity
  8
LAY-1
  6
CONTINUOUS
 62
     2
100
AcDbLine
 10
1542.5
 20
689.0
 30
0.0
 11
1542.5
 21
657.0
 31
0.0
  0
LINE
  5
4F7
100
AcDbEntity
  8
LAY-1
  6
CONTINUOUS
 62
     2
100
AcDbLine
 10
1539.5
 20
689.0
 30
0.0
 11
1539.5
 21
657.0
 31
0.0
  0
LINE
  5
4F8
100
AcDbEntity
  8
LAY-1
  6
CONTINUOUS
 62
     2
100
AcDbLine
 10
1536.5
 20
689.0
 30
0.0
 11
1536.5
 21
657.0
 31
0.0
  0
ARC
  5
4F9
100
AcDbEntity
  8
LAY-1
  6
CONTINUOUS
 62
     2
100
AcDbCircle
 10
1538.458333
 20
668.0
 30
0.0
 40
17.041667
100
AcDbArc
 50
342.938469
 51
17.061531
  0
LINE
  5
4FA
100
AcDbEntity
  8
LAY-1
  6
CONTINUOUS
 62
     2
100
AcDbLine
 10
1555.5
 20
685.5
 30
0.0
 11
1555.5
 21
660.5
 31
0.0
  0
ARC
  5
4FB
100
AcDbEntity
  8
LAY-1
  6
CONTINUOUS
 62
     2
100
AcDbCircle
 10
1507.541667
 20
668.0
 30
0.0
 40
17.041667
100
AcDbArc
 50
162.938469
 51
197.061531
  0
ARC
  5
4FC
100
AcDbEntity
  8
LAY-1
  6
CONTINUOUS
 62
     2
100
AcDbCircle
 10
1486.458333
 20
668.0
 30
0.0
 40
17.041667
100
AcDbArc
 50
342.938469
 51
17.061531
  0
LINE
  5
4FD
100
AcDbEntity
  8
LAY-1
  6
CONTINUOUS
 62
     2
100
AcDbLine
 10
1503.5
 20
685.5
 30
0.0
 11
1503.5
 21
660.5
 31
0.0
  0
LINE
  5
4FE
100
AcDbEntity
  8
LAY-1
  6
CONTINUOUS
 62
     2
100
AcDbLine
 10
1490.5
 20
685.5
 30
0.0
 11
1490.5
 21
660.5
 31
0.0
  0
LINE
  5
4FF
100
AcDbEntity
  8
LAY-1
  6
CONTINUOUS
 62
     2
100
AcDbLine
 10
1513.5
 20
683.0
 30
0.0
 11
1513.5
 21
663.0
 31
0.0
  0
LINE
  5
500
100
AcDbEntity
  8
LAY-1
  6
CONTINUOUS
 62
     2
100
AcDbLine
 10
1578.5
 20
662.15
 30
0.0
 11
1555.5
 21
662.15
 31
0.0
  0
LINE
  5
501
100
AcDbEntity
  8
LAY-1
  6
CONTINUOUS
 62
     2
100
AcDbLine
 10
1578.5
 20
683.85
 30
0.0
 11
1555.5
 21
683.85
 31
0.0
  0
LINE
  5
502
100
AcDbEntity
  8
LAY-1
  6
CONTINUOUS
 62
     2
100
AcDbLine
 10
1572.5
 20
662.15
 30
0.0
 11
1572.5
 21
683.85
 31
0.0
  0
LINE
  5
503
100
AcDbEntity
  8
LAY-1
  6
CONTINUOUS
 62
     2
100
AcDbLine
 10
1574.5
 20
662.15
 30
0.0
 11
1574.5
 21
683.85
 31
0.0
  0
LINE
  5
504
100
AcDbEntity
  8
LAY-1
  6
CONTINUOUS
 62
     2
100
AcDbLine
 10
1576.5
 20
662.15
 30
0.0
 11
1576.5
 21
683.85
 31
0.0
  0
LINE
  5
505
100
AcDbEntity
  8
LAY-1
  6
CONTINUOUS
 62
     2
100
AcDbLine
 10
1529.0
 20
719.0
 30
0.0
 11
1531.0
 21
702.3
 31
0.0
  0
LINE
  5
506
100
AcDbEntity
  8
LAY-1
  6
CONTINUOUS
 62
     2
100
AcDbLine
 10
1517.0
 20
719.0
 30
0.0
 11
1515.0
 21
702.3
 31
0.0
  0
LINE
  5
507
100
AcDbEntity
  8
LAY-1
  6
CONTINUOUS
 62
     2
100
AcDbLine
 10
1529.0
 20
721.3
 30
0.0
 11
1529.0
 21
719.0
 31
0.0
  0
LINE
  5
508
100
AcDbEntity
  8
LAY-1
  6
CONTINUOUS
 62
     2
100
AcDbLine
 10
1517.0
 20
721.3
 30
0.0
 11
1517.0
 21
719.0
 31
0.0
  0
LINE
  5
509
100
AcDbEntity
  8
LAY-1
  6
CONTINUOUS
 62
     2
100
AcDbLine
 10
1529.0
 20
721.3
 30
0.0
 11
1517.0
 21
721.3
 31
0.0
  0
LINE
  5
50A
100
AcDbEntity
  8
LAY-1
  6
CONTINUOUS
 62
     2
100
AcDbLine
 10
1525.5
 20
708.3
 30
0.0
 11
1525.5
 21
706.3
 31
0.0
  0
LINE
  5
50B
100
AcDbEntity
  8
LAY-1
  6
CONTINUOUS
 62
     2
100
AcDbLine
 10
1520.5
 20
708.3
 30
0.0
 11
1520.5
 21
706.3
 31
0.0
  0
LINE
  5
50C
100
AcDbEntity
  8
LAY-1
  6
CONTINUOUS
 62
     2
100
AcDbLine
 10
1526.0
 20
707.8
 30
0.0
 11
1520.0
 21
707.8
 31
0.0
  0
LINE
  5
50D
100
AcDbEntity
  8
LAY-1
  6
CONTINUOUS
 62
     2
100
AcDbLine
 10
1515.0
 20
702.3
 30
0.0
 11
1515.0
 21
699.0
 31
0.0
  0
LINE
  5
50E
100
AcDbEntity
  8
LAY-1
  6
CONTINUOUS
 62
     2
100
AcDbLine
 10
1531.0
 20
702.3
 30
0.0
 11
1531.0
 21
699.0
 31
0.0
  0
LINE
  5
50F
100
AcDbEntity
  8
LAY-1
  6
CONTINUOUS
 62
     2
100
AcDbLine
 10
1531.0
 20
702.3
 30
0.0
 11
1515.0
 21
702.3
 31
0.0
  0
LINE
  5
510
100
AcDbEntity
  8
LAY-1
  6
CONTINUOUS
 62
     2
100
AcDbLine
 10
1531.0
 20
701.3
 30
0.0
 11
1515.0
 21
701.3
 31
0.0
  0
LINE
  5
511
100
AcDbEntity
  8
LAY-1
  6
CONTINUOUS
 62
     2
100
AcDbLine
 10
1531.0
 20
699.0
 30
0.0
 11
1515.0
 21
699.0
 31
0.0
  0
LINE
  5
512
100
AcDbEntity
  8
LAY-1
  6
CONTINUOUS
 62
     2
100
AcDbLine
 10
1561.5
 20
662.15
 30
0.0
 11
1561.5
 21
683.85
 31
0.0
  0
LINE
  5
513
100
AcDbEntity
  8
LAY-1
  6
CONTINUOUS
 62
     2
100
AcDbLine
 10
1559.5
 20
662.15
 30
0.0
 11
1559.5
 21
683.85
 31
0.0
  0
LINE
  5
514
100
AcDbEntity
  8
LAY-1
  6
CONTINUOUS
 62
     2
100
AcDbLine
 10
1557.5
 20
662.15
 30
0.0
 11
1557.5
 21
683.85
 31
0.0
  0
LINE
  5
515
100
AcDbEntity
  8
LAY-1
  6
CONTINUOUS
 62
     2
100
AcDbLine
 10
1474.5
 20
679.859343
 30
0.0
 11
1484.5
 21
679.859343
 31
0.0
  0
LINE
  5
516
100
AcDbEntity
  8
LAY-1
  6
CONTINUOUS
 62
     2
100
AcDbLine
 10
1474.5
 20
665.859343
 30
0.0
 11
1484.5
 21
665.859343
 31
0.0
  0
LINE
  5
517
100
AcDbEntity
  8
LAY-1
  6
CONTINUOUS
 62
     2
100
AcDbLine
 10
1484.5
 20
662.009343
 30
0.0
 11
1490.5
 21
662.009343
 31
0.0
  0
LINE
  5
518
100
AcDbEntity
  8
LAY-1
  6
CONTINUOUS
 62
     2
100
AcDbLine
 10
1484.5
 20
683.709343
 30
0.0
 11
1490.5
 21
683.709343
 31
0.0
  0
LINE
  5
519
100
AcDbEntity
  8
LAY-1
  6
CONTINUOUS
 62
     2
100
AcDbLine
 10
1488.5
 20
683.709343
 30
0.0
 11
1488.5
 21
662.009343
 31
0.0
  0
LINE
  5
51A
100
AcDbEntity
  8
LAY-1
  6
CONTINUOUS
 62
     2
100
AcDbLine
 10
1486.5
 20
683.709343
 30
0.0
 11
1486.5
 21
662.009343
 31
0.0
  0
LINE
  5
51B
100
AcDbEntity
  8
LAY-1
  6
CONTINUOUS
 62
     2
100
AcDbLine
 10
1484.5
 20
683.709343
 30
0.0
 11
1484.5
 21
662.009343
 31
0.0
  0
LINE
  5
51C
100
AcDbEntity
  8
LAY-1
  6
CONTINUOUS
 62
     2
100
AcDbLine
 10
1474.5
 20
679.859343
 30
0.0
 11
1474.5
 21
665.859343
 31
0.0
  0
LINE
  5
51D
100
AcDbEntity
  8
LAY-1
  6
EXLTYPE3
 62
     1
100
AcDbLine
 10
3773.0
 20
707.8
 30
0.0
 11
3779.0
 21
707.8
 31
0.0
  0
LINE
  5
51E
100
AcDbEntity
  8
LAY-1
  6
EXLTYPE3
 62
     1
100
AcDbLine
 10
3778.5
 20
708.3
 30
0.0
 11
3778.5
 21
706.3
 31
0.0
  0
LINE
  5
51F
100
AcDbEntity
  8
LAY-1
  6
EXLTYPE3
 62
     1
100
AcDbLine
 10
3773.5
 20
708.3
 30
0.0
 11
3773.5
 21
706.3
 31
0.0
  0
LINE
  5
520
100
AcDbEntity
  8
LAY-1
  6
CONTINUOUS
 62
     2
100
AcDbLine
 10
3720.5
 20
683.85
 30
0.0
 11
3743.5
 21
683.85
 31
0.0
  0
LINE
  5
521
100
AcDbEntity
  8
LAY-1
  6
CONTINUOUS
 62
     2
100
AcDbLine
 10
3720.5
 20
662.15
 30
0.0
 11
3743.5
 21
662.15
 31
0.0
  0
LINE
  5
522
100
AcDbEntity
  8
LAY-1
  6
CONTINUOUS
 62
     2
100
AcDbLine
 10
3785.5
 20
683.0
 30
0.0
 11
3785.5
 21
663.0
 31
0.0
  0
LINE
  5
523
100
AcDbEntity
  8
LAY-1
  6
CONTINUOUS
 62
     2
100
AcDbLine
 10
3808.5
 20
685.5
 30
0.0
 11
3808.5
 21
660.5
 31
0.0
  0
LINE
  5
524
100
AcDbEntity
  8
LAY-1
  6
CONTINUOUS
 62
     2
100
AcDbLine
 10
3795.5
 20
685.5
 30
0.0
 11
3795.5
 21
660.5
 31
0.0
  0
ARC
  5
525
100
AcDbEntity
  8
LAY-1
  6
CONTINUOUS
 62
     2
100
AcDbCircle
 10
3812.541667
 20
668.0
 30
0.0
 40
17.041667
100
AcDbArc
 50
162.938469
 51
197.061531
  0
ARC
  5
526
100
AcDbEntity
  8
LAY-1
  6
CONTINUOUS
 62
     2
100
AcDbCircle
 10
3791.458333
 20
668.0
 30
0.0
 40
17.041667
100
AcDbArc
 50
342.938469
 51
17.061531
  0
LINE
  5
527
100
AcDbEntity
  8
LAY-1
  6
CONTINUOUS
 62
     2
100
AcDbLine
 10
3743.5
 20
685.5
 30
0.0
 11
3743.5
 21
660.5
 31
0.0
  0
ARC
  5
528
100
AcDbEntity
  8
LAY-1
  6
CONTINUOUS
 62
     2
100
AcDbCircle
 10
3760.541667
 20
668.0
 30
0.0
 40
17.041667
100
AcDbArc
 50
162.938469
 51
197.061531
  0
LINE
  5
529
100
AcDbEntity
  8
LAY-1
  6
CONTINUOUS
 62
     2
100
AcDbLine
 10
3762.5
 20
689.0
 30
0.0
 11
3762.5
 21
657.0
 31
0.0
  0
LINE
  5
52A
100
AcDbEntity
  8
LAY-1
  6
CONTINUOUS
 62
     2
100
AcDbLine
 10
3759.5
 20
689.0
 30
0.0
 11
3759.5
 21
657.0
 31
0.0
  0
LINE
  5
52B
100
AcDbEntity
  8
LAY-1
  6
CONTINUOUS
 62
     2
100
AcDbLine
 10
3756.5
 20
689.0
 30
0.0
 11
3756.5
 21
657.0
 31
0.0
  0
LINE
  5
52C
100
AcDbEntity
  8
LAY-1
  6
CONTINUOUS
 62
     2
100
AcDbLine
 10
3762.5
 20
659.0
 30
0.0
 11
3785.5
 21
660.0
 31
0.0
  0
LINE
  5
52D
100
AcDbEntity
  8
LAY-1
  6
CONTINUOUS
 62
     2
100
AcDbLine
 10
3744.25
 20
663.0
 30
0.0
 11
3756.5
 21
663.0
 31
0.0
  0
LINE
  5
52E
100
AcDbEntity
  8
LAY-1
  6
CONTINUOUS
 62
     2
100
AcDbLine
 10
3744.25
 20
658.0
 30
0.0
 11
3756.5
 21
658.0
 31
0.0
  0
ARC
  5
52F
100
AcDbEntity
  8
LAY-1
  6
CONTINUOUS
 62
     2
100
AcDbCircle
 10
3748.041667
 20
660.5
 30
0.0
 40
4.541667
100
AcDbArc
 50
146.601512
 51
213.398488
  0
LINE
  5
530
100
AcDbEntity
  8
LAY-1
  6
CONTINUOUS
 62
     2
100
AcDbLine
 10
3756.5
 20
657.0
 30
0.0
 11
3762.5
 21
657.0
 31
0.0
  0
LINE
  5
531
100
AcDbEntity
  8
LAY-1
  6
CONTINUOUS
 62
     2
100
AcDbLine
 10
3807.75
 20
663.0
 30
0.0
 11
3796.25
 21
663.0
 31
0.0
  0
LINE
  5
532
100
AcDbEntity
  8
LAY-1
  6
CONTINUOUS
 62
     2
100
AcDbLine
 10
3796.25
 20
658.0
 30
0.0
 11
3807.75
 21
658.0
 31
0.0
  0
ARC
  5
533
100
AcDbEntity
  8
LAY-1
  6
CONTINUOUS
 62
     2
100
AcDbCircle
 10
3800.041667
 20
660.5
 30
0.0
 40
4.541667
100
AcDbArc
 50
146.601512
 51
213.398488
  0
ARC
  5
534
100
AcDbEntity
  8
LAY-1
  6
CONTINUOUS
 62
     2
100
AcDbCircle
 10
3803.958333
 20
660.5
 30
0.0
 40
4.541667
100
AcDbArc
 50
326.601512
 51
33.398488
  0
LINE
  5
535
100
AcDbEntity
  8
LAY-1
  6
CONTINUOUS
 62
     2
100
AcDbLine
 10
3785.5
 20
660.0
 30
0.0
 11
3795.5
 21
660.0
 31
0.0
  0
LINE
  5
536
100
AcDbEntity
  8
LAY-1
  6
CONTINUOUS
 62
     2
100
AcDbLine
 10
3762.5
 20
687.0
 30
0.0
 11
3768.5
 21
686.73913
 31
0.0
  0
LINE
  5
537
100
AcDbEntity
  8
LAY-1
  6
CONTINUOUS
 62
     2
100
AcDbLine
 10
3744.25
 20
683.0
 30
0.0
 11
3756.5
 21
683.0
 31
0.0
  0
LINE
  5
538
100
AcDbEntity
  8
LAY-1
  6
CONTINUOUS
 62
     2
100
AcDbLine
 10
3744.25
 20
688.0
 30
0.0
 11
3756.5
 21
688.0
 31
0.0
  0
ARC
  5
539
100
AcDbEntity
  8
LAY-1
  6
CONTINUOUS
 62
     2
100
AcDbCircle
 10
3760.541667
 20
678.0
 30
0.0
 40
17.041667
100
AcDbArc
 50
162.938469
 51
197.061531
  0
ARC
  5
53A
100
AcDbEntity
  8
LAY-1
  6
CONTINUOUS
 62
     2
100
AcDbCircle
 10
3748.041667
 20
685.5
 30
0.0
 40
4.541667
100
AcDbArc
 50
146.601512
 51
213.398488
  0
LINE
  5
53B
100
AcDbEntity
  8
LAY-1
  6
CONTINUOUS
 62
     2
100
AcDbLine
 10
3756.5
 20
689.0
 30
0.0
 11
3762.5
 21
689.0
 31
0.0
  0
LINE
  5
53C
100
AcDbEntity
  8
LAY-1
  6
CONTINUOUS
 62
     2
100
AcDbLine
 10
3796.25
 20
688.0
 30
0.0
 11
3807.75
 21
688.0
 31
0.0
  0
LINE
  5
53D
100
AcDbEntity
  8
LAY-1
  6
CONTINUOUS
 62
     2
100
AcDbLine
 10
3807.75
 20
683.0
 30
0.0
 11
3796.25
 21
683.0
 31
0.0
  0
ARC
  5
53E
100
AcDbEntity
  8
LAY-1
  6
CONTINUOUS
 62
     2
100
AcDbCircle
 10
3812.541667
 20
678.0
 30
0.0
 40
17.041667
100
AcDbArc
 50
162.938469
 51
197.061531
  0
ARC
  5
53F
100
AcDbEntity
  8
LAY-1
  6
CONTINUOUS
 62
     2
100
AcDbCircle
 10
3800.041667
 20
685.5
 30
0.0
 40
4.541667
100
AcDbArc
 50
146.601512
 51
213.398488
  0
ARC
  5
540
100
AcDbEntity
  8
LAY-1
  6
CONTINUOUS
 62
     2
100
AcDbCircle
 10
3803.958333
 20
685.5
 30
0.0
 40
4.541667
100
AcDbArc
 50
326.601512
 51
33.398488
  0
ARC
  5
541
100
AcDbEntity
  8
LAY-1
  6
CONTINUOUS
 62
     2
100
AcDbCircle
 10
3791.458333
 20
678.0
 30
0.0
 40
17.041667
100
AcDbArc
 50
342.938469
 51
17.061531
  0
LINE
  5
542
100
AcDbEntity
  8
LAY-1
  6
CONTINUOUS
 62
     2
100
AcDbLine
 10
3785.5
 20
686.0
 30
0.0
 11
3795.5
 21
686.0
 31
0.0
  0
ARC
  5
543
100
AcDbEntity
  8
LAY-1
  6
CONTINUOUS
 62
     2
100
AcDbCircle
 10
3776.342715
 20
694.295483
 30
0.0
 40
10.890668
100
AcDbArc
 50
223.934647
 51
311.086247
  0
LINE
  5
544
100
AcDbEntity
  8
LAY-1
  6
CONTINUOUS
 62
     2
100
AcDbLine
 10
3783.5
 20
686.086957
 30
0.0
 11
3785.5
 21
686.0
 31
0.0
  0
LINE
  5
545
100
AcDbEntity
  8
LAY-1
  6
CONTINUOUS
 62
     2
100
AcDbLine
 10
3769.5
 20
698.0
 30
0.0
 11
3782.5
 21
698.0
 31
0.0
  0
LINE
  5
546
100
AcDbEntity
  8
LAY-1
  6
CONTINUOUS
 62
     2
100
AcDbLine
 10
3782.5
 20
698.0
 30
0.0
 11
3782.5
 21
691.5
 31
0.0
  0
LINE
  5
547
100
AcDbEntity
  8
LAY-1
  6
CONTINUOUS
 62
     2
100
AcDbLine
 10
3769.5
 20
698.0
 30
0.0
 11
3769.5
 21
691.5
 31
0.0
  0
LINE
  5
548
100
AcDbEntity
  8
LAY-1
  6
CONTINUOUS
 62
     2
100
AcDbLine
 10
3769.5
 20
691.5
 30
0.0
 11
3768.5
 21
686.73913
 31
0.0
  0
LINE
  5
549
100
AcDbEntity
  8
LAY-1
  6
CONTINUOUS
 62
     2
100
AcDbLine
 10
3782.5
 20
691.5
 30
0.0
 11
3783.5
 21
686.086957
 31
0.0
  0
LINE
  5
54A
100
AcDbEntity
  8
LAY-1
  6
CONTINUOUS
 62
     2
100
AcDbLine
 10
3779.0
 20
705.8
 30
0.0
 11
3779.0
 21
702.8
 31
0.0
  0
LINE
  5
54B
100
AcDbEntity
  8
LAY-1
  6
CONTINUOUS
 62
     2
100
AcDbLine
 10
3773.0
 20
705.8
 30
0.0
 11
3773.0
 21
702.8
 31
0.0
  0
LINE
  5
54C
100
AcDbEntity
  8
LAY-1
  6
CONTINUOUS
 62
     2
100
AcDbLine
 10
3773.0
 20
699.0
 30
0.0
 11
3773.0
 21
698.0
 31
0.0
  0
LINE
  5
54D
100
AcDbEntity
  8
LAY-1
  6
CONTINUOUS
 62
     2
100
AcDbLine
 10
3779.0
 20
699.0
 30
0.0
 11
3779.0
 21
698.0
 31
0.0
  0
ARC
  5
54E
100
AcDbEntity
  8
LAY-1
  6
CONTINUOUS
 62
     2
100
AcDbCircle
 10
3771.5
 20
703.8
 30
0.0
 40
2.5
100
AcDbArc
 50
53.130102
 51
126.869898
  0
ARC
  5
54F
100
AcDbEntity
  8
LAY-1
  6
CONTINUOUS
 62
     2
100
AcDbCircle
 10
3776.0
 20
697.05
 30
0.0
 40
9.25
100
AcDbArc
 50
71.075356
 51
108.924644
  0
ARC
  5
550
100
AcDbEntity
  8
LAY-1
  6
CONTINUOUS
 62
     2
100
AcDbCircle
 10
3780.5
 20
703.8
 30
0.0
 40
2.5
100
AcDbArc
 50
53.130102
 51
126.869898
  0
ARC
  5
551
100
AcDbEntity
  8
LAY-1
  6
CONTINUOUS
 62
     2
100
AcDbCircle
 10
3771.5
 20
704.8
 30
0.0
 40
2.5
100
AcDbArc
 50
233.130102
 51
306.869898
  0
ARC
  5
552
100
AcDbEntity
  8
LAY-1
  6
CONTINUOUS
 62
     2
100
AcDbCircle
 10
3776.0
 20
711.55
 30
0.0
 40
9.25
100
AcDbArc
 50
251.075356
 51
288.924644
  0
ARC
  5
553
100
AcDbEntity
  8
LAY-1
  6
CONTINUOUS
 62
     2
100
AcDbCircle
 10
3780.5
 20
704.8
 30
0.0
 40
2.5
100
AcDbArc
 50
233.130102
 51
306.869898
  0
LINE
  5
554
100
AcDbEntity
  8
LAY-1
  6
CONTINUOUS
 62
     2
100
AcDbLine
 10
3782.0
 20
705.8
 30
0.0
 11
3782.0
 21
702.8
 31
0.0
  0
LINE
  5
555
100
AcDbEntity
  8
LAY-1
  6
CONTINUOUS
 62
     2
100
AcDbLine
 10
3771.5
 20
706.3
 30
0.0
 11
3780.5
 21
706.3
 31
0.0
  0
LINE
  5
556
100
AcDbEntity
  8
LAY-1
  6
CONTINUOUS
 62
     2
100
AcDbLine
 10
3770.0
 20
705.8
 30
0.0
 11
3770.0
 21
702.8
 31
0.0
  0
LINE
  5
557
100
AcDbEntity
  8
LAY-1
  6
CONTINUOUS
 62
     2
100
AcDbLine
 10
3773.5
 20
708.3
 30
0.0
 11
3778.5
 21
708.3
 31
0.0
  0
LINE
  5
558
100
AcDbEntity
  8
LAY-1
  6
CONTINUOUS
 62
     2
100
AcDbLine
 10
3773.0
 20
706.3
 30
0.0
 11
3773.0
 21
707.8
 31
0.0
  0
LINE
  5
559
100
AcDbEntity
  8
LAY-1
  6
CONTINUOUS
 62
     2
100
AcDbLine
 10
3779.0
 20
706.3
 30
0.0
 11
3779.0
 21
707.8
 31
0.0
  0
LINE
  5
55A
100
AcDbEntity
  8
LAY-1
  6
CONTINUOUS
 62
     2
100
AcDbLine
 10
3773.0
 20
707.8
 30
0.0
 11
3773.5
 21
708.3
 31
0.0
  0
LINE
  5
55B
100
AcDbEntity
  8
LAY-1
  6
CONTINUOUS
 62
     2
100
AcDbLine
 10
3778.5
 20
708.3
 30
0.0
 11
3779.0
 21
707.8
 31
0.0
  0
LINE
  5
55C
100
AcDbEntity
  8
LAY-1
  6
CONTINUOUS
 62
     2
100
AcDbLine
 10
3720.5
 20
688.0
 30
0.0
 11
3720.5
 21
658.0
 31
0.0
  0
LINE
  5
55D
100
AcDbEntity
  8
LAY-1
  6
CONTINUOUS
 62
     2
100
AcDbLine
 10
3720.5
 20
658.0
 30
0.0
 11
3668.5
 21
658.0
 31
0.0
  0
LINE
  5
55E
100
AcDbEntity
  8
LAY-1
  6
CONTINUOUS
 62
     2
100
AcDbLine
 10
3720.5
 20
688.0
 30
0.0
 11
3698.5
 21
688.0
 31
0.0
  0
LINE
  5
55F
100
AcDbEntity
  8
LAY-1
  6
CONTINUOUS
 62
     2
100
AcDbLine
 10
3741.5
 20
662.15
 30
0.0
 11
3741.5
 21
683.85
 31
0.0
  0
LINE
  5
560
100
AcDbEntity
  8
LAY-1
  6
CONTINUOUS
 62
     2
100
AcDbLine
 10
3739.5
 20
662.15
 30
0.0
 11
3739.5
 21
683.85
 31
0.0
  0
LINE
  5
561
100
AcDbEntity
  8
LAY-1
  6
CONTINUOUS
 62
     2
100
AcDbLine
 10
3737.5
 20
662.15
 30
0.0
 11
3737.5
 21
683.85
 31
0.0
  0
LINE
  5
562
100
AcDbEntity
  8
LAY-1
  6
CONTINUOUS
 62
     2
100
AcDbLine
 10
3768.0
 20
699.0
 30
0.0
 11
3784.0
 21
699.0
 31
0.0
  0
LINE
  5
563
100
AcDbEntity
  8
LAY-1
  6
CONTINUOUS
 62
     2
100
AcDbLine
 10
3768.0
 20
701.3
 30
0.0
 11
3784.0
 21
701.3
 31
0.0
  0
LINE
  5
564
100
AcDbEntity
  8
LAY-1
  6
CONTINUOUS
 62
     2
100
AcDbLine
 10
3768.0
 20
702.3
 30
0.0
 11
3784.0
 21
702.3
 31
0.0
  0
LINE
  5
565
100
AcDbEntity
  8
LAY-1
  6
CONTINUOUS
 62
     2
100
AcDbLine
 10
3768.0
 20
702.3
 30
0.0
 11
3768.0
 21
699.0
 31
0.0
  0
LINE
  5
566
100
AcDbEntity
  8
LAY-1
  6
CONTINUOUS
 62
     2
100
AcDbLine
 10
3784.0
 20
702.3
 30
0.0
 11
3784.0
 21
699.0
 31
0.0
  0
LINE
  5
567
100
AcDbEntity
  8
LAY-1
  6
CONTINUOUS
 62
     2
100
AcDbLine
 10
3770.0
 20
721.3
 30
0.0
 11
3782.0
 21
721.3
 31
0.0
  0
LINE
  5
568
100
AcDbEntity
  8
LAY-1
  6
CONTINUOUS
 62
     2
100
AcDbLine
 10
3782.0
 20
721.3
 30
0.0
 11
3782.0
 21
719.0
 31
0.0
  0
LINE
  5
569
100
AcDbEntity
  8
LAY-1
  6
CONTINUOUS
 62
     2
100
AcDbLine
 10
3770.0
 20
721.3
 30
0.0
 11
3770.0
 21
719.0
 31
0.0
  0
LINE
  5
56A
100
AcDbEntity
  8
LAY-1
  6
CONTINUOUS
 62
     2
100
AcDbLine
 10
3782.0
 20
719.0
 30
0.0
 11
3784.0
 21
702.3
 31
0.0
  0
LINE
  5
56B
100
AcDbEntity
  8
LAY-1
  6
CONTINUOUS
 62
     2
100
AcDbLine
 10
3770.0
 20
719.0
 30
0.0
 11
3768.0
 21
702.3
 31
0.0
  0
LINE
  5
56C
100
AcDbEntity
  8
LAY-1
  6
CONTINUOUS
 62
     2
100
AcDbLine
 10
3722.5
 20
662.15
 30
0.0
 11
3722.5
 21
683.85
 31
0.0
  0
LINE
  5
56D
100
AcDbEntity
  8
LAY-1
  6
CONTINUOUS
 62
     2
100
AcDbLine
 10
3724.5
 20
662.15
 30
0.0
 11
3724.5
 21
683.85
 31
0.0
  0
LINE
  5
56E
100
AcDbEntity
  8
LAY-1
  6
CONTINUOUS
 62
     2
100
AcDbLine
 10
3726.5
 20
662.15
 30
0.0
 11
3726.5
 21
683.85
 31
0.0
  0
LINE
  5
56F
100
AcDbEntity
  8
LAY-1
  6
CONTINUOUS
 62
     2
100
AcDbLine
 10
3824.5
 20
666.140657
 30
0.0
 11
3814.5
 21
666.140657
 31
0.0
  0
LINE
  5
570
100
AcDbEntity
  8
LAY-1
  6
CONTINUOUS
 62
     2
100
AcDbLine
 10
3824.5
 20
680.140657
 30
0.0
 11
3814.5
 21
680.140657
 31
0.0
  0
LINE
  5
571
100
AcDbEntity
  8
LAY-1
  6
CONTINUOUS
 62
     2
100
AcDbLine
 10
3814.5
 20
683.990657
 30
0.0
 11
3808.5
 21
683.990657
 31
0.0
  0
LINE
  5
572
100
AcDbEntity
  8
LAY-1
  6
CONTINUOUS
 62
     2
100
AcDbLine
 10
3814.5
 20
662.290657
 30
0.0
 11
3808.5
 21
662.290657
 31
0.0
  0
LINE
  5
573
100
AcDbEntity
  8
LAY-1
  6
CONTINUOUS
 62
     2
100
AcDbLine
 10
3810.5
 20
662.290657
 30
0.0
 11
3810.5
 21
683.990657
 31
0.0
  0
LINE
  5
574
100
AcDbEntity
  8
LAY-1
  6
CONTINUOUS
 62
     2
100
AcDbLine
 10
3812.5
 20
662.290657
 30
0.0
 11
3812.5
 21
683.990657
 31
0.0
  0
LINE
  5
575
100
AcDbEntity
  8
LAY-1
  6
CONTINUOUS
 62
     2
100
AcDbLine
 10
3814.5
 20
662.290657
 30
0.0
 11
3814.5
 21
683.990657
 31
0.0
  0
LINE
  5
576
100
AcDbEntity
  8
LAY-1
  6
CONTINUOUS
 62
     2
100
AcDbLine
 10
3824.5
 20
666.140657
 30
0.0
 11
3824.5
 21
680.140657
 31
0.0
  0
CIRCLE
  5
577
100
AcDbEntity
  8
LAY-1
  6
CONTINUOUS
 62
     2
100
AcDbCircle
 10
595.0
 20
673.0
 30
0.0
 40
16.153491
  0
CIRCLE
  5
578
100
AcDbEntity
  8
LAY-1
  6
CONTINUOUS
 62
     2
100
AcDbCircle
 10
595.0
 20
673.0
 30
0.0
 40
15.0
  0
LINE
  5
579
100
AcDbEntity
  8
LAY-1
  6
CONTINUOUS
 62
     2
100
AcDbLine
 10
495.0
 20
671.0
 30
0.0
 11
580.133931
 21
671.0
 31
0.0
  0
LINE
  5
57A
100
AcDbEntity
  8
LAY-1
  6
CONTINUOUS
 62
     2
100
AcDbLine
 10
609.866069
 20
671.0
 30
0.0
 11
975.0
 21
671.0
 31
0.0
  0
TEXT
  5
57B
100
AcDbEntity
  8
LAY-1
  6
CONTINUOUS
 62
     3
100
AcDbText
 10
3331.872
 20
328.44
 30
0.0
 40
40.0
  1
ＶＨ－１００Ｆ
 41
0.84
  7
EXCADSTD
 72
     5
 11
3611.872
 21
328.44
 31
0.0
100
AcDbText
  0
LINE
  5
57C
100
AcDbEntity
  8
LAY-1
  6
CONTINUOUS
 62
     2
100
AcDbLine
 10
2808.5
 20
2455.5
 30
0.0
 11
2808.5
 21
2437.5
 31
0.0
  0
LINE
  5
57D
100
AcDbEntity
  8
LAY-1
  6
CONTINUOUS
 62
     2
100
AcDbLine
 10
2777.5
 20
2414.75
 30
0.0
 11
2777.5
 21
2427.0
 31
0.0
  0
LINE
  5
57E
100
AcDbEntity
  8
LAY-1
  6
CONTINUOUS
 62
     2
100
AcDbLine
 10
2807.5
 20
2414.75
 30
0.0
 11
2807.5
 21
2427.0
 31
0.0
  0
LINE
  5
57F
100
AcDbEntity
  8
LAY-1
  6
CONTINUOUS
 62
     2
100
AcDbLine
 10
2776.5
 20
2427.0
 30
0.0
 11
2776.5
 21
2433.0
 31
0.0
  0
LINE
  5
580
100
AcDbEntity
  8
LAY-1
  6
CONTINUOUS
 62
     2
100
AcDbLine
 10
2808.5
 20
2427.0
 30
0.0
 11
2808.5
 21
2433.0
 31
0.0
  0
LINE
  5
581
100
AcDbEntity
  8
LAY-1
  6
CONTINUOUS
 62
     2
100
AcDbLine
 10
2777.5
 20
2466.75
 30
0.0
 11
2777.5
 21
2478.25
 31
0.0
  0
LINE
  5
582
100
AcDbEntity
  8
LAY-1
  6
CONTINUOUS
 62
     2
100
AcDbLine
 10
2807.5
 20
2466.75
 30
0.0
 11
2807.5
 21
2478.25
 31
0.0
  0
LINE
  5
583
100
AcDbEntity
  8
LAY-1
  6
CONTINUOUS
 62
     2
100
AcDbLine
 10
2777.5
 20
2395.0
 30
0.0
 11
2777.5
 21
2373.0
 31
0.0
  0
LINE
  5
584
100
AcDbEntity
  8
LAY-1
  6
CONTINUOUS
 62
     2
100
AcDbLine
 10
2807.5
 20
2395.0
 30
0.0
 11
2807.5
 21
2373.0
 31
0.0
  0
LINE
  5
585
100
AcDbEntity
  8
LAY-1
  6
CONTINUOUS
 62
     2
100
AcDbLine
 10
2865.286604
 20
2452.993678
 30
0.0
 11
2808.5
 21
2455.5
 31
0.0
  0
LINE
  5
586
100
AcDbEntity
  8
LAY-1
  6
CONTINUOUS
 62
     2
100
AcDbLine
 10
2865.286604
 20
2440.006322
 30
0.0
 11
2808.5
 21
2437.5
 31
0.0
  0
ARC
  5
587
100
AcDbEntity
  8
LAY-1
  6
CONTINUOUS
 62
     2
100
AcDbCircle
 10
2865.0
 20
2446.5
 30
0.0
 40
6.5
100
AcDbArc
 50
272.527154
 51
87.472846
  0
LINE
  5
588
100
AcDbEntity
  8
LAY-1
  6
CONTINUOUS
 62
     2
100
AcDbLine
 10
2777.5
 20
2379.0
 30
0.0
 11
2526.1
 21
2379.0
 31
0.0
  0
LINE
  5
589
100
AcDbEntity
  8
LAY-1
  6
CONTINUOUS
 62
     2
100
AcDbLine
 10
2778.9
 20
2395.0
 30
0.0
 11
2777.5
 21
2395.0
 31
0.0
  0
LINE
  5
58A
100
AcDbEntity
  8
LAY-1
  6
CONTINUOUS
 62
     2
100
AcDbLine
 10
2807.5
 20
2395.0
 30
0.0
 11
2806.1
 21
2395.0
 31
0.0
  0
LINE
  5
58B
100
AcDbEntity
  8
LAY-1
  6
CONTINUOUS
 62
     2
100
AcDbLine
 10
2932.5
 20
2379.0
 30
0.0
 11
2807.5
 21
2379.0
 31
0.0
  0
ARC
  5
58C
100
AcDbEntity
  8
LAY-1
  6
CONTINUOUS
 62
     2
100
AcDbCircle
 10
2780.0
 20
2418.541667
 30
0.0
 40
4.541667
100
AcDbArc
 50
236.601512
 51
255.983469
  0
ARC
  5
58D
100
AcDbEntity
  8
LAY-1
  6
CONTINUOUS
 62
     2
100
AcDbCircle
 10
2805.0
 20
2418.541667
 30
0.0
 40
4.541667
100
AcDbArc
 50
284.016531
 51
303.398488
  0
LINE
  5
58E
100
AcDbEntity
  8
LAY-1
  6
CONTINUOUS
 62
     2
100
AcDbLine
 10
2776.5
 20
2427.0
 30
0.0
 11
2778.9
 21
2427.0
 31
0.0
  0
LINE
  5
58F
100
AcDbEntity
  8
LAY-1
  6
CONTINUOUS
 62
     2
100
AcDbLine
 10
2806.1
 20
2427.0
 30
0.0
 11
2808.5
 21
2427.0
 31
0.0
  0
LINE
  5
590
100
AcDbEntity
  8
LAY-1
  6
CONTINUOUS
 62
     2
100
AcDbLine
 10
2776.5
 20
2430.0
 30
0.0
 11
2778.9
 21
2430.0
 31
0.0
  0
LINE
  5
591
100
AcDbEntity
  8
LAY-1
  6
CONTINUOUS
 62
     2
100
AcDbLine
 10
2806.1
 20
2430.0
 30
0.0
 11
2808.5
 21
2430.0
 31
0.0
  0
LINE
  5
592
100
AcDbEntity
  8
LAY-1
  6
CONTINUOUS
 62
     2
100
AcDbLine
 10
2776.5
 20
2433.0
 30
0.0
 11
2778.9
 21
2433.0
 31
0.0
  0
LINE
  5
593
100
AcDbEntity
  8
LAY-1
  6
CONTINUOUS
 62
     2
100
AcDbLine
 10
2806.1
 20
2433.0
 30
0.0
 11
2808.5
 21
2433.0
 31
0.0
  0
LINE
  5
594
100
AcDbEntity
  8
LAY-1
  6
CONTINUOUS
 62
     2
100
AcDbLine
 10
2806.1
 20
2437.5
 30
0.0
 11
2808.5
 21
2437.5
 31
0.0
  0
LINE
  5
595
100
AcDbEntity
  8
LAY-1
  6
CONTINUOUS
 62
     2
100
AcDbLine
 10
2778.5
 20
2433.0
 30
0.0
 11
2778.9
 21
2442.2
 31
0.0
  0
LINE
  5
596
100
AcDbEntity
  8
LAY-1
  6
CONTINUOUS
 62
     2
100
AcDbLine
 10
2806.1
 20
2455.5
 30
0.0
 11
2808.5
 21
2455.5
 31
0.0
  0
LINE
  5
597
100
AcDbEntity
  8
LAY-1
  6
CONTINUOUS
 62
     2
100
AcDbLine
 10
2806.5
 20
2433.0
 30
0.0
 11
2806.1
 21
2442.2
 31
0.0
  0
ARC
  5
598
100
AcDbEntity
  8
LAY-1
  6
CONTINUOUS
 62
     2
100
AcDbCircle
 10
2780.0
 20
2474.458333
 30
0.0
 40
4.541667
100
AcDbArc
 50
104.016531
 51
123.398488
  0
ARC
  5
599
100
AcDbEntity
  8
LAY-1
  6
CONTINUOUS
 62
     2
100
AcDbCircle
 10
2780.0
 20
2470.541667
 30
0.0
 40
4.541667
100
AcDbArc
 50
236.601512
 51
255.983469
  0
ARC
  5
59A
100
AcDbEntity
  8
LAY-1
  6
CONTINUOUS
 62
     2
100
AcDbCircle
 10
2805.0
 20
2470.541667
 30
0.0
 40
4.541667
100
AcDbArc
 50
284.016531
 51
303.398488
  0
ARC
  5
59B
100
AcDbEntity
  8
LAY-1
  6
CONTINUOUS
 62
     2
100
AcDbCircle
 10
2805.0
 20
2474.458333
 30
0.0
 40
4.541667
100
AcDbArc
 50
56.601512
 51
75.983469
  0
LINE
  5
59C
100
AcDbEntity
  8
LAY-1
  6
CONTINUOUS
 62
     2
100
AcDbLine
 10
2352.5
 20
2359.0
 30
0.0
 11
2352.5
 21
1899.0
 31
0.0
  0
TEXT
  5
59D
100
AcDbEntity
  8
LAY-1
  6
CONTINUOUS
 62
     3
100
AcDbText
 10
3352.96
 20
383.64
 30
0.0
 40
40.0
  1
２０１８年　５月３０日
 41
0.84
  7
EXCADSTD
 72
     5
 11
3792.96
 21
383.64
 31
0.0
100
AcDbText
  0
LINE
  5
59E
100
AcDbEntity
  8
LAY-5
  6
CONTINUOUS
 62
     1
100
AcDbLine
 10
2942.5
 20
1969.0
 30
0.0
 11
3091.5
 21
1969.0
 31
0.0
  0
LINE
  5
59F
100
AcDbEntity
  8
LAY-5
  6
CONTINUOUS
 62
     1
100
AcDbLine
 10
2942.5
 20
2289.0
 30
0.0
 11
3091.5
 21
2289.0
 31
0.0
  0
TEXT
  5
5A0
100
AcDbEntity
  8
LAY-5
  6
CONTINUOUS
 62
     3
100
AcDbText
 10
3090.0
 20
2054.0
 30
0.0
 40
50.0
  1
３２０
 50
90.0
 41
0.84
  7
EXCADSTD
 72
     5
 11
3090.0
 21
2204.0
 31
0.0
100
AcDbText
  0
LINE
  5
5A1
100
AcDbEntity
  8
LAY-5
  6
CONTINUOUS
 62
     1
100
AcDbLine
 10
3091.0
 20
1969.0
 30
0.0
 11
3091.0
 21
2289.0
 31
0.0
  0
LINE
  5
5A2
100
AcDbEntity
  8
LAY-5
  6
CONTINUOUS
 62
     1
100
AcDbLine
 10
3082.666667
 20
2019.0
 30
0.0
 11
3091.0
 21
1969.0
 31
0.0
  0
LINE
  5
5A3
100
AcDbEntity
  8
LAY-5
  6
CONTINUOUS
 62
     1
100
AcDbLine
 10
3091.0
 20
1969.0
 30
0.0
 11
3099.333333
 21
2019.0
 31
0.0
  0
LINE
  5
5A4
100
AcDbEntity
  8
LAY-5
  6
CONTINUOUS
 62
     1
100
AcDbLine
 10
3099.333333
 20
2239.0
 30
0.0
 11
3091.0
 21
2289.0
 31
0.0
  0
LINE
  5
5A5
100
AcDbEntity
  8
LAY-5
  6
CONTINUOUS
 62
     1
100
AcDbLine
 10
3091.0
 20
2289.0
 30
0.0
 11
3082.666667
 21
2239.0
 31
0.0
  0
LINE
  5
5A6
100
AcDbEntity
  8
LAY-5
  6
CONTINUOUS
 62
     1
100
AcDbLine
 10
2932.5
 20
1879.0
 30
0.0
 11
3174.5
 21
1879.0
 31
0.0
  0
LINE
  5
5A7
100
AcDbEntity
  8
LAY-5
  6
CONTINUOUS
 62
     1
100
AcDbLine
 10
2932.5
 20
2379.0
 30
0.0
 11
3174.5
 21
2379.0
 31
0.0
  0
TEXT
  5
5A8
100
AcDbEntity
  8
LAY-5
  6
CONTINUOUS
 62
     3
100
AcDbText
 10
3173.0
 20
2054.0
 30
0.0
 40
50.0
  1
５００
 50
90.0
 41
0.84
  7
EXCADSTD
 72
     5
 11
3173.0
 21
2204.0
 31
0.0
100
AcDbText
  0
LINE
  5
5A9
100
AcDbEntity
  8
LAY-5
  6
CONTINUOUS
 62
     1
100
AcDbLine
 10
3174.0
 20
1879.0
 30
0.0
 11
3174.0
 21
2379.0
 31
0.0
  0
LINE
  5
5AA
100
AcDbEntity
  8
LAY-5
  6
CONTINUOUS
 62
     1
100
AcDbLine
 10
3165.666667
 20
1929.0
 30
0.0
 11
3174.0
 21
1879.0
 31
0.0
  0
LINE
  5
5AB
100
AcDbEntity
  8
LAY-5
  6
CONTINUOUS
 62
     1
100
AcDbLine
 10
3174.0
 20
1879.0
 30
0.0
 11
3182.333333
 21
1929.0
 31
0.0
  0
LINE
  5
5AC
100
AcDbEntity
  8
LAY-5
  6
CONTINUOUS
 62
     1
100
AcDbLine
 10
3182.333333
 20
2329.0
 30
0.0
 11
3174.0
 21
2379.0
 31
0.0
  0
LINE
  5
5AD
100
AcDbEntity
  8
LAY-5
  6
CONTINUOUS
 62
     1
100
AcDbLine
 10
3174.0
 20
2379.0
 30
0.0
 11
3165.666667
 21
2329.0
 31
0.0
  0
LINE
  5
5AE
100
AcDbEntity
  8
LAY-5
  6
CONTINUOUS
 62
     1
100
AcDbLine
 10
2352.5
 20
1899.0
 30
0.0
 11
2352.5
 21
1670.5
 31
0.0
  0
LINE
  5
5AF
100
AcDbEntity
  8
LAY-5
  6
CONTINUOUS
 62
     1
100
AcDbLine
 10
2952.5
 20
1899.0
 30
0.0
 11
2952.5
 21
1670.5
 31
0.0
  0
TEXT
  5
5B0
100
AcDbEntity
  8
LAY-5
  6
CONTINUOUS
 62
     3
100
AcDbText
 10
2577.5
 20
1672.0
 30
0.0
 40
50.0
  1
６００
 41
0.84
  7
EXCADSTD
 72
     5
 11
2727.5
 21
1672.0
 31
0.0
100
AcDbText
  0
LINE
  5
5B1
100
AcDbEntity
  8
LAY-5
  6
CONTINUOUS
 62
     1
100
AcDbLine
 10
2352.5
 20
1671.0
 30
0.0
 11
2952.5
 21
1671.0
 31
0.0
  0
LINE
  5
5B2
100
AcDbEntity
  8
LAY-5
  6
CONTINUOUS
 62
     1
100
AcDbLine
 10
2402.5
 20
1679.333333
 30
0.0
 11
2352.5
 21
1671.0
 31
0.0
  0
LINE
  5
5B3
100
AcDbEntity
  8
LAY-5
  6
CONTINUOUS
 62
     1
100
AcDbLine
 10
2352.5
 20
1671.0
 30
0.0
 11
2402.5
 21
1662.666667
 31
0.0
  0
LINE
  5
5B4
100
AcDbEntity
  8
LAY-5
  6
CONTINUOUS
 62
     1
100
AcDbLine
 10
2902.5
 20
1662.666667
 30
0.0
 11
2952.5
 21
1671.0
 31
0.0
  0
LINE
  5
5B5
100
AcDbEntity
  8
LAY-5
  6
CONTINUOUS
 62
     1
100
AcDbLine
 10
2952.5
 20
1671.0
 30
0.0
 11
2902.5
 21
1679.333333
 31
0.0
  0
LINE
  5
5B6
100
AcDbEntity
  8
LAY-5
  6
CONTINUOUS
 62
     1
100
AcDbLine
 10
2372.5
 20
1956.7
 30
0.0
 11
2372.5
 21
1756.5
 31
0.0
  0
LINE
  5
5B7
100
AcDbEntity
  8
LAY-5
  6
CONTINUOUS
 62
     1
100
AcDbLine
 10
2932.5
 20
1956.7
 30
0.0
 11
2932.5
 21
1756.5
 31
0.0
  0
TEXT
  5
5B8
100
AcDbEntity
  8
LAY-5
  6
CONTINUOUS
 62
     3
100
AcDbText
 10
2577.5
 20
1758.0
 30
0.0
 40
50.0
  1
５６０
 41
0.84
  7
EXCADSTD
 72
     5
 11
2727.5
 21
1758.0
 31
0.0
100
AcDbText
  0
LINE
  5
5B9
100
AcDbEntity
  8
LAY-5
  6
CONTINUOUS
 62
     1
100
AcDbLine
 10
2372.5
 20
1757.0
 30
0.0
 11
2932.5
 21
1757.0
 31
0.0
  0
LINE
  5
5BA
100
AcDbEntity
  8
LAY-5
  6
CONTINUOUS
 62
     1
100
AcDbLine
 10
2422.5
 20
1765.333333
 30
0.0
 11
2372.5
 21
1757.0
 31
0.0
  0
LINE
  5
5BB
100
AcDbEntity
  8
LAY-5
  6
CONTINUOUS
 62
     1
100
AcDbLine
 10
2372.5
 20
1757.0
 30
0.0
 11
2422.5
 21
1748.666667
 31
0.0
  0
LINE
  5
5BC
100
AcDbEntity
  8
LAY-5
  6
CONTINUOUS
 62
     1
100
AcDbLine
 10
2882.5
 20
1748.666667
 30
0.0
 11
2932.5
 21
1757.0
 31
0.0
  0
LINE
  5
5BD
100
AcDbEntity
  8
LAY-5
  6
CONTINUOUS
 62
     1
100
AcDbLine
 10
2932.5
 20
1757.0
 30
0.0
 11
2882.5
 21
1765.333333
 31
0.0
  0
LINE
  5
5BE
100
AcDbEntity
  8
LAY-5
  6
CONTINUOUS
 62
     1
100
AcDbLine
 10
947.3
 20
1173.0
 30
0.0
 11
1234.5
 21
1173.0
 31
0.0
  0
LINE
  5
5BF
100
AcDbEntity
  8
LAY-5
  6
CONTINUOUS
 62
     1
100
AcDbLine
 10
1035.0
 20
613.0
 30
0.0
 11
1234.5
 21
613.0
 31
0.0
  0
TEXT
  5
5C0
100
AcDbEntity
  8
LAY-5
  6
CONTINUOUS
 62
     3
100
AcDbText
 10
1233.0
 20
818.0
 30
0.0
 40
50.0
  1
５６０
 50
90.0
 41
0.84
  7
EXCADSTD
 72
     5
 11
1233.0
 21
968.0
 31
0.0
100
AcDbText
  0
LINE
  5
5C1
100
AcDbEntity
  8
LAY-5
  6
CONTINUOUS
 62
     1
100
AcDbLine
 10
1234.0
 20
1173.0
 30
0.0
 11
1234.0
 21
613.0
 31
0.0
  0
LINE
  5
5C2
100
AcDbEntity
  8
LAY-5
  6
CONTINUOUS
 62
     1
100
AcDbLine
 10
1242.333333
 20
1123.0
 30
0.0
 11
1234.0
 21
1173.0
 31
0.0
  0
LINE
  5
5C3
100
AcDbEntity
  8
LAY-5
  6
CONTINUOUS
 62
     1
100
AcDbLine
 10
1234.0
 20
1173.0
 30
0.0
 11
1225.666667
 21
1123.0
 31
0.0
  0
LINE
  5
5C4
100
AcDbEntity
  8
LAY-5
  6
CONTINUOUS
 62
     1
100
AcDbLine
 10
1225.666667
 20
663.0
 30
0.0
 11
1234.0
 21
613.0
 31
0.0
  0
LINE
  5
5C5
100
AcDbEntity
  8
LAY-5
  6
CONTINUOUS
 62
     1
100
AcDbLine
 10
1234.0
 20
613.0
 30
0.0
 11
1242.333333
 21
663.0
 31
0.0
  0
LINE
  5
5C6
100
AcDbEntity
  8
LAY-5
  6
CONTINUOUS
 62
     1
100
AcDbLine
 10
534.6
 20
1238.0
 30
0.0
 11
389.5
 21
1238.0
 31
0.0
  0
LINE
  5
5C7
100
AcDbEntity
  8
LAY-5
  6
CONTINUOUS
 62
     1
100
AcDbLine
 10
435.0
 20
613.0
 30
0.0
 11
389.5
 21
613.0
 31
0.0
  0
TEXT
  5
5C8
100
AcDbEntity
  8
LAY-5
  6
CONTINUOUS
 62
     3
100
AcDbText
 10
389.0
 20
850.5
 30
0.0
 40
50.0
  1
６２５
 50
90.0
 41
0.84
  7
EXCADSTD
 72
     5
 11
389.0
 21
1000.5
 31
0.0
100
AcDbText
  0
LINE
  5
5C9
100
AcDbEntity
  8
LAY-5
  6
CONTINUOUS
 62
     1
100
AcDbLine
 10
390.0
 20
1238.0
 30
0.0
 11
390.0
 21
613.0
 31
0.0
  0
LINE
  5
5CA
100
AcDbEntity
  8
LAY-5
  6
CONTINUOUS
 62
     1
100
AcDbLine
 10
398.333333
 20
1188.0
 30
0.0
 11
390.0
 21
1238.0
 31
0.0
  0
LINE
  5
5CB
100
AcDbEntity
  8
LAY-5
  6
CONTINUOUS
 62
     1
100
AcDbLine
 10
390.0
 20
1238.0
 30
0.0
 11
381.666667
 21
1188.0
 31
0.0
  0
LINE
  5
5CC
100
AcDbEntity
  8
LAY-5
  6
CONTINUOUS
 62
     1
100
AcDbLine
 10
381.666667
 20
663.0
 30
0.0
 11
390.0
 21
613.0
 31
0.0
  0
LINE
  5
5CD
100
AcDbEntity
  8
LAY-5
  6
CONTINUOUS
 62
     1
100
AcDbLine
 10
390.0
 20
613.0
 30
0.0
 11
398.333333
 21
663.0
 31
0.0
  0
LINE
  5
5CE
100
AcDbEntity
  8
LAY-5
  6
CONTINUOUS
 62
     1
100
AcDbLine
 10
435.0
 20
613.0
 30
0.0
 11
301.5
 21
613.0
 31
0.0
  0
LINE
  5
5CF
100
AcDbEntity
  8
LAY-5
  6
CONTINUOUS
 62
     1
100
AcDbLine
 10
491.0
 20
1353.0
 30
0.0
 11
301.5
 21
1353.0
 31
0.0
  0
TEXT
  5
5D0
100
AcDbEntity
  8
LAY-5
  6
CONTINUOUS
 62
     3
100
AcDbText
 10
301.0
 20
908.0
 30
0.0
 40
50.0
  1
７４０
 50
90.0
 41
0.84
  7
EXCADSTD
 72
     5
 11
301.0
 21
1058.0
 31
0.0
100
AcDbText
  0
LINE
  5
5D1
100
AcDbEntity
  8
LAY-5
  6
CONTINUOUS
 62
     1
100
AcDbLine
 10
302.0
 20
613.0
 30
0.0
 11
302.0
 21
1353.0
 31
0.0
  0
LINE
  5
5D2
100
AcDbEntity
  8
LAY-5
  6
CONTINUOUS
 62
     1
100
AcDbLine
 10
293.666667
 20
663.0
 30
0.0
 11
302.0
 21
613.0
 31
0.0
  0
LINE
  5
5D3
100
AcDbEntity
  8
LAY-5
  6
CONTINUOUS
 62
     1
100
AcDbLine
 10
302.0
 20
613.0
 30
0.0
 11
310.333333
 21
663.0
 31
0.0
  0
LINE
  5
5D4
100
AcDbEntity
  8
LAY-5
  6
CONTINUOUS
 62
     1
100
AcDbLine
 10
310.333333
 20
1303.0
 30
0.0
 11
302.0
 21
1353.0
 31
0.0
  0
LINE
  5
5D5
100
AcDbEntity
  8
LAY-5
  6
CONTINUOUS
 62
     1
100
AcDbLine
 10
302.0
 20
1353.0
 30
0.0
 11
293.666667
 21
1303.0
 31
0.0
  0
POLYLINE
  5
5D6
100
AcDbEntity
  8
LAY-5
  6
CONTINUOUS
 62
     1
100
AcDb2dPolyline
 66
     1
 10
0.0
 20
0.0
 30
0.0
 70
   128
  0
VERTEX
  5
5D7
100
AcDbEntity
  8
LAY-5
  6
CONTINUOUS
 62
     1
100
AcDbVertex
100
AcDb2dVertex
 10
575.783299
 20
1284.159705
 30
0.0
  0
VERTEX
  5
5D8
100
AcDbEntity
  8
LAY-5
  6
CONTINUOUS
 62
     1
100
AcDbVertex
100
AcDb2dVertex
 10
451.0
 20
1879.0
 30
0.0
  0
VERTEX
  5
5D9
100
AcDbEntity
  8
LAY-5
  6
CONTINUOUS
 62
     1
100
AcDbVertex
100
AcDb2dVertex
 10
1339.0
 20
1879.0
 30
0.0
  0
SEQEND
  5
5DA
100
AcDbEntity
  8
LAY-5
  6
CONTINUOUS
 62
     1
  0
LINE
  5
5DB
100
AcDbEntity
  8
LAY-5
  6
CONTINUOUS
 62
     1
100
AcDbLine
 10
557.362116
 20
1331.383687
 30
0.0
 11
575.783299
 21
1284.159705
 31
0.0
  0
LINE
  5
5DC
100
AcDbEntity
  8
LAY-5
  6
CONTINUOUS
 62
     1
100
AcDbLine
 10
575.783299
 20
1284.159705
 30
0.0
 11
573.673742
 21
1334.805477
 31
0.0
  0
TEXT
  5
5DD
100
AcDbEntity
  8
LAY-5
  6
CONTINUOUS
 62
     3
100
AcDbText
 10
545.0
 20
1879.03
 30
0.0
 40
50.0
  1
ＪＩＳ ２０Ｋ ２０Ａフランジ
 41
0.803911
  7
EXCADSTD
 72
     5
 11
1245.0
 21
1879.03
 31
0.0
100
AcDbText
  0
TEXT
  5
5DE
100
AcDbEntity
  8
LAY-5
  6
CONTINUOUS
 62
     3
100
AcDbText
 10
805.0
 20
1764.03
 30
0.0
 40
50.0
  1
ＪＩＳ ２０Ｋ ２０Ａフランジ
 41
0.803911
  7
EXCADSTD
 72
     5
 11
1505.0
 21
1764.03
 31
0.0
100
AcDbText
  0
POLYLINE
  5
5DF
100
AcDbEntity
  8
LAY-5
  6
CONTINUOUS
 62
     1
100
AcDb2dPolyline
 66
     1
 10
0.0
 20
0.0
 30
0.0
 70
   128
  0
VERTEX
  5
5E0
100
AcDbEntity
  8
LAY-5
  6
CONTINUOUS
 62
     1
100
AcDbVertex
100
AcDb2dVertex
 10
830.284501
 20
1195.372398
 30
0.0
  0
VERTEX
  5
5E1
100
AcDbEntity
  8
LAY-5
  6
CONTINUOUS
 62
     1
100
AcDbVertex
100
AcDb2dVertex
 10
711.0
 20
1764.0
 30
0.0
  0
VERTEX
  5
5E2
100
AcDbEntity
  8
LAY-5
  6
CONTINUOUS
 62
     1
100
AcDbVertex
100
AcDb2dVertex
 10
1599.0
 20
1764.0
 30
0.0
  0
SEQEND
  5
5E3
100
AcDbEntity
  8
LAY-5
  6
CONTINUOUS
 62
     1
  0
LINE
  5
5E4
100
AcDbEntity
  8
LAY-5
  6
CONTINUOUS
 62
     1
100
AcDbLine
 10
811.863319
 20
1242.59638
 30
0.0
 11
830.284501
 21
1195.372398
 31
0.0
  0
LINE
  5
5E5
100
AcDbEntity
  8
LAY-5
  6
CONTINUOUS
 62
     1
100
AcDbLine
 10
830.284501
 20
1195.372398
 30
0.0
 11
828.174945
 21
1246.01817
 31
0.0
  0
TEXT
  5
5E6
100
AcDbEntity
  8
LAY-5
  6
CONTINUOUS
 62
     3
100
AcDbText
 10
1929.0
 20
1854.0
 30
0.0
 40
50.0
  1
４－φ１５
 41
0.84
  7
EXCADSTD
 72
     5
 11
2179.0
 21
1854.0
 31
0.0
100
AcDbText
  0
POLYLINE
  5
5E7
100
AcDbEntity
  8
LAY-5
  6
CONTINUOUS
 62
     1
100
AcDb2dPolyline
 66
     1
 10
0.0
 20
0.0
 30
0.0
 70
   128
  0
VERTEX
  5
5E8
100
AcDbEntity
  8
LAY-5
  6
CONTINUOUS
 62
     1
100
AcDbVertex
100
AcDb2dVertex
 10
2367.031095
 20
1963.867643
 30
0.0
  0
VERTEX
  5
5E9
100
AcDbEntity
  8
LAY-5
  6
CONTINUOUS
 62
     1
100
AcDbVertex
100
AcDb2dVertex
 10
2208.0
 20
1854.0
 30
0.0
  0
VERTEX
  5
5EA
100
AcDbEntity
  8
LAY-5
  6
CONTINUOUS
 62
     1
100
AcDbVertex
100
AcDb2dVertex
 10
1918.6
 20
1854.0
 30
0.0
  0
SEQEND
  5
5EB
100
AcDbEntity
  8
LAY-5
  6
CONTINUOUS
 62
     1
  0
LINE
  5
5EC
100
AcDbEntity
  8
LAY-5
  6
CONTINUOUS
 62
     1
100
AcDbLine
 10
2330.630252
 20
1928.591263
 30
0.0
 11
2367.031095
 21
1963.867643
 31
0.0
  0
LINE
  5
5ED
100
AcDbEntity
  8
LAY-5
  6
CONTINUOUS
 62
     1
100
AcDbLine
 10
2367.031095
 20
1963.867643
 30
0.0
 11
2321.156877
 21
1942.303774
 31
0.0
  0
ENDSEC
  0
SECTION
  2
OBJECTS
  0
DICTIONARY
  5
19
100
AcDbDictionary
  3
ACAD_GROUP
350
1A
  3
ACAD_MLINESTYLE
350
1B
  0
DICTIONARY
  5
1A
102
{ACAD_REACTORS
330
19
102
}
100
AcDbDictionary
  0
DICTIONARY
  5
1B
102
{ACAD_REACTORS
330
19
102
}
100
AcDbDictionary
  3
STANDARD
350
1C
  0
MLINESTYLE
  5
1C
102
{ACAD_REACTORS
330
1B
102
}
100
AcDbMlineStyle
  2
Standard
 70
     0
  3

 62
     0
 51
90.0
 52
90.0
 71
     2
 49
0.5
 62
   256
  6
ByLayer
 49
-0.5
 62
   256
  6
ByLayer
  0
ENDSEC
  0
EOF
