  0
SECTION
  2
HEADER
  9
$ACADVER
  1
AC1014
  9
$ACADMAINTVER
 70
     0
  9
$DWGCODEPAGE
  3
ANSI_932
  9
$INSBASE
 10
0.0
 20
0.0
 30
0.0
  9
$EXTMIN
 10
749.0
 20
487.5
 30
0.0
  9
$EXTMAX
 10
5620.2
 20
3769.95
 30
0.0
  9
$LIMMIN
 10
0.0
 20
0.0
  9
$LIMMAX
 10
420.0
 20
297.0
  9
$ORTHOMODE
 70
     0
  9
$REGENMODE
 70
     1
  9
$FILLMODE
 70
     1
  9
$QTEXTMODE
 70
     0
  9
$MIRRTEXT
 70
     1
  9
$DRAGMODE
 70
     2
  9
$LTSCALE
 40
1.0
  9
$OSMODE
 70
     0
  9
$ATTMODE
 70
     1
  9
$TEXTSIZE
 40
0.2
  9
$TRACEWID
 40
0.05
  9
$TEXTSTYLE
  7
STANDARD
  9
$CLAYER
  8
LAY-1
  9
$CELTYPE
  6
CONTINUOUS
  9
$CECOLOR
 62
   256
  9
$CELTSCALE
 40
1.0
  9
$DELOBJ
 70
     1
  9
$DISPSILH
 70
     0
  9
$DIMSCALE
 40
1.0
  9
$DIMASZ
 40
0.18
  9
$DIMEXO
 40
0.0625
  9
$DIMDLI
 40
0.38
  9
$DIMRND
 40
0.0
  9
$DIMDLE
 40
0.0
  9
$DIMEXE
 40
0.18
  9
$DIMTP
 40
0.0
  9
$DIMTM
 40
0.0
  9
$DIMTXT
 40
0.18
  9
$DIMCEN
 40
0.09
  9
$DIMTSZ
 40
0.0
  9
$DIMTOL
 70
     0
  9
$DIMLIM
 70
     0
  9
$DIMTIH
 70
     1
  9
$DIMTOH
 70
     1
  9
$DIMSE1
 70
     0
  9
$DIMSE2
 70
     0
  9
$DIMTAD
 70
     0
  9
$DIMZIN
 70
     0
  9
$DIMBLK
  1

  9
$DIMASO
 70
     1
  9
$DIMSHO
 70
     1
  9
$DIMPOST
  1

  9
$DIMAPOST
  1

  9
$DIMALT
 70
     0
  9
$DIMALTD
 70
     2
  9
$DIMALTF
 40
25.4
  9
$DIMLFAC
 40
1.0
  9
$DIMTOFL
 70
     0
  9
$DIMTVP
 40
0.0
  9
$DIMTIX
 70
     0
  9
$DIMSOXD
 70
     0
  9
$DIMSAH
 70
     0
  9
$DIMBLK1
  1

  9
$DIMBLK2
  1

  9
$DIMSTYLE
  2
STANDARD
  9
$DIMCLRD
 70
     0
  9
$DIMCLRE
 70
     0
  9
$DIMCLRT
 70
     0
  9
$DIMTFAC
 40
1.0
  9
$DIMGAP
 40
0.09
  9
$DIMJUST
 70
     0
  9
$DIMSD1
 70
     0
  9
$DIMSD2
 70
     0
  9
$DIMTOLJ
 70
     1
  9
$DIMTZIN
 70
     0
  9
$DIMALTZ
 70
     0
  9
$DIMALTTZ
 70
     0
  9
$DIMFIT
 70
     3
  9
$DIMUPT
 70
     0
  9
$DIMUNIT
 70
     2
  9
$DIMDEC
 70
     4
  9
$DIMTDEC
 70
     4
  9
$DIMALTU
 70
     2
  9
$DIMALTTD
 70
     2
  9
$DIMTXSTY
  7
STANDARD
  9
$DIMAUNIT
 70
     0
  9
$LUNITS
 70
     2
  9
$LUPREC
 70
     4
  9
$SKETCHINC
 40
0.1
  9
$FILLETRAD
 40
0.0
  9
$AUNITS
 70
     0
  9
$AUPREC
 70
     0
  9
$MENU
  1
acad
  9
$ELEVATION
 40
0.0
  9
$PELEVATION
 40
0.0
  9
$THICKNESS
 40
0.0
  9
$LIMCHECK
 70
     0
  9
$BLIPMODE
 70
     1
  9
$CHAMFERA
 40
0.0
  9
$CHAMFERB
 40
0.0
  9
$CHAMFERC
 40
0.0
  9
$CHAMFERD
 40
0.0
  9
$SKPOLY
 70
     0
  9
$TDCREATE
 40
2458244.144865185
  9
$TDUPDATE
 40
2458244.144865185
  9
$TDINDWG
 40
0.0000000000
  9
$TDUSRTIMER
 40
0.0000000000
  9
$USRTIMER
 70
     1
  9
$ANGBASE
 50
0.0
  9
$ANGDIR
 70
     0
  9
$PDMODE
 70
     0
  9
$PDSIZE
 40
0.0
  9
$PLINEWID
 40
0.0
  9
$COORDS
 70
     1
  9
$SPLFRAME
 70
     0
  9
$SPLINETYPE
 70
     6
  9
$SPLINESEGS
 70
     8
  9
$ATTDIA
 70
     0
  9
$ATTREQ
 70
     1
  9
$HANDLING
 70
     1
  9
$HANDSEED
  5
601
  9
$SURFTAB1
 70
     6
  9
$SURFTAB2
 70
     6
  9
$SURFTYPE
 70
     6
  9
$SURFU
 70
     6
  9
$SURFV
 70
     6
  9
$UCSNAME
  2

  9
$UCSORG
 10
0.0
 20
0.0
 30
0.0
  9
$UCSXDIR
 10
1.0
 20
0.0
 30
0.0
  9
$UCSYDIR
 10
0.0
 20
1.0
 30
0.0
  9
$PUCSNAME
  2

  9
$PUCSORG
 10
0.0
 20
0.0
 30
0.0
  9
$PUCSXDIR
 10
1.0
 20
0.0
 30
0.0
  9
$PUCSYDIR
 10
0.0
 20
1.0
 30
0.0
  9
$USERI1
 70
     0
  9
$USERI2
 70
     0
  9
$USERI3
 70
     0
  9
$USERI4
 70
     0
  9
$USERI5
 70
     0
  9
$USERR1
 40
0.0
  9
$USERR2
 40
0.0
  9
$USERR3
 40
0.0
  9
$USERR4
 40
0.0
  9
$USERR5
 40
0.0
  9
$WORLDVIEW
 70
     1
  9
$SHADEDGE
 70
     3
  9
$SHADEDIF
 70
    70
  9
$TILEMODE
 70
     1
  9
$MAXACTVP
 70
    16
  9
$PINSBASE
 10
0.0
 20
0.0
 30
0.0
  9
$PLIMCHECK
 70
     0
  9
$PEXTMIN
 10
1.000000E+20
 20
1.000000E+20
 30
1.000000E+20
  9
$PEXTMAX
 10
-1.000000E+20
 20
-1.000000E+20
 30
-1.000000E+20
  9
$PLIMMIN
 10
0.0
 20
0.0
  9
$PLIMMAX
 10
12.0
 20
9.0
  9
$UNITMODE
 70
     0
  9
$VISRETAIN
 70
     0
  9
$PLINEGEN
 70
     1
  9
$PSLTSCALE
 70
     0
  9
$TREEDEPTH
 70
  3020
  9
$PICKSTYLE
 70
     1
  9
$CMLSTYLE
  2
Standard
  9
$CMLJUST
 70
     0
  9
$CMLSCALE
 40
1.0
  9
$PROXYGRAPHICS
 70
     0
  9
$MEASUREMENT
 70
     0
  0
ENDSEC
  0
SECTION
  2
CLASSES
  0
CLASS
  1
LWPOLYLINE
  2
AcDbPolyline
  3
"AutoCAD"
 90
        0
280
     0
281
     1
  0
CLASS
  1
IMAGE
  2
AcDbRasterImage
  3
ISM
 90
      127
280
     0
281
     1
  0
CLASS
  1
OLE2FRAME
  2
AcDbOle2Frame
  3
""
 90
        0
280
     0
281
     1
  0
CLASS
  1
HATCH
  2
AcDbHatch
  3
"ACAD_SEDONA"
 90
        0
280
     0
281
     1
  0
CLASS
  1
DICTIONARYVAR
  2
AcDbDictionaryVar
  3
"AutoCAD"
 90
        0
280
     0
281
     0
  0
CLASS
  1
RASTERVARIABLES
  2
AcDbRasterVariables
  3
ISM
 90
        0
280
     0
281
     0
  0
CLASS
  1
IMAGEDEF
  2
AcDbRasterImageDef
  3
ISM
 90
        0
280
     0
281
     0
  0
CLASS
  1
IMAGEDEF_REACTOR
  2
AcDbRasterImageDefReactor
  3
ISM
 90
        1
280
     0
281
     0
  0
CLASS
  1
IDBUFFER
  2
AcDbIdBuffer
  3
"Acad"
 90
        0
280
     0
281
     0
  0
CLASS
  1
SPATIAL_FILTER
  2
AcDbSpatialFilter
  3
"Acad"
 90
        0
280
     0
281
     0
  0
CLASS
  1
XRECORD
  2
AcDbXrecord
  3
"<Built In>"
 90
        0
280
     0
281
     0
  0
CLASS
  1
SORTENTSTABLE
  2
AcDbSortentsTable
  3
"AutoCAD"
 90
        0
280
     0
281
     0
  0
CLASS
  1
LAYER_INDEX
  2
AcDbLayerIndex
  3
"Acad"
 90
        0
280
     0
281
     0
  0
CLASS
  1
SPATIAL_INDEX
  2
AcDbSpatialIndex
  3
"Acad"
 90
        0
280
     0
281
     0
  0
CLASS
  1
OBJECT_PTR
  2
CAseDLPNTableRecord
  3
"ASE-LPNTableRecord"
 90
        1
280
     0
281
     0
  0
CLASS
  1
LAYOUT
  2
AcDbLayout
  3
"AutoCAD 2000"
 90
        0
280
     0
281
     0
  0
CLASS
  1
PLOTSETTINGS
  2
AcDbPlotSettings
  3
"AutoCAD 2000"
 90
        0
280
     0
281
     0
  0
CLASS
  1
ACDBDICTIONARYWDFLT
  2
AcDbDictionaryWithDefault
  3
"AutoCAD 2000"
 90
        0
280
     0
281
     0
  0
CLASS
  1
ACDBPLACEHOLDER
  2
AcDbPlaceHolder
  3
"AutoCAD 2000"
 90
        0
280
     0
281
     0
  0
CLASS
  1
VBA_PROJECT
  2
AcDbVbaProject
  3
"acadvba"
 90
        0
280
     0
281
     0
  0
CLASS
  1
WIPEOUT
  2
AcDbWipeout
  3
WipeOut|AutoCAD Express Tool|expresstools@autodesk.com
 90
      127
280
     0
281
     1
  0
CLASS
  1
WIPEOUTVARIABLES
  2
AcDbWipeoutVariables
  3
WipeOut|AutoCAD Express Tool|expresstools@autodesk.com
 90
        0
280
     0
281
     0
  0
CLASS
  1
RTEXT
  2
RText
  3
RText|AutoCAD Express Tool|expresstools@autodesk.com
 90
        0
280
     0
281
     1
  0
CLASS
  1
ARCALIGNEDTEXT
  2
AcDbArcAlignedText
  3
ATEXT|AutoCAD Express Tool|expresstools@autodesk.com
 90
        0
280
     0
281
     1
  0
ENDSEC
  0
SECTION
  2
TABLES
  0
TABLE
  2
VPORT
  5
7
100
AcDbSymbolTable
 70
     1
  0
VPORT
  5
15
100
AcDbSymbolTableRecord
100
AcDbViewportTableRecord
  2
*ACTIVE
 70
     0
 10
0.0
 20
0.0
 11
1.0
 21
1.0
 12
3184.6
 22
2128.725
 13
0.0
 23
0.0
 14
1.0
 24
1.0
 15
0.0
 25
0.0
 16
0.0
 26
0.0
 36
1.0
 17
0.0
 27
0.0
 37
0.0
 40
3282.45
 41
1.722533
 42
50.0
 43
0.0
 44
0.0
 50
0.0
 51
0.0
 71
     0
 72
  1000
 73
     1
 74
     1
 75
     0
 76
     0
 77
     0
 78
     0
  0
ENDTAB
  0
TABLE
  2
LTYPE
  5
4
100
AcDbSymbolTable
 70
     9
  0
LTYPE
  5
11
100
AcDbSymbolTableRecord
100
AcDbLinetypeTableRecord
  2
BYBLOCK
 70
    64
  3

 72
    65
 73
     0
 40
0.0
  0
LTYPE
  5
12
100
AcDbSymbolTableRecord
100
AcDbLinetypeTableRecord
  2
BYLAYER
 70
    64
  3

 72
    65
 73
     0
 40
0.0
  0
LTYPE
  5
13
100
AcDbSymbolTableRecord
100
AcDbLinetypeTableRecord
  2
CONTINUOUS
 70
    64
  3
実線
 72
    65
 73
     0
 40
0.0
  0
LTYPE
  5
1D
100
AcDbSymbolTableRecord
100
AcDbLinetypeTableRecord
  2
EXLTYPE1
 70
    64
  3
破線
 72
    65
 73
     2
 40
4.0
 49
3.0
 74
     0
 49
-1.0
 74
     0
  0
LTYPE
  5
1E
100
AcDbSymbolTableRecord
100
AcDbLinetypeTableRecord
  2
EXLTYPE2
 70
    64
  3
点線
 72
    65
 73
     2
 40
2.0
 49
1.0
 74
     0
 49
-1.0
 74
     0
  0
LTYPE
  5
1F
100
AcDbSymbolTableRecord
100
AcDbLinetypeTableRecord
  2
EXLTYPE3
 70
    64
  3
一点鎖線
 72
    65
 73
     4
 40
33.0
 49
30.0
 74
     0
 49
-1.0
 74
     0
 49
1.0
 74
     0
 49
-1.0
 74
     0
  0
LTYPE
  5
20
100
AcDbSymbolTableRecord
100
AcDbLinetypeTableRecord
  2
EXLTYPE4
 70
    64
  3
二点鎖線
 72
    65
 73
     6
 40
35.0
 49
30.0
 74
     0
 49
-1.0
 74
     0
 49
1.0
 74
     0
 49
-1.0
 74
     0
 49
1.0
 74
     0
 49
-1.0
 74
     0
  0
LTYPE
  5
21
100
AcDbSymbolTableRecord
100
AcDbLinetypeTableRecord
  2
EXLTYPE5
 70
    64
  3
三点鎖線
 72
    65
 73
     8
 40
37.0
 49
30.0
 74
     0
 49
-1.0
 74
     0
 49
1.0
 74
     0
 49
-1.0
 74
     0
 49
1.0
 74
     0
 49
-1.0
 74
     0
 49
1.0
 74
     0
 49
-1.0
 74
     0
  0
LTYPE
  5
22
100
AcDbSymbolTableRecord
100
AcDbLinetypeTableRecord
  2
EXLTYPE6
 70
    64
  3
四点鎖線
 72
    65
 73
    10
 40
39.0
 49
30.0
 74
     0
 49
-1.0
 74
     0
 49
1.0
 74
     0
 49
-1.0
 74
     0
 49
1.0
 74
     0
 49
-1.0
 74
     0
 49
1.0
 74
     0
 49
-1.0
 74
     0
 49
1.0
 74
     0
 49
-1.0
 74
     0
  0
ENDTAB
  0
TABLE
  2
LAYER
  5
2
100
AcDbSymbolTable
 70
     4
  0
LAYER
  5
14
100
AcDbSymbolTableRecord
100
AcDbLayerTableRecord
  2
0
 70
     0
 62
     7
  6
CONTINUOUS
  0
LAYER
  5
25
100
AcDbSymbolTableRecord
100
AcDbLayerTableRecord
  2
LAY-1
 70
    64
 62
     3
  6
CONTINUOUS
  0
LAYER
  5
26
100
AcDbSymbolTableRecord
100
AcDbLayerTableRecord
  2
LAY-2
 70
    64
 62
     7
  6
CONTINUOUS
  0
LAYER
  5
27
100
AcDbSymbolTableRecord
100
AcDbLayerTableRecord
  2
LAY-5
 70
    64
 62
     1
  6
CONTINUOUS
  0
ENDTAB
  0
TABLE
  2
STYLE
  5
3
100
AcDbSymbolTable
 70
     3
  0
STYLE
  5
17
100
AcDbSymbolTableRecord
100
AcDbTextStyleTableRecord
  2
STANDARD
 70
     0
 40
0.0
 41
1.0
 50
0.0
 71
     0
 42
0.0
  3
monotxt
  4
extfont
  0
STYLE
  5
23
100
AcDbSymbolTableRecord
100
AcDbTextStyleTableRecord
  2
EXCADSTD
 70
    64
 40
0.0
 41
1.0
 50
0.0
 71
     0
 42
0.2
  3
monotxt
  4
extfont
  0
STYLE
  5
24
100
AcDbSymbolTableRecord
100
AcDbTextStyleTableRecord
  2
EXCADVERT
 70
    68
 40
0.0
 41
1.0
 50
0.0
 71
     0
 42
0.286885
  3
monotxt
  4
extfont
  0
ENDTAB
  0
TABLE
  2
VIEW
  5
5
100
AcDbSymbolTable
 70
     0
  0
ENDTAB
  0
TABLE
  2
UCS
  5
6
100
AcDbSymbolTable
 70
     0
  0
ENDTAB
  0
TABLE
  2
APPID
  5
8
100
AcDbSymbolTable
 70
     1
  0
APPID
  5
16
100
AcDbSymbolTableRecord
100
AcDbRegAppTableRecord
  2
ACAD
 70
     0
  0
ENDTAB
  0
TABLE
  2
DIMSTYLE
  5
9
100
AcDbSymbolTable
 70
     1
  0
DIMSTYLE
105
18
100
AcDbSymbolTableRecord
100
AcDbDimStyleTableRecord
  2
STANDARD
 70
     0
  3

  4

  5

  6

  7

 40
1.0
 41
0.18
 42
0.0625
 43
0.38
 44
0.18
 45
0.0
 46
0.0
 47
0.0
 48
0.0
 71
     0
 72
     0
 73
     1
 74
     1
 75
     0
 76
     0
 77
     0
 78
     0
140
0.18
141
0.09
142
0.0
143
25.4
144
1.0
145
0.0
146
1.0
147
0.09
170
     0
171
     2
172
     1
173
     0
174
     0
175
     0
176
     0
177
     0
178
     0
270
     2
271
     4
272
     4
273
     2
274
     2
275
     0
280
     0
281
     0
282
     0
283
     1
284
     0
285
     0
286
     0
287
     3
288
     0
340
17
  0
ENDTAB
  0
TABLE
  2
BLOCK_RECORD
  5
1
100
AcDbSymbolTable
 70
    15
  0
BLOCK_RECORD
  5
A
100
AcDbSymbolTableRecord
100
AcDbBlockTableRecord
  2
*MODEL_SPACE
  0
BLOCK_RECORD
  5
B
100
AcDbSymbolTableRecord
100
AcDbBlockTableRecord
  2
*PAPER_SPACE
  0
BLOCK_RECORD
  5
28
100
AcDbSymbolTableRecord
100
AcDbBlockTableRecord
  2
_EX_NORM
  0
BLOCK_RECORD
  5
29
100
AcDbSymbolTableRecord
100
AcDbBlockTableRecord
  2
_EX_BNORM
  0
BLOCK_RECORD
  5
2A
100
AcDbSymbolTableRecord
100
AcDbBlockTableRecord
  2
_EX_BCIR
  0
BLOCK_RECORD
  5
2B
100
AcDbSymbolTableRecord
100
AcDbBlockTableRecord
  2
_EX_RCIVIL
  0
BLOCK_RECORD
  5
2C
100
AcDbSymbolTableRecord
100
AcDbBlockTableRecord
  2
_EX_SLANT
  0
BLOCK_RECORD
  5
2D
100
AcDbSymbolTableRecord
100
AcDbBlockTableRecord
  2
_EX_NONE
  0
BLOCK_RECORD
  5
2E
100
AcDbSymbolTableRecord
100
AcDbBlockTableRecord
  2
_EX_CIVIL
  0
BLOCK_RECORD
  5
2F
100
AcDbSymbolTableRecord
100
AcDbBlockTableRecord
  2
_EX_WCIR
  0
BLOCK_RECORD
  5
30
100
AcDbSymbolTableRecord
100
AcDbBlockTableRecord
  2
_EX_WCIR2
  0
BLOCK_RECORD
  5
31
100
AcDbSymbolTableRecord
100
AcDbBlockTableRecord
  2
_EX_WNORM
  0
BLOCK_RECORD
  5
32
100
AcDbSymbolTableRecord
100
AcDbBlockTableRecord
  2
_EX_NNORM
  0
BLOCK_RECORD
  5
33
100
AcDbSymbolTableRecord
100
AcDbBlockTableRecord
  2
_EX_BBOX
  0
BLOCK_RECORD
  5
34
100
AcDbSymbolTableRecord
100
AcDbBlockTableRecord
  2
_EX_WBOX
  0
BLOCK_RECORD
  5
35
100
AcDbSymbolTableRecord
100
AcDbBlockTableRecord
  2
_EX_INTEGRAL
  0
BLOCK_RECORD
  5
36
100
AcDbSymbolTableRecord
100
AcDbBlockTableRecord
  2
SYM-1
  0
ENDTAB
  0
ENDSEC
  0
SECTION
  2
BLOCKS
  0
BLOCK
  5
D
100
AcDbEntity
  8
0
100
AcDbBlockBegin
  2
*MODEL_SPACE
 70
     0
 10
0.0
 20
0.0
 30
0.0
  3
*MODEL_SPACE
  1

  0
ENDBLK
  5
E
100
AcDbEntity
  8
0
100
AcDbBlockEnd
  0
BLOCK
  5
F
100
AcDbEntity
 67
     1
  8
0
100
AcDbBlockBegin
  2
*PAPER_SPACE
 70
     0
 10
0.0
 20
0.0
 30
0.0
  3
*PAPER_SPACE
  1

  0
ENDBLK
  5
10
100
AcDbEntity
 67
     1
  8
0
100
AcDbBlockEnd
  0
BLOCK
  5
37
100
AcDbEntity
  8
0
100
AcDbBlockBegin
  2
_EX_NORM
 70
     0
 10
0.0
 20
0.0
 30
0.0
  3
_EX_NORM
  1

  0
LINE
  5
38
100
AcDbEntity
  8
0
  6
CONTINUOUS
 62
     0
100
AcDbLine
 10
0.0
 20
0.0
 30
0.0
 11
-1.0
 21
0.0
 31
0.0
  0
LINE
  5
39
100
AcDbEntity
  8
0
  6
CONTINUOUS
 62
     0
100
AcDbLine
 10
0.0
 20
0.0
 30
0.0
 11
-1.0
 21
0.166667
 31
0.0
  0
LINE
  5
3A
100
AcDbEntity
  8
0
  6
CONTINUOUS
 62
     0
100
AcDbLine
 10
0.0
 20
0.0
 30
0.0
 11
-1.0
 21
-0.166667
 31
0.0
  0
ENDBLK
  5
3B
100
AcDbEntity
  8
0
100
AcDbBlockEnd
  0
BLOCK
  5
3C
100
AcDbEntity
  8
0
100
AcDbBlockBegin
  2
_EX_BNORM
 70
     0
 10
0.0
 20
0.0
 30
0.0
  3
_EX_BNORM
  1

  0
LINE
  5
3D
100
AcDbEntity
  8
0
  6
CONTINUOUS
 62
     0
100
AcDbLine
 10
0.0
 20
0.0
 30
0.0
 11
-1.0
 21
0.0
 31
0.0
  0
LINE
  5
3E
100
AcDbEntity
  8
0
  6
CONTINUOUS
 62
     0
100
AcDbLine
 10
0.0
 20
0.0
 30
0.0
 11
-1.0
 21
0.166667
 31
0.0
  0
LINE
  5
3F
100
AcDbEntity
  8
0
  6
CONTINUOUS
 62
     0
100
AcDbLine
 10
0.0
 20
0.0
 30
0.0
 11
-1.0
 21
-0.166667
 31
0.0
  0
LINE
  5
40
100
AcDbEntity
  8
0
  6
CONTINUOUS
 62
     0
100
AcDbLine
 10
0.0
 20
0.0
 30
0.0
 11
-1.0
 21
0.083333
 31
0.0
  0
LINE
  5
41
100
AcDbEntity
  8
0
  6
CONTINUOUS
 62
     0
100
AcDbLine
 10
0.0
 20
0.0
 30
0.0
 11
-1.0
 21
-0.083333
 31
0.0
  0
LINE
  5
42
100
AcDbEntity
  8
0
  6
CONTINUOUS
 62
     0
100
AcDbLine
 10
-1.0
 20
0.166667
 30
0.0
 11
-1.0
 21
-0.166667
 31
0.0
  0
ENDBLK
  5
43
100
AcDbEntity
  8
0
100
AcDbBlockEnd
  0
BLOCK
  5
44
100
AcDbEntity
  8
0
100
AcDbBlockBegin
  2
_EX_BCIR
 70
     0
 10
0.0
 20
0.0
 30
0.0
  3
_EX_BCIR
  1

  0
LINE
  5
45
100
AcDbEntity
  8
0
  6
CONTINUOUS
 62
     0
100
AcDbLine
 10
0.0
 20
0.0
 30
0.0
 11
-1.0
 21
0.0
 31
0.0
  0
CIRCLE
  5
46
100
AcDbEntity
  8
0
  6
CONTINUOUS
 62
     0
100
AcDbCircle
 10
0.0
 20
0.0
 30
0.0
 40
0.5
  0
CIRCLE
  5
47
100
AcDbEntity
  8
0
  6
CONTINUOUS
 62
     0
100
AcDbCircle
 10
0.0
 20
0.0
 30
0.0
 40
0.25
  0
ENDBLK
  5
48
100
AcDbEntity
  8
0
100
AcDbBlockEnd
  0
BLOCK
  5
49
100
AcDbEntity
  8
0
100
AcDbBlockBegin
  2
_EX_RCIVIL
 70
     0
 10
0.0
 20
0.0
 30
0.0
  3
_EX_RCIVIL
  1

  0
LINE
  5
4A
100
AcDbEntity
  8
0
  6
CONTINUOUS
 62
     0
100
AcDbLine
 10
0.0
 20
0.0
 30
0.0
 11
-1.0
 21
0.0
 31
0.0
  0
LINE
  5
4B
100
AcDbEntity
  8
0
  6
CONTINUOUS
 62
     0
100
AcDbLine
 10
-1.0
 20
-0.25
 30
0.0
 11
0.0
 21
-0.25
 31
0.0
  0
LINE
  5
4C
100
AcDbEntity
  8
0
  6
CONTINUOUS
 62
     0
100
AcDbLine
 10
-1.0
 20
-0.125
 30
0.0
 11
0.0
 21
-0.125
 31
0.0
  0
ENDBLK
  5
4D
100
AcDbEntity
  8
0
100
AcDbBlockEnd
  0
BLOCK
  5
4E
100
AcDbEntity
  8
0
100
AcDbBlockBegin
  2
_EX_SLANT
 70
     0
 10
0.0
 20
0.0
 30
0.0
  3
_EX_SLANT
  1

  0
LINE
  5
4F
100
AcDbEntity
  8
0
  6
CONTINUOUS
 62
     0
100
AcDbLine
 10
0.0
 20
0.0
 30
0.0
 11
-1.0
 21
0.0
 31
0.0
  0
LINE
  5
50
100
AcDbEntity
  8
0
  6
CONTINUOUS
 62
     0
100
AcDbLine
 10
0.707107
 20
0.707107
 30
0.0
 11
-0.707107
 21
-0.707107
 31
0.0
  0
ENDBLK
  5
51
100
AcDbEntity
  8
0
100
AcDbBlockEnd
  0
BLOCK
  5
52
100
AcDbEntity
  8
0
100
AcDbBlockBegin
  2
_EX_NONE
 70
     0
 10
0.0
 20
0.0
 30
0.0
  3
_EX_NONE
  1

  0
LINE
  5
53
100
AcDbEntity
  8
0
  6
CONTINUOUS
 62
     0
100
AcDbLine
 10
0.0
 20
0.0
 30
0.0
 11
-1.0
 21
0.0
 31
0.0
  0
ENDBLK
  5
54
100
AcDbEntity
  8
0
100
AcDbBlockEnd
  0
BLOCK
  5
55
100
AcDbEntity
  8
0
100
AcDbBlockBegin
  2
_EX_CIVIL
 70
     0
 10
0.0
 20
0.0
 30
0.0
  3
_EX_CIVIL
  1

  0
LINE
  5
56
100
AcDbEntity
  8
0
  6
CONTINUOUS
 62
     0
100
AcDbLine
 10
0.0
 20
0.0
 30
0.0
 11
-1.0
 21
0.0
 31
0.0
  0
LINE
  5
57
100
AcDbEntity
  8
0
  6
CONTINUOUS
 62
     0
100
AcDbLine
 10
-1.0
 20
0.25
 30
0.0
 11
0.0
 21
0.25
 31
0.0
  0
LINE
  5
58
100
AcDbEntity
  8
0
  6
CONTINUOUS
 62
     0
100
AcDbLine
 10
-1.0
 20
0.125
 30
0.0
 11
0.0
 21
0.125
 31
0.0
  0
ENDBLK
  5
59
100
AcDbEntity
  8
0
100
AcDbBlockEnd
  0
BLOCK
  5
5A
100
AcDbEntity
  8
0
100
AcDbBlockBegin
  2
_EX_WCIR
 70
     0
 10
0.0
 20
0.0
 30
0.0
  3
_EX_WCIR
  1

  0
LINE
  5
5B
100
AcDbEntity
  8
0
  6
CONTINUOUS
 62
     0
100
AcDbLine
 10
0.0
 20
0.0
 30
0.0
 11
-1.0
 21
0.0
 31
0.0
  0
CIRCLE
  5
5C
100
AcDbEntity
  8
0
  6
CONTINUOUS
 62
     0
100
AcDbCircle
 10
0.0
 20
0.0
 30
0.0
 40
0.5
  0
ENDBLK
  5
5D
100
AcDbEntity
  8
0
100
AcDbBlockEnd
  0
BLOCK
  5
5E
100
AcDbEntity
  8
0
100
AcDbBlockBegin
  2
_EX_WCIR2
 70
     0
 10
0.0
 20
0.0
 30
0.0
  3
_EX_WCIR2
  1

  0
LINE
  5
5F
100
AcDbEntity
  8
0
  6
CONTINUOUS
 62
     0
100
AcDbLine
 10
-0.5
 20
0.0
 30
0.0
 11
-1.0
 21
0.0
 31
0.0
  0
CIRCLE
  5
60
100
AcDbEntity
  8
0
  6
CONTINUOUS
 62
     0
100
AcDbCircle
 10
0.0
 20
0.0
 30
0.0
 40
0.5
  0
ENDBLK
  5
61
100
AcDbEntity
  8
0
100
AcDbBlockEnd
  0
BLOCK
  5
62
100
AcDbEntity
  8
0
100
AcDbBlockBegin
  2
_EX_WNORM
 70
     0
 10
0.0
 20
0.0
 30
0.0
  3
_EX_WNORM
  1

  0
LINE
  5
63
100
AcDbEntity
  8
0
  6
CONTINUOUS
 62
     0
100
AcDbLine
 10
-1.0
 20
0.0
 30
0.0
 11
-1.0
 21
0.0
 31
0.0
  0
LINE
  5
64
100
AcDbEntity
  8
0
  6
CONTINUOUS
 62
     0
100
AcDbLine
 10
0.0
 20
0.0
 30
0.0
 11
-1.0
 21
0.166667
 31
0.0
  0
LINE
  5
65
100
AcDbEntity
  8
0
  6
CONTINUOUS
 62
     0
100
AcDbLine
 10
0.0
 20
0.0
 30
0.0
 11
-1.0
 21
-0.166667
 31
0.0
  0
LINE
  5
66
100
AcDbEntity
  8
0
  6
CONTINUOUS
 62
     0
100
AcDbLine
 10
-1.0
 20
0.166667
 30
0.0
 11
-1.0
 21
-0.166667
 31
0.0
  0
ENDBLK
  5
67
100
AcDbEntity
  8
0
100
AcDbBlockEnd
  0
BLOCK
  5
68
100
AcDbEntity
  8
0
100
AcDbBlockBegin
  2
_EX_NNORM
 70
     0
 10
0.0
 20
0.0
 30
0.0
  3
_EX_NNORM
  1

  0
LINE
  5
69
100
AcDbEntity
  8
0
  6
CONTINUOUS
 62
     0
100
AcDbLine
 10
0.0
 20
0.0
 30
0.0
 11
-1.0
 21
0.0
 31
0.0
  0
LINE
  5
6A
100
AcDbEntity
  8
0
  6
CONTINUOUS
 62
     0
100
AcDbLine
 10
0.0
 20
0.0
 30
0.0
 11
-1.0
 21
0.166667
 31
0.0
  0
LINE
  5
6B
100
AcDbEntity
  8
0
  6
CONTINUOUS
 62
     0
100
AcDbLine
 10
0.0
 20
0.0
 30
0.0
 11
-1.0
 21
-0.166667
 31
0.0
  0
LINE
  5
6C
100
AcDbEntity
  8
0
  6
CONTINUOUS
 62
     0
100
AcDbLine
 10
-1.0
 20
0.166667
 30
0.0
 11
-1.0
 21
-0.166667
 31
0.0
  0
ENDBLK
  5
6D
100
AcDbEntity
  8
0
100
AcDbBlockEnd
  0
BLOCK
  5
6E
100
AcDbEntity
  8
0
100
AcDbBlockBegin
  2
_EX_BBOX
 70
     0
 10
0.0
 20
0.0
 30
0.0
  3
_EX_BBOX
  1

  0
LINE
  5
6F
100
AcDbEntity
  8
0
  6
CONTINUOUS
 62
     0
100
AcDbLine
 10
0.0
 20
0.0
 30
0.0
 11
-1.0
 21
0.0
 31
0.0
  0
LINE
  5
70
100
AcDbEntity
  8
0
  6
CONTINUOUS
 62
     0
100
AcDbLine
 10
-0.5
 20
0.5
 30
0.0
 11
0.5
 21
0.5
 31
0.0
  0
LINE
  5
71
100
AcDbEntity
  8
0
  6
CONTINUOUS
 62
     0
100
AcDbLine
 10
0.5
 20
0.5
 30
0.0
 11
0.5
 21
-0.5
 31
0.0
  0
LINE
  5
72
100
AcDbEntity
  8
0
  6
CONTINUOUS
 62
     0
100
AcDbLine
 10
0.5
 20
-0.5
 30
0.0
 11
-0.5
 21
-0.5
 31
0.0
  0
LINE
  5
73
100
AcDbEntity
  8
0
  6
CONTINUOUS
 62
     0
100
AcDbLine
 10
-0.5
 20
-0.5
 30
0.0
 11
-0.5
 21
0.5
 31
0.0
  0
LINE
  5
74
100
AcDbEntity
  8
0
  6
CONTINUOUS
 62
     0
100
AcDbLine
 10
-0.25
 20
0.25
 30
0.0
 11
0.25
 21
0.25
 31
0.0
  0
LINE
  5
75
100
AcDbEntity
  8
0
  6
CONTINUOUS
 62
     0
100
AcDbLine
 10
0.25
 20
0.25
 30
0.0
 11
0.25
 21
-0.25
 31
0.0
  0
LINE
  5
76
100
AcDbEntity
  8
0
  6
CONTINUOUS
 62
     0
100
AcDbLine
 10
0.25
 20
-0.25
 30
0.0
 11
-0.25
 21
-0.25
 31
0.0
  0
LINE
  5
77
100
AcDbEntity
  8
0
  6
CONTINUOUS
 62
     0
100
AcDbLine
 10
-0.25
 20
-0.25
 30
0.0
 11
-0.25
 21
0.25
 31
0.0
  0
ENDBLK
  5
78
100
AcDbEntity
  8
0
100
AcDbBlockEnd
  0
BLOCK
  5
79
100
AcDbEntity
  8
0
100
AcDbBlockBegin
  2
_EX_WBOX
 70
     0
 10
0.0
 20
0.0
 30
0.0
  3
_EX_WBOX
  1

  0
LINE
  5
7A
100
AcDbEntity
  8
0
  6
CONTINUOUS
 62
     0
100
AcDbLine
 10
-0.5
 20
0.0
 30
0.0
 11
-1.0
 21
0.0
 31
0.0
  0
LINE
  5
7B
100
AcDbEntity
  8
0
  6
CONTINUOUS
 62
     0
100
AcDbLine
 10
-0.5
 20
0.5
 30
0.0
 11
0.5
 21
0.5
 31
0.0
  0
LINE
  5
7C
100
AcDbEntity
  8
0
  6
CONTINUOUS
 62
     0
100
AcDbLine
 10
0.5
 20
0.5
 30
0.0
 11
0.5
 21
-0.5
 31
0.0
  0
LINE
  5
7D
100
AcDbEntity
  8
0
  6
CONTINUOUS
 62
     0
100
AcDbLine
 10
0.5
 20
-0.5
 30
0.0
 11
-0.5
 21
-0.5
 31
0.0
  0
LINE
  5
7E
100
AcDbEntity
  8
0
  6
CONTINUOUS
 62
     0
100
AcDbLine
 10
-0.5
 20
-0.5
 30
0.0
 11
-0.5
 21
0.5
 31
0.0
  0
ENDBLK
  5
7F
100
AcDbEntity
  8
0
100
AcDbBlockEnd
  0
BLOCK
  5
80
100
AcDbEntity
  8
0
100
AcDbBlockBegin
  2
_EX_INTEGRAL
 70
     0
 10
0.0
 20
0.0
 30
0.0
  3
_EX_INTEGRAL
  1

  0
LINE
  5
81
100
AcDbEntity
  8
0
  6
CONTINUOUS
 62
     0
100
AcDbLine
 10
0.0
 20
0.0
 30
0.0
 11
-1.0
 21
0.0
 31
0.0
  0
ARC
  5
82
100
AcDbEntity
  8
0
  6
CONTINUOUS
 62
     0
100
AcDbCircle
 10
0.542115
 20
0.164992
 30
0.0
 40
0.56667
100
AcDbArc
 50
73.07249
 51
196.927513
  0
ARC
  5
83
100
AcDbEntity
  8
0
  6
CONTINUOUS
 62
     0
100
AcDbCircle
 10
-0.542115
 20
-0.164992
 30
0.0
 40
0.56667
100
AcDbArc
 50
253.072487
 51
16.927513
  0
ENDBLK
  5
84
100
AcDbEntity
  8
0
100
AcDbBlockEnd
  0
BLOCK
  5
85
100
AcDbEntity
  8
0
100
AcDbBlockBegin
  2
SYM-1
 70
     0
 10
0.0
 20
0.0
 30
0.0
  3
SYM-1
  1

  0
LINE
  5
86
100
AcDbEntity
  8
0
  6
CONTINUOUS
 62
     2
100
AcDbLine
 10
-5.85
 20
2.15
 30
0.0
 11
-5.85
 21
5.85
 31
0.0
  0
LINE
  5
87
100
AcDbEntity
  8
0
  6
CONTINUOUS
 62
     2
100
AcDbLine
 10
-5.85
 20
5.85
 30
0.0
 11
0.0
 21
0.0
 31
0.0
  0
LINE
  5
88
100
AcDbEntity
  8
0
  6
CONTINUOUS
 62
     2
100
AcDbLine
 10
-5.85
 20
-2.15
 30
0.0
 11
-5.85
 21
-5.85
 31
0.0
  0
LINE
  5
89
100
AcDbEntity
  8
0
  6
CONTINUOUS
 62
     2
100
AcDbLine
 10
-5.85
 20
-5.85
 30
0.0
 11
0.0
 21
0.0
 31
0.0
  0
LINE
  5
8A
100
AcDbEntity
  8
0
  6
CONTINUOUS
 62
     2
100
AcDbLine
 10
-19.85
 20
2.15
 30
0.0
 11
-5.85
 21
2.15
 31
0.0
  0
LINE
  5
8B
100
AcDbEntity
  8
0
  6
CONTINUOUS
 62
     2
100
AcDbLine
 10
-19.85
 20
-2.15
 30
0.0
 11
-5.85
 21
-2.15
 31
0.0
  0
LINE
  5
8C
100
AcDbEntity
  8
0
  6
CONTINUOUS
 62
     2
100
AcDbLine
 10
-19.85
 20
2.15
 30
0.0
 11
-19.85
 21
-2.15
 31
0.0
  0
ENDBLK
  5
8D
100
AcDbEntity
  8
0
100
AcDbBlockEnd
  0
ENDSEC
  0
SECTION
  2
ENTITIES
  0
LINE
  5
8E
100
AcDbEntity
  8
LAY-1
  6
EXLTYPE3
 62
     1
100
AcDbLine
 10
4161.5
 20
3021.5
 30
0.0
 11
3471.5
 21
3021.5
 31
0.0
  0
LINE
  5
8F
100
AcDbEntity
  8
LAY-1
  6
EXLTYPE3
 62
     1
100
AcDbLine
 10
3806.5
 20
3326.5
 30
0.0
 11
3806.5
 21
2711.5
 31
0.0
  0
LINE
  5
90
100
AcDbEntity
  8
LAY-1
  6
EXLTYPE3
 62
     1
100
AcDbLine
 10
3806.5
 20
2180.0
 30
0.0
 11
3806.5
 21
1150.0
 31
0.0
  0
LINE
  5
91
100
AcDbEntity
  8
LAY-1
  6
EXLTYPE3
 62
     1
100
AcDbLine
 10
3521.5
 20
1214.5
 30
0.0
 11
3521.5
 21
1190.0
 31
0.0
  0
LINE
  5
92
100
AcDbEntity
  8
LAY-1
  6
EXLTYPE3
 62
     1
100
AcDbLine
 10
4091.5
 20
1214.5
 30
0.0
 11
4091.5
 21
1190.0
 31
0.0
  0
LINE
  5
93
100
AcDbEntity
  8
LAY-1
  6
EXLTYPE3
 62
     1
100
AcDbLine
 10
5045.5
 20
1214.5
 30
0.0
 11
5045.5
 21
1190.0
 31
0.0
  0
LINE
  5
94
100
AcDbEntity
  8
LAY-1
  6
EXLTYPE3
 62
     1
100
AcDbLine
 10
4715.5
 20
1214.5
 30
0.0
 11
4715.5
 21
1190.0
 31
0.0
  0
LINE
  5
95
100
AcDbEntity
  8
LAY-1
  6
EXLTYPE3
 62
     1
100
AcDbLine
 10
4880.5
 20
2180.0
 30
0.0
 11
4880.5
 21
1150.0
 31
0.0
  0
LINE
  5
96
100
AcDbEntity
  8
LAY-1
  6
EXLTYPE3
 62
     1
100
AcDbLine
 10
2567.5
 20
1214.5
 30
0.0
 11
2567.5
 21
1190.0
 31
0.0
  0
LINE
  5
97
100
AcDbEntity
  8
LAY-1
  6
EXLTYPE3
 62
     1
100
AcDbLine
 10
2897.5
 20
1214.5
 30
0.0
 11
2897.5
 21
1190.0
 31
0.0
  0
LINE
  5
98
100
AcDbEntity
  8
LAY-1
  6
EXLTYPE3
 62
     1
100
AcDbLine
 10
2732.5
 20
2180.0
 30
0.0
 11
2732.5
 21
1150.0
 31
0.0
  0
LINE
  5
99
100
AcDbEntity
  8
LAY-1
  6
CONTINUOUS
 62
     1
100
AcDbLine
 10
2439.65
 20
2038.62
 30
0.0
 11
2439.65
 21
2034.453105
 31
0.0
  0
LINE
  5
9A
100
AcDbEntity
  8
LAY-1
  6
CONTINUOUS
 62
     1
100
AcDbLine
 10
2441.15
 20
2040.62
 30
0.0
 11
2439.65
 21
2038.62
 31
0.0
  0
LINE
  5
9B
100
AcDbEntity
  8
LAY-1
  6
CONTINUOUS
 62
     1
100
AcDbLine
 10
2425.35
 20
2038.62
 30
0.0
 11
2425.35
 21
2034.453105
 31
0.0
  0
LINE
  5
9C
100
AcDbEntity
  8
LAY-1
  6
CONTINUOUS
 62
     1
100
AcDbLine
 10
2423.85
 20
2040.62
 30
0.0
 11
2425.35
 21
2038.62
 31
0.0
  0
LINE
  5
9D
100
AcDbEntity
  8
LAY-1
  6
CONTINUOUS
 62
     1
100
AcDbLine
 10
5173.35
 20
2038.62
 30
0.0
 11
5173.35
 21
2030.12
 31
0.0
  0
LINE
  5
9E
100
AcDbEntity
  8
LAY-1
  6
CONTINUOUS
 62
     1
100
AcDbLine
 10
5187.65
 20
2038.62
 30
0.0
 11
5187.65
 21
2030.12
 31
0.0
  0
LINE
  5
9F
100
AcDbEntity
  8
LAY-1
  6
CONTINUOUS
 62
     1
100
AcDbLine
 10
5189.15
 20
2040.62
 30
0.0
 11
5187.65
 21
2038.62
 31
0.0
  0
LINE
  5
A0
100
AcDbEntity
  8
LAY-1
  6
CONTINUOUS
 62
     1
100
AcDbLine
 10
5171.85
 20
2040.62
 30
0.0
 11
5173.35
 21
2038.62
 31
0.0
  0
CIRCLE
  5
A1
100
AcDbEntity
  8
LAY-1
  6
CONTINUOUS
 62
     2
100
AcDbCircle
 10
3521.5
 20
2856.5
 30
0.0
 40
7.5
  0
CIRCLE
  5
A2
100
AcDbEntity
  8
LAY-1
  6
CONTINUOUS
 62
     2
100
AcDbCircle
 10
4091.5
 20
2856.5
 30
0.0
 40
7.5
  0
LINE
  5
A3
100
AcDbEntity
  8
LAY-1
  6
CONTINUOUS
 62
     2
100
AcDbLine
 10
3937.9
 20
3395.5
 30
0.0
 11
3937.9
 21
3275.5
 31
0.0
  0
LINE
  5
A4
100
AcDbEntity
  8
LAY-1
  6
CONTINUOUS
 62
     2
100
AcDbLine
 10
3965.1
 20
3395.5
 30
0.0
 11
3965.1
 21
3275.5
 31
0.0
  0
LINE
  5
A5
100
AcDbEntity
  8
LAY-1
  6
CONTINUOUS
 62
     2
100
AcDbLine
 10
4035.5
 20
2767.5
 30
0.0
 11
3577.5
 21
2767.5
 31
0.0
  0
LINE
  5
A6
100
AcDbEntity
  8
LAY-1
  6
CONTINUOUS
 62
     2
100
AcDbLine
 10
3796.0
 20
2761.5
 30
0.0
 11
3521.5
 21
2761.5
 31
0.0
  0
LINE
  5
A7
100
AcDbEntity
  8
LAY-1
  6
CONTINUOUS
 62
     2
100
AcDbLine
 10
3937.9
 20
3281.5
 30
0.0
 11
3678.5
 21
3281.5
 31
0.0
  0
LINE
  5
A8
100
AcDbEntity
  8
LAY-1
  6
CONTINUOUS
 62
     2
100
AcDbLine
 10
3644.5
 20
3281.5
 30
0.0
 11
3521.5
 21
3281.5
 31
0.0
  0
LINE
  5
A9
100
AcDbEntity
  8
LAY-1
  6
CONTINUOUS
 62
     2
100
AcDbLine
 10
3557.5
 20
3057.791901
 30
0.0
 11
3557.5
 21
2787.5
 31
0.0
  0
LINE
  5
AA
100
AcDbEntity
  8
LAY-1
  6
CONTINUOUS
 62
     2
100
AcDbLine
 10
4055.5
 20
3057.791901
 30
0.0
 11
4055.5
 21
2787.5
 31
0.0
  0
LINE
  5
AB
100
AcDbEntity
  8
LAY-1
  6
CONTINUOUS
 62
     2
100
AcDbLine
 10
3925.5
 20
3179.5
 30
0.0
 11
3925.5
 21
3161.5
 31
0.0
  0
LINE
  5
AC
100
AcDbEntity
  8
LAY-1
  6
CONTINUOUS
 62
     2
100
AcDbLine
 10
3975.5
 20
3179.5
 30
0.0
 11
3975.5
 21
3161.5
 31
0.0
  0
LINE
  5
AD
100
AcDbEntity
  8
LAY-1
  6
CONTINUOUS
 62
     2
100
AcDbLine
 10
3935.5
 20
3179.5
 30
0.0
 11
3935.5
 21
3161.5
 31
0.0
  0
LINE
  5
AE
100
AcDbEntity
  8
LAY-1
  6
CONTINUOUS
 62
     2
100
AcDbLine
 10
3965.5
 20
3179.5
 30
0.0
 11
3965.5
 21
3161.5
 31
0.0
  0
LINE
  5
AF
100
AcDbEntity
  8
LAY-1
  6
CONTINUOUS
 62
     2
100
AcDbLine
 10
3975.5
 20
3179.5
 30
0.0
 11
3925.5
 21
3179.5
 31
0.0
  0
LINE
  5
B0
100
AcDbEntity
  8
LAY-1
  6
CONTINUOUS
 62
     2
100
AcDbLine
 10
3975.5
 20
3161.5
 30
0.0
 11
3925.5
 21
3161.5
 31
0.0
  0
CIRCLE
  5
B1
100
AcDbEntity
  8
LAY-1
  6
CONTINUOUS
 62
     2
100
AcDbCircle
 10
3950.5
 20
3170.5
 30
0.0
 40
70.0
  0
ARC
  5
B2
100
AcDbEntity
  8
LAY-1
  6
CONTINUOUS
 62
     2
100
AcDbCircle
 10
3575.5
 20
3061.5
 30
0.0
 40
10.0
100
AcDbArc
 50
203.578178
 51
336.421822
  0
ARC
  5
B3
100
AcDbEntity
  8
LAY-1
  6
CONTINUOUS
 62
     2
100
AcDbCircle
 10
3575.5
 20
3061.5
 30
0.0
 40
10.0
100
AcDbArc
 50
23.578178
 51
156.421822
  0
ARC
  5
B4
100
AcDbEntity
  8
LAY-1
  6
CONTINUOUS
 62
     2
100
AcDbCircle
 10
3592.0
 20
3061.5
 30
0.0
 40
4.0
100
AcDbArc
 50
270.0
 51
90.0
  0
ARC
  5
B5
100
AcDbEntity
  8
LAY-1
  6
CONTINUOUS
 62
     2
100
AcDbCircle
 10
3559.0
 20
3061.5
 30
0.0
 40
4.0
100
AcDbArc
 50
90.0
 51
270.0
  0
LINE
  5
B6
100
AcDbEntity
  8
LAY-1
  6
CONTINUOUS
 62
     2
100
AcDbLine
 10
3559.0
 20
3057.5
 30
0.0
 11
3592.0
 21
3057.5
 31
0.0
  0
LINE
  5
B7
100
AcDbEntity
  8
LAY-1
  6
CONTINUOUS
 62
     2
100
AcDbLine
 10
3559.0
 20
3065.5
 30
0.0
 11
3592.0
 21
3065.5
 31
0.0
  0
ARC
  5
B8
100
AcDbEntity
  8
LAY-1
  6
CONTINUOUS
 62
     2
100
AcDbCircle
 10
4037.5
 20
3061.5
 30
0.0
 40
10.0
100
AcDbArc
 50
203.578178
 51
336.421822
  0
ARC
  5
B9
100
AcDbEntity
  8
LAY-1
  6
CONTINUOUS
 62
     2
100
AcDbCircle
 10
4037.5
 20
3061.5
 30
0.0
 40
10.0
100
AcDbArc
 50
23.578178
 51
156.421822
  0
ARC
  5
BA
100
AcDbEntity
  8
LAY-1
  6
CONTINUOUS
 62
     2
100
AcDbCircle
 10
4021.0
 20
3061.5
 30
0.0
 40
4.0
100
AcDbArc
 50
90.0
 51
270.0
  0
ARC
  5
BB
100
AcDbEntity
  8
LAY-1
  6
CONTINUOUS
 62
     2
100
AcDbCircle
 10
4054.0
 20
3061.5
 30
0.0
 40
4.0
100
AcDbArc
 50
270.0
 51
90.0
  0
LINE
  5
BC
100
AcDbEntity
  8
LAY-1
  6
CONTINUOUS
 62
     2
100
AcDbLine
 10
4054.0
 20
3065.5
 30
0.0
 11
4021.0
 21
3065.5
 31
0.0
  0
LINE
  5
BD
100
AcDbEntity
  8
LAY-1
  6
CONTINUOUS
 62
     2
100
AcDbLine
 10
4054.0
 20
3057.5
 30
0.0
 11
4021.0
 21
3057.5
 31
0.0
  0
ARC
  5
BE
100
AcDbEntity
  8
LAY-1
  6
CONTINUOUS
 62
     2
100
AcDbCircle
 10
3577.5
 20
2787.5
 30
0.0
 40
20.0
100
AcDbArc
 50
180.0
 51
270.0
  0
ARC
  5
BF
100
AcDbEntity
  8
LAY-1
  6
CONTINUOUS
 62
     2
100
AcDbCircle
 10
4035.5
 20
2787.5
 30
0.0
 40
20.0
100
AcDbArc
 50
270.0
 51
0.0
  0
ARC
  5
C0
100
AcDbEntity
  8
LAY-1
  6
CONTINUOUS
 62
     2
100
AcDbCircle
 10
4035.5
 20
3255.5
 30
0.0
 40
20.0
100
AcDbArc
 50
0.0
 51
90.0
  0
LINE
  5
C1
100
AcDbEntity
  8
LAY-1
  6
CONTINUOUS
 62
     2
100
AcDbLine
 10
4035.5
 20
3275.5
 30
0.0
 11
3577.5
 21
3275.5
 31
0.0
  0
LINE
  5
C2
100
AcDbEntity
  8
LAY-1
  6
CONTINUOUS
 62
     2
100
AcDbLine
 10
4015.5
 20
2767.5
 30
0.0
 11
3597.5
 21
2767.5
 31
0.0
  0
LINE
  5
C3
100
AcDbEntity
  8
LAY-1
  6
CONTINUOUS
 62
     2
100
AcDbLine
 10
3557.5
 20
3255.5
 30
0.0
 11
3557.5
 21
3065.208099
 31
0.0
  0
LINE
  5
C4
100
AcDbEntity
  8
LAY-1
  6
CONTINUOUS
 62
     2
100
AcDbLine
 10
4055.5
 20
3255.5
 30
0.0
 11
4055.5
 21
3065.208099
 31
0.0
  0
CIRCLE
  5
C5
100
AcDbEntity
  8
LAY-1
  6
CONTINUOUS
 62
     2
100
AcDbCircle
 10
4091.5
 20
3186.5
 30
0.0
 40
7.5
  0
ARC
  5
C6
100
AcDbEntity
  8
LAY-1
  6
CONTINUOUS
 62
     2
100
AcDbCircle
 10
3521.5
 20
3261.5
 30
0.0
 40
20.0
100
AcDbArc
 50
90.0
 51
180.0
  0
ARC
  5
C7
100
AcDbEntity
  8
LAY-1
  6
CONTINUOUS
 62
     2
100
AcDbCircle
 10
3521.5
 20
2781.5
 30
0.0
 40
20.0
100
AcDbArc
 50
180.0
 51
270.0
  0
ARC
  5
C8
100
AcDbEntity
  8
LAY-1
  6
CONTINUOUS
 62
     2
100
AcDbCircle
 10
4091.5
 20
2781.5
 30
0.0
 40
20.0
100
AcDbArc
 50
270.0
 51
0.0
  0
ARC
  5
C9
100
AcDbEntity
  8
LAY-1
  6
CONTINUOUS
 62
     2
100
AcDbCircle
 10
4091.5
 20
3261.5
 30
0.0
 40
20.0
100
AcDbArc
 50
0.0
 51
90.0
  0
LINE
  5
CA
100
AcDbEntity
  8
LAY-1
  6
CONTINUOUS
 62
     2
100
AcDbLine
 10
4111.5
 20
3261.5
 30
0.0
 11
4111.5
 21
2781.5
 31
0.0
  0
LINE
  5
CB
100
AcDbEntity
  8
LAY-1
  6
CONTINUOUS
 62
     2
100
AcDbLine
 10
4091.5
 20
2761.5
 30
0.0
 11
3817.0
 21
2761.5
 31
0.0
  0
LINE
  5
CC
100
AcDbEntity
  8
LAY-1
  6
CONTINUOUS
 62
     2
100
AcDbLine
 10
4091.5
 20
3281.5
 30
0.0
 11
3965.1
 21
3281.5
 31
0.0
  0
LINE
  5
CD
100
AcDbEntity
  8
LAY-1
  6
CONTINUOUS
 62
     2
100
AcDbLine
 10
3591.5
 20
1258.0
 30
0.0
 11
3591.5
 21
1204.5
 31
0.0
  0
LINE
  5
CE
100
AcDbEntity
  8
LAY-1
  6
CONTINUOUS
 62
     2
100
AcDbLine
 10
4043.757013
 20
2147.178734
 30
0.0
 11
4031.242987
 21
2147.178734
 31
0.0
  0
ARC
  5
CF
100
AcDbEntity
  8
LAY-1
  6
CONTINUOUS
 62
     2
100
AcDbCircle
 10
4037.5
 20
2158.0
 30
0.0
 40
12.5
100
AcDbArc
 50
300.037123
 51
239.962877
  0
ARC
  5
D0
100
AcDbEntity
  8
LAY-1
  6
CONTINUOUS
 62
     2
100
AcDbCircle
 10
4037.5
 20
2158.0
 30
0.0
 40
20.5
100
AcDbArc
 50
295.233094
 51
244.766906
  0
LINE
  5
D1
100
AcDbEntity
  8
LAY-1
  6
CONTINUOUS
 62
     2
100
AcDbLine
 10
4029.5
 20
2145.0
 30
0.0
 11
4045.5
 21
2145.0
 31
0.0
  0
LINE
  5
D2
100
AcDbEntity
  8
LAY-1
  6
CONTINUOUS
 62
     2
100
AcDbLine
 10
4045.5
 20
2145.0
 30
0.0
 11
4047.5
 21
2130.0
 31
0.0
  0
LINE
  5
D3
100
AcDbEntity
  8
LAY-1
  6
CONTINUOUS
 62
     2
100
AcDbLine
 10
4043.757013
 20
2147.178734
 30
0.0
 11
4045.5
 21
2145.0
 31
0.0
  0
LINE
  5
D4
100
AcDbEntity
  8
LAY-1
  6
CONTINUOUS
 62
     2
100
AcDbLine
 10
4029.5
 20
2145.0
 30
0.0
 11
4027.5
 21
2130.0
 31
0.0
  0
LINE
  5
D5
100
AcDbEntity
  8
LAY-1
  6
CONTINUOUS
 62
     2
100
AcDbLine
 10
4031.242987
 20
2147.178734
 30
0.0
 11
4029.5
 21
2145.0
 31
0.0
  0
LINE
  5
D6
100
AcDbEntity
  8
LAY-1
  6
CONTINUOUS
 62
     2
100
AcDbLine
 10
4021.5
 20
1258.0
 30
0.0
 11
4021.5
 21
1204.5
 31
0.0
  0
LINE
  5
D7
100
AcDbEntity
  8
LAY-1
  6
CONTINUOUS
 62
     2
100
AcDbLine
 10
4111.5
 20
1204.5
 30
0.0
 11
3501.5
 21
1204.5
 31
0.0
  0
LINE
  5
D8
100
AcDbEntity
  8
LAY-1
  6
CONTINUOUS
 62
     2
100
AcDbLine
 10
3501.5
 20
1204.5
 30
0.0
 11
3501.5
 21
1200.0
 31
0.0
  0
LINE
  5
D9
100
AcDbEntity
  8
LAY-1
  6
CONTINUOUS
 62
     2
100
AcDbLine
 10
4111.5
 20
1204.5
 30
0.0
 11
4111.5
 21
1200.0
 31
0.0
  0
LINE
  5
DA
100
AcDbEntity
  8
LAY-1
  6
CONTINUOUS
 62
     2
100
AcDbLine
 10
4111.5
 20
1200.0
 30
0.0
 11
3501.5
 21
1200.0
 31
0.0
  0
LINE
  5
DB
100
AcDbEntity
  8
LAY-1
  6
CONTINUOUS
 62
     2
100
AcDbLine
 10
3561.5
 20
1830.0
 30
0.0
 11
3561.5
 21
1258.0
 31
0.0
  0
LINE
  5
DC
100
AcDbEntity
  8
LAY-1
  6
CONTINUOUS
 62
     2
100
AcDbLine
 10
4051.5
 20
1830.0
 30
0.0
 11
4051.5
 21
1258.0
 31
0.0
  0
LINE
  5
DD
100
AcDbEntity
  8
LAY-1
  6
CONTINUOUS
 62
     2
100
AcDbLine
 10
4055.5
 20
1830.0
 30
0.0
 11
3557.5
 21
1830.0
 31
0.0
  0
LINE
  5
DE
100
AcDbEntity
  8
LAY-1
  6
CONTINUOUS
 62
     2
100
AcDbLine
 10
3557.5
 20
2130.0
 30
0.0
 11
3557.5
 21
1830.0
 31
0.0
  0
LINE
  5
DF
100
AcDbEntity
  8
LAY-1
  6
CONTINUOUS
 62
     2
100
AcDbLine
 10
4055.5
 20
2130.0
 30
0.0
 11
4055.5
 21
1830.0
 31
0.0
  0
LINE
  5
E0
100
AcDbEntity
  8
LAY-1
  6
CONTINUOUS
 62
     2
100
AcDbLine
 10
4055.5
 20
2130.0
 30
0.0
 11
3557.5
 21
2130.0
 31
0.0
  0
LINE
  5
E1
100
AcDbEntity
  8
LAY-1
  6
CONTINUOUS
 62
     2
100
AcDbLine
 10
5130.5
 20
1258.0
 30
0.0
 11
4630.5
 21
1258.0
 31
0.0
  0
LINE
  5
E2
100
AcDbEntity
  8
LAY-1
  6
CONTINUOUS
 62
     2
100
AcDbLine
 10
5134.5
 20
1830.0
 30
0.0
 11
4626.5
 21
1830.0
 31
0.0
  0
LINE
  5
E3
100
AcDbEntity
  8
LAY-1
  6
CONTINUOUS
 62
     2
100
AcDbLine
 10
4630.5
 20
1830.0
 30
0.0
 11
4630.5
 21
1258.0
 31
0.0
  0
LINE
  5
E4
100
AcDbEntity
  8
LAY-1
  6
CONTINUOUS
 62
     2
100
AcDbLine
 10
5100.5
 20
1258.0
 30
0.0
 11
5100.5
 21
1204.5
 31
0.0
  0
LINE
  5
E5
100
AcDbEntity
  8
LAY-1
  6
CONTINUOUS
 62
     2
100
AcDbLine
 10
4660.5
 20
1258.0
 30
0.0
 11
4660.5
 21
1204.5
 31
0.0
  0
LINE
  5
E6
100
AcDbEntity
  8
LAY-1
  6
CONTINUOUS
 62
     2
100
AcDbLine
 10
5140.5
 20
1204.5
 30
0.0
 11
4620.5
 21
1204.5
 31
0.0
  0
LINE
  5
E7
100
AcDbEntity
  8
LAY-1
  6
CONTINUOUS
 62
     2
100
AcDbLine
 10
5140.5
 20
1204.5
 30
0.0
 11
5140.5
 21
1200.0
 31
0.0
  0
LINE
  5
E8
100
AcDbEntity
  8
LAY-1
  6
CONTINUOUS
 62
     2
100
AcDbLine
 10
4620.5
 20
1204.5
 30
0.0
 11
4620.5
 21
1200.0
 31
0.0
  0
LINE
  5
E9
100
AcDbEntity
  8
LAY-1
  6
CONTINUOUS
 62
     2
100
AcDbLine
 10
5140.5
 20
1200.0
 30
0.0
 11
4620.5
 21
1200.0
 31
0.0
  0
LINE
  5
EA
100
AcDbEntity
  8
LAY-1
  6
CONTINUOUS
 62
     2
100
AcDbLine
 10
5134.5
 20
2130.0
 30
0.0
 11
5134.5
 21
1830.0
 31
0.0
  0
LINE
  5
EB
100
AcDbEntity
  8
LAY-1
  6
CONTINUOUS
 62
     2
100
AcDbLine
 10
4626.5
 20
2130.0
 30
0.0
 11
4626.5
 21
1830.0
 31
0.0
  0
LINE
  5
EC
100
AcDbEntity
  8
LAY-1
  6
CONTINUOUS
 62
     2
100
AcDbLine
 10
5134.5
 20
2130.0
 30
0.0
 11
4626.5
 21
2130.0
 31
0.0
  0
LINE
  5
ED
100
AcDbEntity
  8
LAY-1
  6
CONTINUOUS
 62
     2
100
AcDbLine
 10
2482.5
 20
1830.0
 30
0.0
 11
2482.5
 21
1258.0
 31
0.0
  0
LINE
  5
EE
100
AcDbEntity
  8
LAY-1
  6
CONTINUOUS
 62
     2
100
AcDbLine
 10
2982.5
 20
1830.0
 30
0.0
 11
2982.5
 21
1258.0
 31
0.0
  0
LINE
  5
EF
100
AcDbEntity
  8
LAY-1
  6
CONTINUOUS
 62
     2
100
AcDbLine
 10
2512.5
 20
1258.0
 30
0.0
 11
2512.5
 21
1204.5
 31
0.0
  0
LINE
  5
F0
100
AcDbEntity
  8
LAY-1
  6
CONTINUOUS
 62
     2
100
AcDbLine
 10
2952.5
 20
1258.0
 30
0.0
 11
2952.5
 21
1204.5
 31
0.0
  0
LINE
  5
F1
100
AcDbEntity
  8
LAY-1
  6
CONTINUOUS
 62
     2
100
AcDbLine
 10
2472.5
 20
1204.5
 30
0.0
 11
2992.5
 21
1204.5
 31
0.0
  0
LINE
  5
F2
100
AcDbEntity
  8
LAY-1
  6
CONTINUOUS
 62
     2
100
AcDbLine
 10
2472.5
 20
1204.5
 30
0.0
 11
2472.5
 21
1200.0
 31
0.0
  0
LINE
  5
F3
100
AcDbEntity
  8
LAY-1
  6
CONTINUOUS
 62
     2
100
AcDbLine
 10
2992.5
 20
1204.5
 30
0.0
 11
2992.5
 21
1200.0
 31
0.0
  0
LINE
  5
F4
100
AcDbEntity
  8
LAY-1
  6
CONTINUOUS
 62
     2
100
AcDbLine
 10
2472.5
 20
1200.0
 30
0.0
 11
2992.5
 21
1200.0
 31
0.0
  0
LINE
  5
F5
100
AcDbEntity
  8
LAY-1
  6
CONTINUOUS
 62
     2
100
AcDbLine
 10
2826.455286
 20
1906.5
 30
0.0
 11
2818.0
 21
1906.5
 31
0.0
  0
LINE
  5
F6
100
AcDbEntity
  8
LAY-1
  6
CONTINUOUS
 62
     2
100
AcDbLine
 10
2816.0
 20
1904.5
 30
0.0
 11
2816.0
 21
1896.044714
 31
0.0
  0
ARC
  5
F7
100
AcDbEntity
  8
LAY-1
  6
CONTINUOUS
 62
     2
100
AcDbCircle
 10
2818.0
 20
1896.044714
 30
0.0
 40
2.0
100
AcDbArc
 50
180.0
 51
291.510188
  0
ARC
  5
F8
100
AcDbEntity
  8
LAY-1
  6
CONTINUOUS
 62
     2
100
AcDbCircle
 10
2818.0
 20
1904.5
 30
0.0
 40
2.0
100
AcDbArc
 50
90.0
 51
180.0
  0
ARC
  5
F9
100
AcDbEntity
  8
LAY-1
  6
CONTINUOUS
 62
     2
100
AcDbCircle
 10
2826.455286
 20
1904.5
 30
0.0
 40
2.0
100
AcDbArc
 50
338.489812
 51
90.0
  0
LINE
  5
FA
100
AcDbEntity
  8
LAY-1
  6
CONTINUOUS
 62
     2
100
AcDbLine
 10
2809.0
 20
1896.044714
 30
0.0
 11
2809.0
 21
1904.5
 31
0.0
  0
LINE
  5
FB
100
AcDbEntity
  8
LAY-1
  6
CONTINUOUS
 62
     2
100
AcDbLine
 10
2807.0
 20
1906.5
 30
0.0
 11
2798.544714
 21
1906.5
 31
0.0
  0
ARC
  5
FC
100
AcDbEntity
  8
LAY-1
  6
CONTINUOUS
 62
     2
100
AcDbCircle
 10
2798.544714
 20
1904.5
 30
0.0
 40
2.0
100
AcDbArc
 50
90.0
 51
201.510188
  0
ARC
  5
FD
100
AcDbEntity
  8
LAY-1
  6
CONTINUOUS
 62
     2
100
AcDbCircle
 10
2807.0
 20
1904.5
 30
0.0
 40
2.0
100
AcDbArc
 50
0.0
 51
90.0
  0
ARC
  5
FE
100
AcDbEntity
  8
LAY-1
  6
CONTINUOUS
 62
     2
100
AcDbCircle
 10
2807.0
 20
1896.044714
 30
0.0
 40
2.0
100
AcDbArc
 50
248.489812
 51
0.0
  0
LINE
  5
FF
100
AcDbEntity
  8
LAY-1
  6
CONTINUOUS
 62
     2
100
AcDbLine
 10
2798.544714
 20
1913.5
 30
0.0
 11
2807.0
 21
1913.5
 31
0.0
  0
LINE
  5
100
100
AcDbEntity
  8
LAY-1
  6
CONTINUOUS
 62
     2
100
AcDbLine
 10
2809.0
 20
1915.5
 30
0.0
 11
2809.0
 21
1923.955286
 31
0.0
  0
ARC
  5
101
100
AcDbEntity
  8
LAY-1
  6
CONTINUOUS
 62
     2
100
AcDbCircle
 10
2807.0
 20
1923.955286
 30
0.0
 40
2.0
100
AcDbArc
 50
0.0
 51
111.510188
  0
ARC
  5
102
100
AcDbEntity
  8
LAY-1
  6
CONTINUOUS
 62
     2
100
AcDbCircle
 10
2807.0
 20
1915.5
 30
0.0
 40
2.0
100
AcDbArc
 50
270.0
 51
0.0
  0
ARC
  5
103
100
AcDbEntity
  8
LAY-1
  6
CONTINUOUS
 62
     2
100
AcDbCircle
 10
2798.544714
 20
1915.5
 30
0.0
 40
2.0
100
AcDbArc
 50
158.489812
 51
270.0
  0
ARC
  5
104
100
AcDbEntity
  8
LAY-1
  6
CONTINUOUS
 62
     2
100
AcDbCircle
 10
2826.455286
 20
1915.5
 30
0.0
 40
2.0
100
AcDbArc
 50
270.0
 51
21.510188
  0
ARC
  5
105
100
AcDbEntity
  8
LAY-1
  6
CONTINUOUS
 62
     2
100
AcDbCircle
 10
2818.0
 20
1915.5
 30
0.0
 40
2.0
100
AcDbArc
 50
180.0
 51
270.0
  0
ARC
  5
106
100
AcDbEntity
  8
LAY-1
  6
CONTINUOUS
 62
     2
100
AcDbCircle
 10
2818.0
 20
1923.955286
 30
0.0
 40
2.0
100
AcDbArc
 50
68.489812
 51
180.0
  0
LINE
  5
107
100
AcDbEntity
  8
LAY-1
  6
CONTINUOUS
 62
     2
100
AcDbLine
 10
2818.0
 20
1913.5
 30
0.0
 11
2826.455286
 21
1913.5
 31
0.0
  0
LINE
  5
108
100
AcDbEntity
  8
LAY-1
  6
CONTINUOUS
 62
     2
100
AcDbLine
 10
2816.0
 20
1923.955286
 30
0.0
 11
2816.0
 21
1915.5
 31
0.0
  0
ARC
  5
109
100
AcDbEntity
  8
LAY-1
  6
CONTINUOUS
 62
     2
100
AcDbCircle
 10
2825.642812
 20
1941.729556
 30
0.0
 40
12.0
100
AcDbArc
 50
208.814171
 51
286.185829
  0
ARC
  5
10A
100
AcDbEntity
  8
LAY-1
  6
CONTINUOUS
 62
     2
100
AcDbCircle
 10
2844.229556
 20
1923.142812
 30
0.0
 40
12.0
100
AcDbArc
 50
163.814171
 51
241.185829
  0
ARC
  5
10B
100
AcDbEntity
  8
LAY-1
  6
CONTINUOUS
 62
     2
100
AcDbCircle
 10
2844.229556
 20
1896.857188
 30
0.0
 40
12.0
100
AcDbArc
 50
118.814171
 51
196.185829
  0
ARC
  5
10C
100
AcDbEntity
  8
LAY-1
  6
CONTINUOUS
 62
     2
100
AcDbCircle
 10
2825.642812
 20
1878.270444
 30
0.0
 40
12.0
100
AcDbArc
 50
73.814171
 51
151.185829
  0
ARC
  5
10D
100
AcDbEntity
  8
LAY-1
  6
CONTINUOUS
 62
     2
100
AcDbCircle
 10
2799.357188
 20
1878.270444
 30
0.0
 40
12.0
100
AcDbArc
 50
28.814171
 51
106.185829
  0
ARC
  5
10E
100
AcDbEntity
  8
LAY-1
  6
CONTINUOUS
 62
     2
100
AcDbCircle
 10
2780.770444
 20
1896.857188
 30
0.0
 40
12.0
100
AcDbArc
 50
343.814171
 51
61.185829
  0
ARC
  5
10F
100
AcDbEntity
  8
LAY-1
  6
CONTINUOUS
 62
     2
100
AcDbCircle
 10
2780.770444
 20
1923.142812
 30
0.0
 40
12.0
100
AcDbArc
 50
298.814171
 51
16.185829
  0
ARC
  5
110
100
AcDbEntity
  8
LAY-1
  6
CONTINUOUS
 62
     2
100
AcDbCircle
 10
2799.357188
 20
1941.729556
 30
0.0
 40
12.0
100
AcDbArc
 50
253.814171
 51
331.185829
  0
ARC
  5
111
100
AcDbEntity
  8
LAY-1
  6
CONTINUOUS
 62
     2
100
AcDbCircle
 10
2829.824116
 20
1927.324116
 30
0.0
 40
3.0
100
AcDbArc
 50
343.814171
 51
106.185829
  0
ARC
  5
112
100
AcDbEntity
  8
LAY-1
  6
CONTINUOUS
 62
     2
100
AcDbCircle
 10
2837.0
 20
1910.0
 30
0.0
 40
3.0
100
AcDbArc
 50
298.814171
 51
61.185829
  0
ARC
  5
113
100
AcDbEntity
  8
LAY-1
  6
CONTINUOUS
 62
     2
100
AcDbCircle
 10
2829.824116
 20
1892.675884
 30
0.0
 40
3.0
100
AcDbArc
 50
253.814171
 51
16.185829
  0
ARC
  5
114
100
AcDbEntity
  8
LAY-1
  6
CONTINUOUS
 62
     2
100
AcDbCircle
 10
2812.5
 20
1885.5
 30
0.0
 40
3.0
100
AcDbArc
 50
208.814171
 51
331.185829
  0
ARC
  5
115
100
AcDbEntity
  8
LAY-1
  6
CONTINUOUS
 62
     2
100
AcDbCircle
 10
2795.175884
 20
1892.675884
 30
0.0
 40
3.0
100
AcDbArc
 50
163.814171
 51
286.185829
  0
ARC
  5
116
100
AcDbEntity
  8
LAY-1
  6
CONTINUOUS
 62
     2
100
AcDbCircle
 10
2795.175884
 20
1927.324116
 30
0.0
 40
3.0
100
AcDbArc
 50
73.814171
 51
196.185829
  0
ARC
  5
117
100
AcDbEntity
  8
LAY-1
  6
CONTINUOUS
 62
     2
100
AcDbCircle
 10
2812.5
 20
1934.5
 30
0.0
 40
3.0
100
AcDbArc
 50
28.814171
 51
151.185829
  0
CIRCLE
  5
118
100
AcDbEntity
  8
LAY-1
  6
CONTINUOUS
 62
     2
100
AcDbCircle
 10
2812.5
 20
1910.0
 30
0.0
 40
17.0
  0
CIRCLE
  5
119
100
AcDbEntity
  8
LAY-1
  6
CONTINUOUS
 62
     2
100
AcDbCircle
 10
2812.5
 20
1910.0
 30
0.0
 40
5.0
  0
CIRCLE
  5
11A
100
AcDbEntity
  8
LAY-1
  6
CONTINUOUS
 62
     2
100
AcDbCircle
 10
2812.5
 20
1910.0
 30
0.0
 40
3.0
  0
ARC
  5
11B
100
AcDbEntity
  8
LAY-1
  6
CONTINUOUS
 62
     2
100
AcDbCircle
 10
2788.0
 20
1910.0
 30
0.0
 40
3.0
100
AcDbArc
 50
118.814171
 51
241.185829
  0
ARC
  5
11C
100
AcDbEntity
  8
LAY-1
  6
CONTINUOUS
 62
     2
100
AcDbCircle
 10
2811.5
 20
1550.0
 30
0.0
 40
197.0
100
AcDbArc
 50
351.828766
 51
8.171234
  0
LINE
  5
11D
100
AcDbEntity
  8
LAY-1
  6
CONTINUOUS
 62
     2
100
AcDbLine
 10
2996.5
 20
1520.0
 30
0.0
 11
3006.5
 21
1520.0
 31
0.0
  0
LINE
  5
11E
100
AcDbEntity
  8
LAY-1
  6
CONTINUOUS
 62
     2
100
AcDbLine
 10
2996.5
 20
1580.0
 30
0.0
 11
3006.5
 21
1580.0
 31
0.0
  0
LINE
  5
11F
100
AcDbEntity
  8
LAY-1
  6
CONTINUOUS
 62
     2
100
AcDbLine
 10
3006.5
 20
1580.0
 30
0.0
 11
3006.5
 21
1520.0
 31
0.0
  0
LINE
  5
120
100
AcDbEntity
  8
LAY-1
  6
CONTINUOUS
 62
     2
100
AcDbLine
 10
2996.5
 20
1580.0
 30
0.0
 11
2996.5
 21
1520.0
 31
0.0
  0
LINE
  5
121
100
AcDbEntity
  8
LAY-1
  6
CONTINUOUS
 62
     2
100
AcDbLine
 10
2994.5
 20
1528.5
 30
0.0
 11
2996.5
 21
1528.5
 31
0.0
  0
LINE
  5
122
100
AcDbEntity
  8
LAY-1
  6
CONTINUOUS
 62
     2
100
AcDbLine
 10
2994.5
 20
1571.5
 30
0.0
 11
2996.5
 21
1571.5
 31
0.0
  0
LINE
  5
123
100
AcDbEntity
  8
LAY-1
  6
CONTINUOUS
 62
     2
100
AcDbLine
 10
2991.5
 20
1560.5
 30
0.0
 11
2994.5
 21
1560.5
 31
0.0
  0
LINE
  5
124
100
AcDbEntity
  8
LAY-1
  6
CONTINUOUS
 62
     2
100
AcDbLine
 10
2991.5
 20
1539.5
 30
0.0
 11
2994.5
 21
1539.5
 31
0.0
  0
LINE
  5
125
100
AcDbEntity
  8
LAY-1
  6
CONTINUOUS
 62
     2
100
AcDbLine
 10
2994.5
 20
1571.5
 30
0.0
 11
2994.5
 21
1528.5
 31
0.0
  0
LINE
  5
126
100
AcDbEntity
  8
LAY-1
  6
CONTINUOUS
 62
     2
100
AcDbLine
 10
2982.5
 20
1543.0
 30
0.0
 11
2990.5
 21
1543.0
 31
0.0
  0
LINE
  5
127
100
AcDbEntity
  8
LAY-1
  6
CONTINUOUS
 62
     2
100
AcDbLine
 10
2982.5
 20
1557.0
 30
0.0
 11
2990.5
 21
1557.0
 31
0.0
  0
ARC
  5
128
100
AcDbEntity
  8
LAY-1
  6
CONTINUOUS
 62
     2
100
AcDbCircle
 10
2966.5
 20
1550.0
 30
0.0
 40
25.0
100
AcDbArc
 50
343.739795
 51
16.260205
  0
ARC
  5
129
100
AcDbEntity
  8
LAY-1
  6
CONTINUOUS
 62
     2
100
AcDbCircle
 10
2984.875
 20
1539.5
 30
0.0
 40
6.625
100
AcDbArc
 50
328.109208
 51
31.890792
  0
ARC
  5
12A
100
AcDbEntity
  8
LAY-1
  6
CONTINUOUS
 62
     2
100
AcDbCircle
 10
2984.875
 20
1560.5
 30
0.0
 40
6.625
100
AcDbArc
 50
328.109208
 51
31.890792
  0
LINE
  5
12B
100
AcDbEntity
  8
LAY-1
  6
CONTINUOUS
 62
     2
100
AcDbLine
 10
2982.5
 20
1536.0
 30
0.0
 11
2990.5
 21
1536.0
 31
0.0
  0
LINE
  5
12C
100
AcDbEntity
  8
LAY-1
  6
CONTINUOUS
 62
     2
100
AcDbLine
 10
2982.5
 20
1564.0
 30
0.0
 11
2990.5
 21
1564.0
 31
0.0
  0
LINE
  5
12D
100
AcDbEntity
  8
LAY-1
  6
CONTINUOUS
 62
     2
100
AcDbLine
 10
2991.5
 20
1560.5
 30
0.0
 11
2991.5
 21
1539.5
 31
0.0
  0
LINE
  5
12E
100
AcDbEntity
  8
LAY-1
  6
CONTINUOUS
 62
     2
100
AcDbLine
 10
2448.35
 20
2410.62
 30
0.0
 11
2448.35
 21
2375.62
 31
0.0
  0
LINE
  5
12F
100
AcDbEntity
  8
LAY-1
  6
CONTINUOUS
 62
     2
100
AcDbLine
 10
2416.65
 20
2410.62
 30
0.0
 11
2416.65
 21
2375.62
 31
0.0
  0
LINE
  5
130
100
AcDbEntity
  8
LAY-1
  6
CONTINUOUS
 62
     2
100
AcDbLine
 10
2416.65
 20
2375.62
 30
0.0
 11
2448.35
 21
2375.62
 31
0.0
  0
LINE
  5
131
100
AcDbEntity
  8
LAY-1
  6
CONTINUOUS
 62
     2
100
AcDbLine
 10
2416.65
 20
2410.62
 30
0.0
 11
2448.35
 21
2410.62
 31
0.0
  0
LINE
  5
132
100
AcDbEntity
  8
LAY-1
  6
CONTINUOUS
 62
     2
100
AcDbLine
 10
2421.65
 20
2375.62
 30
0.0
 11
2421.65
 21
2110.62
 31
0.0
  0
LINE
  5
133
100
AcDbEntity
  8
LAY-1
  6
CONTINUOUS
 62
     2
100
AcDbLine
 10
2443.35
 20
2375.62
 30
0.0
 11
2443.35
 21
2110.62
 31
0.0
  0
LINE
  5
134
100
AcDbEntity
  8
LAY-1
  6
CONTINUOUS
 62
     2
100
AcDbLine
 10
2435.386467
 20
2038.62
 30
0.0
 11
2441.15
 21
2038.62
 31
0.0
  0
ARC
  5
135
100
AcDbEntity
  8
LAY-1
  6
CONTINUOUS
 62
     2
100
AcDbCircle
 10
2445.25
 20
2050.15125
 30
0.0
 40
9.53125
100
AcDbArc
 50
243.51896
 51
296.48104
  0
ARC
  5
136
100
AcDbEntity
  8
LAY-1
  6
CONTINUOUS
 62
     2
100
AcDbCircle
 10
2432.5
 20
2077.245
 30
0.0
 40
36.625
100
AcDbArc
 50
256.580326
 51
283.419674
  0
ARC
  5
137
100
AcDbEntity
  8
LAY-1
  6
CONTINUOUS
 62
     2
100
AcDbCircle
 10
2419.75
 20
2050.15125
 30
0.0
 40
9.53125
100
AcDbArc
 50
243.51896
 51
296.48104
  0
ARC
  5
138
100
AcDbEntity
  8
LAY-1
  6
CONTINUOUS
 62
     2
100
AcDbCircle
 10
2445.25
 20
2076.08875
 30
0.0
 40
9.53125
100
AcDbArc
 50
63.51896
 51
116.48104
  0
ARC
  5
139
100
AcDbEntity
  8
LAY-1
  6
CONTINUOUS
 62
     2
100
AcDbCircle
 10
2432.5
 20
2048.995
 30
0.0
 40
36.625
100
AcDbArc
 50
76.580326
 51
103.419674
  0
ARC
  5
13A
100
AcDbEntity
  8
LAY-1
  6
CONTINUOUS
 62
     2
100
AcDbCircle
 10
2419.75
 20
2076.08875
 30
0.0
 40
9.53125
100
AcDbArc
 50
63.51896
 51
116.48104
  0
LINE
  5
13B
100
AcDbEntity
  8
LAY-1
  6
CONTINUOUS
 62
     2
100
AcDbLine
 10
2449.5
 20
2086.62
 30
0.0
 11
2449.5
 21
2109.62
 31
0.0
  0
LINE
  5
13C
100
AcDbEntity
  8
LAY-1
  6
CONTINUOUS
 62
     2
100
AcDbLine
 10
2449.5
 20
2041.62
 30
0.0
 11
2449.5
 21
2084.62
 31
0.0
  0
LINE
  5
13D
100
AcDbEntity
  8
LAY-1
  6
CONTINUOUS
 62
     2
100
AcDbLine
 10
2415.5
 20
2041.62
 30
0.0
 11
2415.5
 21
2084.62
 31
0.0
  0
LINE
  5
13E
100
AcDbEntity
  8
LAY-1
  6
CONTINUOUS
 62
     2
100
AcDbLine
 10
2424.0
 20
2041.62
 30
0.0
 11
2424.0
 21
2084.62
 31
0.0
  0
LINE
  5
13F
100
AcDbEntity
  8
LAY-1
  6
CONTINUOUS
 62
     2
100
AcDbLine
 10
2441.0
 20
2041.62
 30
0.0
 11
2441.0
 21
2084.62
 31
0.0
  0
ARC
  5
140
100
AcDbEntity
  8
LAY-1
  6
CONTINUOUS
 62
     2
100
AcDbCircle
 10
2445.25
 20
2095.15125
 30
0.0
 40
9.53125
100
AcDbArc
 50
243.51896
 51
296.48104
  0
ARC
  5
141
100
AcDbEntity
  8
LAY-1
  6
CONTINUOUS
 62
     2
100
AcDbCircle
 10
2432.5
 20
2122.245
 30
0.0
 40
36.625
100
AcDbArc
 50
256.580326
 51
283.419674
  0
ARC
  5
142
100
AcDbEntity
  8
LAY-1
  6
CONTINUOUS
 62
     2
100
AcDbCircle
 10
2419.75
 20
2095.15125
 30
0.0
 40
9.53125
100
AcDbArc
 50
243.51896
 51
296.48104
  0
LINE
  5
143
100
AcDbEntity
  8
LAY-1
  6
CONTINUOUS
 62
     2
100
AcDbLine
 10
2419.75
 20
2085.62
 30
0.0
 11
2445.25
 21
2085.62
 31
0.0
  0
ARC
  5
144
100
AcDbEntity
  8
LAY-1
  6
CONTINUOUS
 62
     2
100
AcDbCircle
 10
2445.25
 20
2101.08875
 30
0.0
 40
9.53125
100
AcDbArc
 50
63.51896
 51
116.48104
  0
ARC
  5
145
100
AcDbEntity
  8
LAY-1
  6
CONTINUOUS
 62
     2
100
AcDbCircle
 10
2432.5
 20
2073.995
 30
0.0
 40
36.625
100
AcDbArc
 50
76.580326
 51
103.419674
  0
ARC
  5
146
100
AcDbEntity
  8
LAY-1
  6
CONTINUOUS
 62
     2
100
AcDbCircle
 10
2419.75
 20
2101.08875
 30
0.0
 40
9.53125
100
AcDbArc
 50
63.51896
 51
116.48104
  0
LINE
  5
147
100
AcDbEntity
  8
LAY-1
  6
CONTINUOUS
 62
     2
100
AcDbLine
 10
2415.5
 20
2109.62
 30
0.0
 11
2415.5
 21
2086.62
 31
0.0
  0
LINE
  5
148
100
AcDbEntity
  8
LAY-1
  6
CONTINUOUS
 62
     2
100
AcDbLine
 10
2424.0
 20
2109.62
 30
0.0
 11
2424.0
 21
2086.62
 31
0.0
  0
LINE
  5
149
100
AcDbEntity
  8
LAY-1
  6
CONTINUOUS
 62
     2
100
AcDbLine
 10
2441.0
 20
2109.62
 30
0.0
 11
2441.0
 21
2086.62
 31
0.0
  0
LINE
  5
14A
100
AcDbEntity
  8
LAY-1
  6
CONTINUOUS
 62
     2
100
AcDbLine
 10
2441.15
 20
2040.62
 30
0.0
 11
2441.15
 21
2033.722354
 31
0.0
  0
LINE
  5
14B
100
AcDbEntity
  8
LAY-1
  6
CONTINUOUS
 62
     2
100
AcDbLine
 10
2423.85
 20
2040.62
 30
0.0
 11
2423.85
 21
2033.722354
 31
0.0
  0
LINE
  5
14C
100
AcDbEntity
  8
LAY-1
  6
CONTINUOUS
 62
     2
100
AcDbLine
 10
2423.85
 20
2038.62
 30
0.0
 11
2429.613533
 21
2038.62
 31
0.0
  0
LINE
  5
14D
100
AcDbEntity
  8
LAY-1
  6
CONTINUOUS
 62
     2
100
AcDbLine
 10
2419.75
 20
2040.62
 30
0.0
 11
2445.25
 21
2040.62
 31
0.0
  0
LINE
  5
14E
100
AcDbEntity
  8
LAY-1
  6
CONTINUOUS
 62
     2
100
AcDbLine
 10
2419.75
 20
2110.62
 30
0.0
 11
2445.25
 21
2110.62
 31
0.0
  0
LINE
  5
14F
100
AcDbEntity
  8
LAY-1
  6
CONTINUOUS
 62
     2
100
AcDbLine
 10
2423.32
 20
1979.96
 30
0.0
 11
2441.68
 21
1979.96
 31
0.0
  0
LINE
  5
150
100
AcDbEntity
  8
LAY-1
  6
CONTINUOUS
 62
     2
100
AcDbLine
 10
2446.455286
 20
2009.62
 30
0.0
 11
2438.0
 21
2009.62
 31
0.0
  0
LINE
  5
151
100
AcDbEntity
  8
LAY-1
  6
CONTINUOUS
 62
     2
100
AcDbLine
 10
2436.0
 20
2007.62
 30
0.0
 11
2436.0
 21
1999.164714
 31
0.0
  0
ARC
  5
152
100
AcDbEntity
  8
LAY-1
  6
CONTINUOUS
 62
     2
100
AcDbCircle
 10
2438.0
 20
1999.164714
 30
0.0
 40
2.0
100
AcDbArc
 50
180.0
 51
291.510188
  0
ARC
  5
153
100
AcDbEntity
  8
LAY-1
  6
CONTINUOUS
 62
     2
100
AcDbCircle
 10
2438.0
 20
2007.62
 30
0.0
 40
2.0
100
AcDbArc
 50
90.0
 51
180.0
  0
ARC
  5
154
100
AcDbEntity
  8
LAY-1
  6
CONTINUOUS
 62
     2
100
AcDbCircle
 10
2446.455286
 20
2007.62
 30
0.0
 40
2.0
100
AcDbArc
 50
338.489812
 51
90.0
  0
LINE
  5
155
100
AcDbEntity
  8
LAY-1
  6
CONTINUOUS
 62
     2
100
AcDbLine
 10
2429.0
 20
1999.164714
 30
0.0
 11
2429.0
 21
2007.62
 31
0.0
  0
LINE
  5
156
100
AcDbEntity
  8
LAY-1
  6
CONTINUOUS
 62
     2
100
AcDbLine
 10
2427.0
 20
2009.62
 30
0.0
 11
2418.544714
 21
2009.62
 31
0.0
  0
ARC
  5
157
100
AcDbEntity
  8
LAY-1
  6
CONTINUOUS
 62
     2
100
AcDbCircle
 10
2418.544714
 20
2007.62
 30
0.0
 40
2.0
100
AcDbArc
 50
90.0
 51
201.510188
  0
ARC
  5
158
100
AcDbEntity
  8
LAY-1
  6
CONTINUOUS
 62
     2
100
AcDbCircle
 10
2427.0
 20
2007.62
 30
0.0
 40
2.0
100
AcDbArc
 50
0.0
 51
90.0
  0
ARC
  5
159
100
AcDbEntity
  8
LAY-1
  6
CONTINUOUS
 62
     2
100
AcDbCircle
 10
2427.0
 20
1999.164714
 30
0.0
 40
2.0
100
AcDbArc
 50
248.489812
 51
0.0
  0
LINE
  5
15A
100
AcDbEntity
  8
LAY-1
  6
CONTINUOUS
 62
     2
100
AcDbLine
 10
2418.544714
 20
2016.62
 30
0.0
 11
2427.0
 21
2016.62
 31
0.0
  0
LINE
  5
15B
100
AcDbEntity
  8
LAY-1
  6
CONTINUOUS
 62
     2
100
AcDbLine
 10
2429.0
 20
2018.62
 30
0.0
 11
2429.0
 21
2027.075286
 31
0.0
  0
ARC
  5
15C
100
AcDbEntity
  8
LAY-1
  6
CONTINUOUS
 62
     2
100
AcDbCircle
 10
2427.0
 20
2027.075286
 30
0.0
 40
2.0
100
AcDbArc
 50
0.0
 51
111.510188
  0
ARC
  5
15D
100
AcDbEntity
  8
LAY-1
  6
CONTINUOUS
 62
     2
100
AcDbCircle
 10
2427.0
 20
2018.62
 30
0.0
 40
2.0
100
AcDbArc
 50
270.0
 51
0.0
  0
ARC
  5
15E
100
AcDbEntity
  8
LAY-1
  6
CONTINUOUS
 62
     2
100
AcDbCircle
 10
2418.544714
 20
2018.62
 30
0.0
 40
2.0
100
AcDbArc
 50
158.489812
 51
270.0
  0
ARC
  5
15F
100
AcDbEntity
  8
LAY-1
  6
CONTINUOUS
 62
     2
100
AcDbCircle
 10
2446.455286
 20
2018.62
 30
0.0
 40
2.0
100
AcDbArc
 50
270.0
 51
21.510188
  0
ARC
  5
160
100
AcDbEntity
  8
LAY-1
  6
CONTINUOUS
 62
     2
100
AcDbCircle
 10
2438.0
 20
2018.62
 30
0.0
 40
2.0
100
AcDbArc
 50
180.0
 51
270.0
  0
ARC
  5
161
100
AcDbEntity
  8
LAY-1
  6
CONTINUOUS
 62
     2
100
AcDbCircle
 10
2438.0
 20
2027.075286
 30
0.0
 40
2.0
100
AcDbArc
 50
68.489812
 51
180.0
  0
LINE
  5
162
100
AcDbEntity
  8
LAY-1
  6
CONTINUOUS
 62
     2
100
AcDbLine
 10
2438.0
 20
2016.62
 30
0.0
 11
2446.455286
 21
2016.62
 31
0.0
  0
LINE
  5
163
100
AcDbEntity
  8
LAY-1
  6
CONTINUOUS
 62
     2
100
AcDbLine
 10
2436.0
 20
2027.075286
 30
0.0
 11
2436.0
 21
2018.62
 31
0.0
  0
ARC
  5
164
100
AcDbEntity
  8
LAY-1
  6
CONTINUOUS
 62
     2
100
AcDbCircle
 10
2445.642812
 20
2044.849556
 30
0.0
 40
12.0
100
AcDbArc
 50
208.814171
 51
286.185829
  0
ARC
  5
165
100
AcDbEntity
  8
LAY-1
  6
CONTINUOUS
 62
     2
100
AcDbCircle
 10
2464.229556
 20
2026.262812
 30
0.0
 40
12.0
100
AcDbArc
 50
163.814171
 51
241.185829
  0
ARC
  5
166
100
AcDbEntity
  8
LAY-1
  6
CONTINUOUS
 62
     2
100
AcDbCircle
 10
2464.229556
 20
1999.977188
 30
0.0
 40
12.0
100
AcDbArc
 50
118.814171
 51
196.185829
  0
ARC
  5
167
100
AcDbEntity
  8
LAY-1
  6
CONTINUOUS
 62
     2
100
AcDbCircle
 10
2445.642812
 20
1981.390444
 30
0.0
 40
12.0
100
AcDbArc
 50
73.814171
 51
151.185829
  0
ARC
  5
168
100
AcDbEntity
  8
LAY-1
  6
CONTINUOUS
 62
     2
100
AcDbCircle
 10
2419.357188
 20
1981.390444
 30
0.0
 40
12.0
100
AcDbArc
 50
28.814171
 51
106.185829
  0
ARC
  5
169
100
AcDbEntity
  8
LAY-1
  6
CONTINUOUS
 62
     2
100
AcDbCircle
 10
2400.770444
 20
1999.977188
 30
0.0
 40
12.0
100
AcDbArc
 50
343.814171
 51
61.185829
  0
ARC
  5
16A
100
AcDbEntity
  8
LAY-1
  6
CONTINUOUS
 62
     2
100
AcDbCircle
 10
2400.770444
 20
2026.262812
 30
0.0
 40
12.0
100
AcDbArc
 50
298.814171
 51
16.185829
  0
ARC
  5
16B
100
AcDbEntity
  8
LAY-1
  6
CONTINUOUS
 62
     2
100
AcDbCircle
 10
2419.357188
 20
2044.849556
 30
0.0
 40
12.0
100
AcDbArc
 50
253.814171
 51
331.185829
  0
ARC
  5
16C
100
AcDbEntity
  8
LAY-1
  6
CONTINUOUS
 62
     2
100
AcDbCircle
 10
2449.824116
 20
2030.444116
 30
0.0
 40
3.0
100
AcDbArc
 50
343.814171
 51
106.185829
  0
ARC
  5
16D
100
AcDbEntity
  8
LAY-1
  6
CONTINUOUS
 62
     2
100
AcDbCircle
 10
2457.0
 20
2013.12
 30
0.0
 40
3.0
100
AcDbArc
 50
298.814171
 51
61.185829
  0
ARC
  5
16E
100
AcDbEntity
  8
LAY-1
  6
CONTINUOUS
 62
     2
100
AcDbCircle
 10
2449.824116
 20
1995.795884
 30
0.0
 40
3.0
100
AcDbArc
 50
253.814171
 51
16.185829
  0
ARC
  5
16F
100
AcDbEntity
  8
LAY-1
  6
CONTINUOUS
 62
     2
100
AcDbCircle
 10
2432.5
 20
1988.62
 30
0.0
 40
3.0
100
AcDbArc
 50
208.814171
 51
331.185829
  0
ARC
  5
170
100
AcDbEntity
  8
LAY-1
  6
CONTINUOUS
 62
     2
100
AcDbCircle
 10
2415.175884
 20
1995.795884
 30
0.0
 40
3.0
100
AcDbArc
 50
163.814171
 51
286.185829
  0
ARC
  5
171
100
AcDbEntity
  8
LAY-1
  6
CONTINUOUS
 62
     2
100
AcDbCircle
 10
2408.0
 20
2013.12
 30
0.0
 40
3.0
100
AcDbArc
 50
118.814171
 51
241.185829
  0
ARC
  5
172
100
AcDbEntity
  8
LAY-1
  6
CONTINUOUS
 62
     2
100
AcDbCircle
 10
2415.175884
 20
2030.444116
 30
0.0
 40
3.0
100
AcDbArc
 50
73.814171
 51
196.185829
  0
ARC
  5
173
100
AcDbEntity
  8
LAY-1
  6
CONTINUOUS
 62
     2
100
AcDbCircle
 10
2432.5
 20
2037.62
 30
0.0
 40
3.0
100
AcDbArc
 50
28.814171
 51
151.185829
  0
CIRCLE
  5
174
100
AcDbEntity
  8
LAY-1
  6
CONTINUOUS
 62
     2
100
AcDbCircle
 10
2432.5
 20
2013.12
 30
0.0
 40
17.0
  0
CIRCLE
  5
175
100
AcDbEntity
  8
LAY-1
  6
CONTINUOUS
 62
     2
100
AcDbCircle
 10
2432.5
 20
2013.12
 30
0.0
 40
5.0
  0
CIRCLE
  5
176
100
AcDbEntity
  8
LAY-1
  6
CONTINUOUS
 62
     2
100
AcDbCircle
 10
2432.5
 20
2013.12
 30
0.0
 40
3.0
  0
LINE
  5
177
100
AcDbEntity
  8
LAY-1
  6
CONTINUOUS
 62
     2
100
AcDbLine
 10
2442.76
 20
1971.32
 30
0.0
 11
2447.08
 21
1967.0
 31
0.0
  0
LINE
  5
178
100
AcDbEntity
  8
LAY-1
  6
CONTINUOUS
 62
     2
100
AcDbLine
 10
2422.24
 20
1971.32
 30
0.0
 11
2417.92
 21
1967.0
 31
0.0
  0
LINE
  5
179
100
AcDbEntity
  8
LAY-1
  6
CONTINUOUS
 62
     2
100
AcDbLine
 10
2425.48
 20
1967.0
 30
0.0
 11
2439.52
 21
1967.0
 31
0.0
  0
LINE
  5
17A
100
AcDbEntity
  8
LAY-1
  6
CONTINUOUS
 62
     2
100
AcDbLine
 10
2441.68
 20
1979.96
 30
0.0
 11
2442.76
 21
1979.42
 31
0.0
  0
LINE
  5
17B
100
AcDbEntity
  8
LAY-1
  6
CONTINUOUS
 62
     2
100
AcDbLine
 10
2442.76
 20
1971.32
 30
0.0
 11
2442.76
 21
1979.42
 31
0.0
  0
LINE
  5
17C
100
AcDbEntity
  8
LAY-1
  6
CONTINUOUS
 62
     2
100
AcDbLine
 10
2423.32
 20
1979.96
 30
0.0
 11
2422.24
 21
1979.42
 31
0.0
  0
LINE
  5
17D
100
AcDbEntity
  8
LAY-1
  6
CONTINUOUS
 62
     2
100
AcDbLine
 10
2422.24
 20
1971.32
 30
0.0
 11
2422.24
 21
1979.42
 31
0.0
  0
LINE
  5
17E
100
AcDbEntity
  8
LAY-1
  6
CONTINUOUS
 62
     2
100
AcDbLine
 10
2442.76
 20
1971.32
 30
0.0
 11
2422.24
 21
1971.32
 31
0.0
  0
LINE
  5
17F
100
AcDbEntity
  8
LAY-1
  6
CONTINUOUS
 62
     2
100
AcDbLine
 10
2422.24
 20
1979.42
 30
0.0
 11
2442.76
 21
1979.42
 31
0.0
  0
LINE
  5
180
100
AcDbEntity
  8
LAY-1
  6
CONTINUOUS
 62
     2
100
AcDbLine
 10
2423.32
 20
1979.96
 30
0.0
 11
2423.786047
 21
1992.543256
 31
0.0
  0
LINE
  5
181
100
AcDbEntity
  8
LAY-1
  6
CONTINUOUS
 62
     2
100
AcDbLine
 10
2441.68
 20
1979.96
 30
0.0
 11
2441.213953
 21
1992.543256
 31
0.0
  0
LINE
  5
182
100
AcDbEntity
  8
LAY-1
  6
CONTINUOUS
 62
     2
100
AcDbLine
 10
2433.887227
 20
1985.96
 30
0.0
 11
2441.457778
 21
1985.96
 31
0.0
  0
LINE
  5
183
100
AcDbEntity
  8
LAY-1
  6
CONTINUOUS
 62
     2
100
AcDbLine
 10
2423.542222
 20
1985.96
 30
0.0
 11
2431.112773
 21
1985.96
 31
0.0
  0
LINE
  5
184
100
AcDbEntity
  8
LAY-1
  6
CONTINUOUS
 62
     2
100
AcDbLine
 10
2423.468148
 20
1983.96
 30
0.0
 11
2441.531852
 21
1983.96
 31
0.0
  0
LINE
  5
185
100
AcDbEntity
  8
LAY-1
  6
CONTINUOUS
 62
     2
100
AcDbLine
 10
2423.394074
 20
1981.96
 30
0.0
 11
2441.605926
 21
1981.96
 31
0.0
  0
LINE
  5
186
100
AcDbEntity
  8
LAY-1
  6
CONTINUOUS
 62
     2
100
AcDbLine
 10
2342.5
 20
2043.0
 30
0.0
 11
2342.5
 21
1983.5
 31
0.0
  0
LINE
  5
187
100
AcDbEntity
  8
LAY-1
  6
CONTINUOUS
 62
     2
100
AcDbLine
 10
2343.5
 20
2065.0
 30
0.0
 11
2343.5
 21
2012.5
 31
0.0
  0
LINE
  5
188
100
AcDbEntity
  8
LAY-1
  6
CONTINUOUS
 62
     2
100
AcDbLine
 10
2358.5
 20
2065.0
 30
0.0
 11
2358.5
 21
2012.5
 31
0.0
  0
LINE
  5
189
100
AcDbEntity
  8
LAY-1
  6
CONTINUOUS
 62
     2
100
AcDbLine
 10
2343.5
 20
2012.5
 30
0.0
 11
2358.5
 21
2012.5
 31
0.0
  0
LINE
  5
18A
100
AcDbEntity
  8
LAY-1
  6
CONTINUOUS
 62
     2
100
AcDbLine
 10
2343.5
 20
1887.5
 30
0.0
 11
2358.5
 21
1887.5
 31
0.0
  0
LINE
  5
18B
100
AcDbEntity
  8
LAY-1
  6
CONTINUOUS
 62
     2
100
AcDbLine
 10
2342.5
 20
1983.5
 30
0.0
 11
2343.5
 21
1983.5
 31
0.0
  0
LINE
  5
18C
100
AcDbEntity
  8
LAY-1
  6
CONTINUOUS
 62
     2
100
AcDbLine
 10
2342.5
 20
1916.5
 30
0.0
 11
2343.5
 21
1916.5
 31
0.0
  0
LINE
  5
18D
100
AcDbEntity
  8
LAY-1
  6
CONTINUOUS
 62
     2
100
AcDbLine
 10
2343.5
 20
2012.5
 30
0.0
 11
2343.5
 21
1887.5
 31
0.0
  0
LINE
  5
18E
100
AcDbEntity
  8
LAY-1
  6
CONTINUOUS
 62
     2
100
AcDbLine
 10
2358.5
 20
2012.5
 30
0.0
 11
2358.5
 21
1887.5
 31
0.0
  0
LINE
  5
18F
100
AcDbEntity
  8
LAY-1
  6
CONTINUOUS
 62
     2
100
AcDbLine
 10
2342.5
 20
1983.5
 30
0.0
 11
2342.5
 21
1916.5
 31
0.0
  0
LINE
  5
190
100
AcDbEntity
  8
LAY-1
  6
CONTINUOUS
 62
     2
100
AcDbLine
 10
2343.5
 20
2065.0
 30
0.0
 11
2358.5
 21
2065.0
 31
0.0
  0
LINE
  5
191
100
AcDbEntity
  8
LAY-1
  6
CONTINUOUS
 62
     2
100
AcDbLine
 10
2342.5
 20
2043.0
 30
0.0
 11
2343.5
 21
2043.0
 31
0.0
  0
LINE
  5
192
100
AcDbEntity
  8
LAY-1
  6
CONTINUOUS
 62
     2
100
AcDbLine
 10
2574.5
 20
2146.6
 30
0.0
 11
2592.5
 21
2146.6
 31
0.0
  0
LINE
  5
193
100
AcDbEntity
  8
LAY-1
  6
CONTINUOUS
 62
     2
100
AcDbLine
 10
2574.5
 20
2133.2
 30
0.0
 11
2592.5
 21
2133.2
 31
0.0
  0
LINE
  5
194
100
AcDbEntity
  8
LAY-1
  6
CONTINUOUS
 62
     2
100
AcDbLine
 10
2574.5
 20
2146.6
 30
0.0
 11
2574.5
 21
2131.6
 31
0.0
  0
LINE
  5
195
100
AcDbEntity
  8
LAY-1
  6
CONTINUOUS
 62
     2
100
AcDbLine
 10
2592.5
 20
2146.6
 30
0.0
 11
2592.5
 21
2131.6
 31
0.0
  0
LINE
  5
196
100
AcDbEntity
  8
LAY-1
  6
CONTINUOUS
 62
     2
100
AcDbLine
 10
2513.5
 20
2131.6
 30
0.0
 11
2653.5
 21
2131.6
 31
0.0
  0
LINE
  5
197
100
AcDbEntity
  8
LAY-1
  6
CONTINUOUS
 62
     2
100
AcDbLine
 10
2513.5
 20
2131.6
 30
0.0
 11
2513.5
 21
2130.0
 31
0.0
  0
LINE
  5
198
100
AcDbEntity
  8
LAY-1
  6
CONTINUOUS
 62
     2
100
AcDbLine
 10
2653.5
 20
2131.6
 30
0.0
 11
2653.5
 21
2130.0
 31
0.0
  0
LINE
  5
199
100
AcDbEntity
  8
LAY-1
  6
CONTINUOUS
 62
     2
100
AcDbLine
 10
2684.5
 20
2145.0
 30
0.0
 11
2700.5
 21
2145.0
 31
0.0
  0
LINE
  5
19A
100
AcDbEntity
  8
LAY-1
  6
CONTINUOUS
 62
     2
100
AcDbLine
 10
2688.5
 20
2150.0
 30
0.0
 11
2696.5
 21
2150.0
 31
0.0
  0
LINE
  5
19B
100
AcDbEntity
  8
LAY-1
  6
CONTINUOUS
 62
     2
100
AcDbLine
 10
2700.5
 20
2145.0
 30
0.0
 11
2702.5
 21
2130.0
 31
0.0
  0
LINE
  5
19C
100
AcDbEntity
  8
LAY-1
  6
CONTINUOUS
 62
     2
100
AcDbLine
 10
2696.5
 20
2150.0
 30
0.0
 11
2700.5
 21
2145.0
 31
0.0
  0
LINE
  5
19D
100
AcDbEntity
  8
LAY-1
  6
CONTINUOUS
 62
     2
100
AcDbLine
 10
2684.5
 20
2145.0
 30
0.0
 11
2682.5
 21
2130.0
 31
0.0
  0
LINE
  5
19E
100
AcDbEntity
  8
LAY-1
  6
CONTINUOUS
 62
     2
100
AcDbLine
 10
2688.5
 20
2150.0
 30
0.0
 11
2684.5
 21
2145.0
 31
0.0
  0
ARC
  5
19F
100
AcDbEntity
  8
LAY-1
  6
CONTINUOUS
 62
     2
100
AcDbCircle
 10
2692.5
 20
2174.5
 30
0.0
 40
4.0
100
AcDbArc
 50
0.0
 51
180.0
  0
LINE
  5
1A0
100
AcDbEntity
  8
LAY-1
  6
CONTINUOUS
 62
     2
100
AcDbLine
 10
2688.5
 20
2174.5
 30
0.0
 11
2688.5
 21
2150.0
 31
0.0
  0
LINE
  5
1A1
100
AcDbEntity
  8
LAY-1
  6
CONTINUOUS
 62
     2
100
AcDbLine
 10
2696.5
 20
2174.5
 30
0.0
 11
2696.5
 21
2150.0
 31
0.0
  0
LINE
  5
1A2
100
AcDbEntity
  8
LAY-1
  6
CONTINUOUS
 62
     2
100
AcDbLine
 10
2358.5
 20
1967.0
 30
0.0
 11
2478.5
 21
1967.0
 31
0.0
  0
LINE
  5
1A3
100
AcDbEntity
  8
LAY-1
  6
CONTINUOUS
 62
     2
100
AcDbLine
 10
2358.5
 20
1933.0
 30
0.0
 11
2478.5
 21
1933.0
 31
0.0
  0
LINE
  5
1A4
100
AcDbEntity
  8
LAY-1
  6
CONTINUOUS
 62
     2
100
AcDbLine
 10
2453.241359
 20
2001.4
 30
0.0
 11
2478.5
 21
2001.4
 31
0.0
  0
LINE
  5
1A5
100
AcDbEntity
  8
LAY-1
  6
CONTINUOUS
 62
     2
100
AcDbLine
 10
2452.389116
 20
2028.6
 30
0.0
 11
2478.5
 21
2028.6
 31
0.0
  0
LINE
  5
1A6
100
AcDbEntity
  8
LAY-1
  6
CONTINUOUS
 62
     2
100
AcDbLine
 10
2358.5
 20
2028.6
 30
0.0
 11
2412.610884
 21
2028.6
 31
0.0
  0
LINE
  5
1A7
100
AcDbEntity
  8
LAY-1
  6
CONTINUOUS
 62
     2
100
AcDbLine
 10
2358.5
 20
2001.4
 30
0.0
 11
2411.758641
 21
2001.4
 31
0.0
  0
LINE
  5
1A8
100
AcDbEntity
  8
LAY-1
  6
CONTINUOUS
 62
     2
100
AcDbLine
 10
2832.5
 20
1830.0
 30
0.0
 11
2986.5
 21
1830.0
 31
0.0
  0
LINE
  5
1A9
100
AcDbEntity
  8
LAY-1
  6
CONTINUOUS
 62
     2
100
AcDbLine
 10
2792.5
 20
1891.319549
 30
0.0
 11
2792.5
 21
1830.0
 31
0.0
  0
LINE
  5
1AA
100
AcDbEntity
  8
LAY-1
  6
CONTINUOUS
 62
     2
100
AcDbLine
 10
2832.5
 20
1891.319549
 30
0.0
 11
2832.5
 21
1830.0
 31
0.0
  0
LINE
  5
1AB
100
AcDbEntity
  8
LAY-1
  6
CONTINUOUS
 62
     2
100
AcDbLine
 10
2478.5
 20
1830.0
 30
0.0
 11
2792.5
 21
1830.0
 31
0.0
  0
LINE
  5
1AC
100
AcDbEntity
  8
LAY-1
  6
CONTINUOUS
 62
     2
100
AcDbLine
 10
2478.5
 20
2130.0
 30
0.0
 11
2478.5
 21
1830.0
 31
0.0
  0
LINE
  5
1AD
100
AcDbEntity
  8
LAY-1
  6
CONTINUOUS
 62
     2
100
AcDbLine
 10
2986.5
 20
2130.0
 30
0.0
 11
2986.5
 21
1830.0
 31
0.0
  0
LINE
  5
1AE
100
AcDbEntity
  8
LAY-1
  6
CONTINUOUS
 62
     2
100
AcDbLine
 10
2478.5
 20
2130.0
 30
0.0
 11
2986.5
 21
2130.0
 31
0.0
  0
CIRCLE
  5
1AF
100
AcDbEntity
  8
LAY-1
  6
CONTINUOUS
 62
     2
100
AcDbCircle
 10
3806.5
 20
1550.0
 30
0.0
 40
28.0
  0
CIRCLE
  5
1B0
100
AcDbEntity
  8
LAY-1
  6
CONTINUOUS
 62
     2
100
AcDbCircle
 10
3806.5
 20
1550.0
 30
0.0
 40
30.0
  0
ARC
  5
1B1
100
AcDbEntity
  8
LAY-1
  6
CONTINUOUS
 62
     2
100
AcDbCircle
 10
3806.5
 20
1550.0
 30
0.0
 40
2.5
100
AcDbArc
 50
248.578178
 51
21.421822
  0
LINE
  5
1B2
100
AcDbEntity
  8
LAY-1
  6
CONTINUOUS
 62
     2
100
AcDbLine
 10
3787.181483
 20
1544.823619
 30
0.0
 11
3783.31778
 21
1543.788343
 31
0.0
  0
LINE
  5
1B3
100
AcDbEntity
  8
LAY-1
  6
CONTINUOUS
 62
     2
100
AcDbLine
 10
3787.181483
 20
1555.176381
 30
0.0
 11
3783.31778
 21
1556.211657
 31
0.0
  0
LINE
  5
1B4
100
AcDbEntity
  8
LAY-1
  6
CONTINUOUS
 62
     2
100
AcDbLine
 10
3792.357864
 20
1564.142136
 30
0.0
 11
3789.529437
 21
1566.970563
 31
0.0
  0
LINE
  5
1B5
100
AcDbEntity
  8
LAY-1
  6
CONTINUOUS
 62
     2
100
AcDbLine
 10
3801.323619
 20
1569.318517
 30
0.0
 11
3800.288343
 21
1573.18222
 31
0.0
  0
LINE
  5
1B6
100
AcDbEntity
  8
LAY-1
  6
CONTINUOUS
 62
     2
100
AcDbLine
 10
3811.676381
 20
1569.318517
 30
0.0
 11
3812.711657
 21
1573.18222
 31
0.0
  0
LINE
  5
1B7
100
AcDbEntity
  8
LAY-1
  6
CONTINUOUS
 62
     2
100
AcDbLine
 10
3820.642136
 20
1564.142136
 30
0.0
 11
3823.470563
 21
1566.970563
 31
0.0
  0
LINE
  5
1B8
100
AcDbEntity
  8
LAY-1
  6
CONTINUOUS
 62
     2
100
AcDbLine
 10
3825.818517
 20
1555.176381
 30
0.0
 11
3829.68222
 21
1556.211657
 31
0.0
  0
LINE
  5
1B9
100
AcDbEntity
  8
LAY-1
  6
CONTINUOUS
 62
     2
100
AcDbLine
 10
3825.818517
 20
1544.823619
 30
0.0
 11
3829.68222
 21
1543.788343
 31
0.0
  0
ARC
  5
1BA
100
AcDbEntity
  8
LAY-1
  6
CONTINUOUS
 62
     2
100
AcDbCircle
 10
3806.5
 20
1550.0
 30
0.0
 40
20.0
100
AcDbArc
 50
315.0
 51
225.0
  0
LINE
  5
1BB
100
AcDbEntity
  8
LAY-1
  6
CONTINUOUS
 62
     2
100
AcDbLine
 10
3820.642136
 20
1535.857864
 30
0.0
 11
3823.470563
 21
1533.029437
 31
0.0
  0
ARC
  5
1BC
100
AcDbEntity
  8
LAY-1
  6
CONTINUOUS
 62
     2
100
AcDbCircle
 10
3806.5
 20
1550.0
 30
0.0
 40
24.0
100
AcDbArc
 50
315.0
 51
225.0
  0
LINE
  5
1BD
100
AcDbEntity
  8
LAY-1
  6
CONTINUOUS
 62
     2
100
AcDbLine
 10
3789.529437
 20
1533.029437
 30
0.0
 11
3805.586922
 21
1547.672708
 31
0.0
  0
LINE
  5
1BE
100
AcDbEntity
  8
LAY-1
  6
CONTINUOUS
 62
     2
100
AcDbLine
 10
3804.172708
 20
1549.086922
 30
0.0
 11
3789.529437
 21
1533.029437
 31
0.0
  0
LINE
  5
1BF
100
AcDbEntity
  8
LAY-1
  6
CONTINUOUS
 62
     2
100
AcDbLine
 10
3808.827292
 20
1550.913078
 30
0.0
 11
3817.091215
 21
1555.641468
 31
0.0
  0
LINE
  5
1C0
100
AcDbEntity
  8
LAY-1
  6
CONTINUOUS
 62
     2
100
AcDbLine
 10
3812.141468
 20
1560.591215
 30
0.0
 11
3807.413078
 21
1552.327292
 31
0.0
  0
ARC
  5
1C1
100
AcDbEntity
  8
LAY-1
  6
CONTINUOUS
 62
     2
100
AcDbCircle
 10
3806.5
 20
1550.0
 30
0.0
 40
12.0
100
AcDbArc
 50
28.042237
 51
61.957763
  0
ARC
  5
1C2
100
AcDbEntity
  8
LAY-1
  6
CONTINUOUS
 62
     2
100
AcDbCircle
 10
3806.5
 20
1550.0
 30
0.0
 40
2.5
100
AcDbArc
 50
68.578178
 51
201.421822
  0
LINE
  5
1C3
100
AcDbEntity
  8
LAY-1
  6
CONTINUOUS
 62
     2
100
AcDbLine
 10
4051.5
 20
1258.0
 30
0.0
 11
3561.5
 21
1258.0
 31
0.0
  0
ARC
  5
1C4
100
AcDbEntity
  8
LAY-1
  6
CONTINUOUS
 62
     2
100
AcDbCircle
 10
3528.4905
 20
1932.607714
 30
0.0
 40
3.896364
100
AcDbArc
 50
312.232219
 51
58.953252
  0
ARC
  5
1C5
100
AcDbEntity
  8
LAY-1
  6
CONTINUOUS
 62
     2
100
AcDbCircle
 10
3518.065435
 20
1919.283674
 30
0.0
 40
15.065629
100
AcDbArc
 50
328.353731
 51
32.377391
  0
ARC
  5
1C6
100
AcDbEntity
  8
LAY-1
  6
CONTINUOUS
 62
     2
100
AcDbCircle
 10
3518.065435
 20
1900.716326
 30
0.0
 40
15.065629
100
AcDbArc
 50
327.622609
 51
31.646269
  0
ARC
  5
1C7
100
AcDbEntity
  8
LAY-1
  6
CONTINUOUS
 62
     2
100
AcDbCircle
 10
3528.4905
 20
1887.392286
 30
0.0
 40
3.896364
100
AcDbArc
 50
301.046748
 51
47.767781
  0
ARC
  5
1C8
100
AcDbEntity
  8
LAY-1
  6
CONTINUOUS
 62
     2
100
AcDbCircle
 10
3579.75
 20
1910.0
 30
0.0
 40
36.25
100
AcDbArc
 50
170.472717
 51
189.527283
  0
ARC
  5
1C9
100
AcDbEntity
  8
LAY-1
  6
CONTINUOUS
 62
     2
100
AcDbCircle
 10
3551.3125
 20
1918.75
 30
0.0
 40
7.8125
100
AcDbArc
 50
159.390307
 51
200.609693
  0
LINE
  5
1CA
100
AcDbEntity
  8
LAY-1
  6
CONTINUOUS
 62
     2
100
AcDbLine
 10
3544.0
 20
1904.0
 30
0.0
 11
3549.5
 21
1904.0
 31
0.0
  0
LINE
  5
1CB
100
AcDbEntity
  8
LAY-1
  6
CONTINUOUS
 62
     2
100
AcDbLine
 10
3544.0
 20
1916.0
 30
0.0
 11
3549.5
 21
1916.0
 31
0.0
  0
LINE
  5
1CC
100
AcDbEntity
  8
LAY-1
  6
CONTINUOUS
 62
     2
100
AcDbLine
 10
3544.0
 20
1921.5
 30
0.0
 11
3549.5
 21
1921.5
 31
0.0
  0
LINE
  5
1CD
100
AcDbEntity
  8
LAY-1
  6
CONTINUOUS
 62
     2
100
AcDbLine
 10
3543.5
 20
1901.25
 30
0.0
 11
3543.5
 21
1918.75
 31
0.0
  0
LINE
  5
1CE
100
AcDbEntity
  8
LAY-1
  6
CONTINUOUS
 62
     2
100
AcDbLine
 10
3540.5
 20
1913.0
 30
0.0
 11
3543.5
 21
1913.0
 31
0.0
  0
LINE
  5
1CF
100
AcDbEntity
  8
LAY-1
  6
CONTINUOUS
 62
     2
100
AcDbLine
 10
3540.5
 20
1907.0
 30
0.0
 11
3543.5
 21
1907.0
 31
0.0
  0
LINE
  5
1D0
100
AcDbEntity
  8
LAY-1
  6
CONTINUOUS
 62
     2
100
AcDbLine
 10
3549.5
 20
1901.5
 30
0.0
 11
3550.5
 21
1901.5
 31
0.0
  0
LINE
  5
1D1
100
AcDbEntity
  8
LAY-1
  6
CONTINUOUS
 62
     2
100
AcDbLine
 10
3549.5
 20
1918.5
 30
0.0
 11
3550.5
 21
1918.5
 31
0.0
  0
LINE
  5
1D2
100
AcDbEntity
  8
LAY-1
  6
CONTINUOUS
 62
     2
100
AcDbLine
 10
3550.5
 20
1923.0
 30
0.0
 11
3557.5
 21
1923.0
 31
0.0
  0
LINE
  5
1D3
100
AcDbEntity
  8
LAY-1
  6
CONTINUOUS
 62
     2
100
AcDbLine
 10
3533.128562
 20
1907.371438
 30
0.0
 11
3540.5
 21
1907.371438
 31
0.0
  0
LINE
  5
1D4
100
AcDbEntity
  8
LAY-1
  6
CONTINUOUS
 62
     2
100
AcDbLine
 10
3533.128562
 20
1912.628562
 30
0.0
 11
3540.5
 21
1912.628562
 31
0.0
  0
ARC
  5
1D5
100
AcDbEntity
  8
LAY-1
  6
CONTINUOUS
 62
     2
100
AcDbCircle
 10
3533.128562
 20
1910.0
 30
0.0
 40
2.628562
100
AcDbArc
 50
90.0
 51
270.0
  0
LINE
  5
1D6
100
AcDbEntity
  8
LAY-1
  6
CONTINUOUS
 62
     2
100
AcDbLine
 10
3532.054089
 20
1937.5
 30
0.0
 11
3540.0
 21
1937.5
 31
0.0
  0
ARC
  5
1D7
100
AcDbEntity
  8
LAY-1
  6
CONTINUOUS
 62
     2
100
AcDbCircle
 10
3532.054089
 20
1935.945911
 30
0.0
 40
1.554089
100
AcDbArc
 50
90.0
 51
180.0
  0
LINE
  5
1D8
100
AcDbEntity
  8
LAY-1
  6
CONTINUOUS
 62
     2
100
AcDbLine
 10
3530.5
 20
1935.945911
 30
0.0
 11
3540.5
 21
1935.945911
 31
0.0
  0
LINE
  5
1D9
100
AcDbEntity
  8
LAY-1
  6
CONTINUOUS
 62
     2
100
AcDbLine
 10
3532.358674
 20
1926.487855
 30
0.0
 11
3540.5
 21
1926.487855
 31
0.0
  0
LINE
  5
1DA
100
AcDbEntity
  8
LAY-1
  6
CONTINUOUS
 62
     2
100
AcDbLine
 10
3532.358674
 20
1930.205204
 30
0.0
 11
3540.5
 21
1930.205204
 31
0.0
  0
ARC
  5
1DB
100
AcDbEntity
  8
LAY-1
  6
CONTINUOUS
 62
     2
100
AcDbCircle
 10
3532.358674
 20
1928.34653
 30
0.0
 40
1.858674
100
AcDbArc
 50
90.0
 51
270.0
  0
ARC
  5
1DC
100
AcDbEntity
  8
LAY-1
  6
CONTINUOUS
 62
     2
100
AcDbCircle
 10
3540.0
 20
1937.0
 30
0.0
 40
0.5
100
AcDbArc
 50
0.0
 51
90.0
  0
LINE
  5
1DD
100
AcDbEntity
  8
LAY-1
  6
CONTINUOUS
 62
     2
100
AcDbLine
 10
3544.0
 20
1898.5
 30
0.0
 11
3549.5
 21
1898.5
 31
0.0
  0
LINE
  5
1DE
100
AcDbEntity
  8
LAY-1
  6
CONTINUOUS
 62
     2
100
AcDbLine
 10
3550.5
 20
1897.0
 30
0.0
 11
3557.5
 21
1897.0
 31
0.0
  0
LINE
  5
1DF
100
AcDbEntity
  8
LAY-1
  6
CONTINUOUS
 62
     2
100
AcDbLine
 10
3532.054089
 20
1882.5
 30
0.0
 11
3540.0
 21
1882.5
 31
0.0
  0
LINE
  5
1E0
100
AcDbEntity
  8
LAY-1
  6
CONTINUOUS
 62
     2
100
AcDbLine
 10
3532.358674
 20
1893.512145
 30
0.0
 11
3540.5
 21
1893.512145
 31
0.0
  0
LINE
  5
1E1
100
AcDbEntity
  8
LAY-1
  6
CONTINUOUS
 62
     2
100
AcDbLine
 10
3532.358674
 20
1889.794796
 30
0.0
 11
3540.5
 21
1889.794796
 31
0.0
  0
LINE
  5
1E2
100
AcDbEntity
  8
LAY-1
  6
CONTINUOUS
 62
     2
100
AcDbLine
 10
3530.5
 20
1884.054089
 30
0.0
 11
3540.5
 21
1884.054089
 31
0.0
  0
ARC
  5
1E3
100
AcDbEntity
  8
LAY-1
  6
CONTINUOUS
 62
     2
100
AcDbCircle
 10
3532.358674
 20
1891.65347
 30
0.0
 40
1.858674
100
AcDbArc
 50
90.0
 51
270.0
  0
ARC
  5
1E4
100
AcDbEntity
  8
LAY-1
  6
CONTINUOUS
 62
     2
100
AcDbCircle
 10
3532.054089
 20
1884.054089
 30
0.0
 40
1.554089
100
AcDbArc
 50
180.0
 51
270.0
  0
ARC
  5
1E5
100
AcDbEntity
  8
LAY-1
  6
CONTINUOUS
 62
     2
100
AcDbCircle
 10
3540.0
 20
1883.0
 30
0.0
 40
0.5
100
AcDbArc
 50
270.0
 51
0.0
  0
LINE
  5
1E6
100
AcDbEntity
  8
LAY-1
  6
CONTINUOUS
 62
     2
100
AcDbLine
 10
3549.5
 20
1898.5
 30
0.0
 11
3549.5
 21
1921.5
 31
0.0
  0
ARC
  5
1E7
100
AcDbEntity
  8
LAY-1
  6
CONTINUOUS
 62
     2
100
AcDbCircle
 10
3551.3125
 20
1901.25
 30
0.0
 40
7.8125
100
AcDbArc
 50
159.390307
 51
200.609693
  0
LINE
  5
1E8
100
AcDbEntity
  8
LAY-1
  6
CONTINUOUS
 62
     2
100
AcDbLine
 10
3550.5
 20
1897.0
 30
0.0
 11
3550.5
 21
1923.0
 31
0.0
  0
LINE
  5
1E9
100
AcDbEntity
  8
LAY-1
  6
CONTINUOUS
 62
     2
100
AcDbLine
 10
3530.5
 20
1884.054089
 30
0.0
 11
3530.5
 21
1935.945911
 31
0.0
  0
LINE
  5
1EA
100
AcDbEntity
  8
LAY-1
  6
CONTINUOUS
 62
     2
100
AcDbLine
 10
3540.5
 20
1883.0
 30
0.0
 11
3540.5
 21
1937.0
 31
0.0
  0
CIRCLE
  5
1EB
100
AcDbEntity
  8
LAY-1
  6
CONTINUOUS
 62
     2
100
AcDbCircle
 10
3719.69392
 20
1918.75
 30
0.0
 40
1.5
  0
CIRCLE
  5
1EC
100
AcDbEntity
  8
LAY-1
  6
CONTINUOUS
 62
     2
100
AcDbCircle
 10
3793.30608
 20
1918.75
 30
0.0
 40
1.5
  0
CIRCLE
  5
1ED
100
AcDbEntity
  8
LAY-1
  6
CONTINUOUS
 62
     2
100
AcDbCircle
 10
3756.5
 20
1982.5
 30
0.0
 40
1.5
  0
CIRCLE
  5
1EE
100
AcDbEntity
  8
LAY-1
  6
CONTINUOUS
 62
     2
100
AcDbCircle
 10
3756.5
 20
1940.0
 30
0.0
 40
47.5
  0
CIRCLE
  5
1EF
100
AcDbEntity
  8
LAY-1
  6
CONTINUOUS
 62
     2
100
AcDbCircle
 10
3756.5
 20
1940.0
 30
0.0
 40
35.5
  0
CIRCLE
  5
1F0
100
AcDbEntity
  8
LAY-1
  6
CONTINUOUS
 62
     2
100
AcDbCircle
 10
3756.5
 20
1940.0
 30
0.0
 40
37.5
  0
CIRCLE
  5
1F1
100
AcDbEntity
  8
LAY-1
  6
CONTINUOUS
 62
     2
100
AcDbCircle
 10
3893.30608
 20
1918.75
 30
0.0
 40
1.5
  0
CIRCLE
  5
1F2
100
AcDbEntity
  8
LAY-1
  6
CONTINUOUS
 62
     2
100
AcDbCircle
 10
3819.69392
 20
1918.75
 30
0.0
 40
1.5
  0
CIRCLE
  5
1F3
100
AcDbEntity
  8
LAY-1
  6
CONTINUOUS
 62
     2
100
AcDbCircle
 10
3856.5
 20
1982.5
 30
0.0
 40
1.5
  0
CIRCLE
  5
1F4
100
AcDbEntity
  8
LAY-1
  6
CONTINUOUS
 62
     2
100
AcDbCircle
 10
3856.5
 20
1940.0
 30
0.0
 40
35.5
  0
CIRCLE
  5
1F5
100
AcDbEntity
  8
LAY-1
  6
CONTINUOUS
 62
     2
100
AcDbCircle
 10
3856.5
 20
1940.0
 30
0.0
 40
47.5
  0
CIRCLE
  5
1F6
100
AcDbEntity
  8
LAY-1
  6
CONTINUOUS
 62
     2
100
AcDbCircle
 10
3856.5
 20
1940.0
 30
0.0
 40
37.5
  0
ARC
  5
1F7
100
AcDbEntity
  8
LAY-1
  6
CONTINUOUS
 62
     2
100
AcDbCircle
 10
3716.5
 20
1977.5
 30
0.0
 40
15.0
100
AcDbArc
 50
90.0
 51
180.0
  0
ARC
  5
1F8
100
AcDbEntity
  8
LAY-1
  6
CONTINUOUS
 62
     2
100
AcDbCircle
 10
3716.5
 20
1902.5
 30
0.0
 40
15.0
100
AcDbArc
 50
180.0
 51
270.0
  0
ARC
  5
1F9
100
AcDbEntity
  8
LAY-1
  6
CONTINUOUS
 62
     2
100
AcDbCircle
 10
3896.5
 20
1902.5
 30
0.0
 40
15.0
100
AcDbArc
 50
270.0
 51
0.0
  0
ARC
  5
1FA
100
AcDbEntity
  8
LAY-1
  6
CONTINUOUS
 62
     2
100
AcDbCircle
 10
3896.5
 20
1977.5
 30
0.0
 40
15.0
100
AcDbArc
 50
0.0
 51
90.0
  0
LINE
  5
1FB
100
AcDbEntity
  8
LAY-1
  6
CONTINUOUS
 62
     2
100
AcDbLine
 10
3701.5
 20
1977.5
 30
0.0
 11
3701.5
 21
1902.5
 31
0.0
  0
LINE
  5
1FC
100
AcDbEntity
  8
LAY-1
  6
CONTINUOUS
 62
     2
100
AcDbLine
 10
3911.5
 20
1977.5
 30
0.0
 11
3911.5
 21
1902.5
 31
0.0
  0
LINE
  5
1FD
100
AcDbEntity
  8
LAY-1
  6
CONTINUOUS
 62
     2
100
AcDbLine
 10
3896.5
 20
1992.5
 30
0.0
 11
3716.5
 21
1992.5
 31
0.0
  0
LINE
  5
1FE
100
AcDbEntity
  8
LAY-1
  6
CONTINUOUS
 62
     2
100
AcDbLine
 10
3896.5
 20
1887.5
 30
0.0
 11
3716.5
 21
1887.5
 31
0.0
  0
POLYLINE
  5
1FF
100
AcDbEntity
  8
LAY-1
  6
CONTINUOUS
 62
     2
100
AcDb2dPolyline
 66
     1
 10
0.0
 20
0.0
 30
0.0
 70
   128
  0
VERTEX
  5
200
100
AcDbEntity
  8
LAY-1
  6
CONTINUOUS
 62
     2
100
AcDbVertex
100
AcDb2dVertex
 10
3755.907001
 20
1938.089934
 30
0.0
  0
VERTEX
  5
201
100
AcDbEntity
  8
LAY-1
  6
CONTINUOUS
 62
     2
100
AcDbVertex
100
AcDb2dVertex
 10
3738.468777
 20
1921.968777
 30
0.0
  0
SEQEND
  5
202
100
AcDbEntity
  8
LAY-1
  6
CONTINUOUS
 62
     2
  0
ARC
  5
203
100
AcDbEntity
  8
LAY-1
  6
CONTINUOUS
 62
     2
100
AcDbCircle
 10
3756.5
 20
1940.0
 30
0.0
 40
2.0
100
AcDbArc
 50
252.75253
 51
7.896801
  0
POLYLINE
  5
204
100
AcDbEntity
  8
LAY-1
  6
CONTINUOUS
 62
     2
100
AcDb2dPolyline
 66
     1
 10
0.0
 20
0.0
 30
0.0
 70
   128
  0
VERTEX
  5
205
100
AcDbEntity
  8
LAY-1
  6
CONTINUOUS
 62
     2
100
AcDbVertex
100
AcDb2dVertex
 10
3772.223453
 20
1950.971727
 30
0.0
  0
VERTEX
  5
206
100
AcDbEntity
  8
LAY-1
  6
CONTINUOUS
 62
     2
100
AcDbVertex
100
AcDb2dVertex
 10
3758.481034
 20
1940.274778
 30
0.0
  0
SEQEND
  5
207
100
AcDbEntity
  8
LAY-1
  6
CONTINUOUS
 62
     2
  0
ARC
  5
208
100
AcDbEntity
  8
LAY-1
  6
CONTINUOUS
 62
     2
100
AcDbCircle
 10
3771.609212
 20
1951.760846
 30
0.0
 40
1.0
100
AcDbArc
 50
307.896801
 51
45.0
  0
POLYLINE
  5
209
100
AcDbEntity
  8
LAY-1
  6
CONTINUOUS
 62
     2
100
AcDb2dPolyline
 66
     1
 10
0.0
 20
0.0
 30
0.0
 70
   128
  0
VERTEX
  5
20A
100
AcDbEntity
  8
LAY-1
  6
CONTINUOUS
 62
     2
100
AcDbVertex
100
AcDb2dVertex
 10
3768.967953
 20
1955.816319
 30
0.0
  0
VERTEX
  5
20B
100
AcDbEntity
  8
LAY-1
  6
CONTINUOUS
 62
     2
100
AcDbVertex
100
AcDb2dVertex
 10
3772.316319
 20
1952.467953
 30
0.0
  0
SEQEND
  5
20C
100
AcDbEntity
  8
LAY-1
  6
CONTINUOUS
 62
     2
  0
ARC
  5
20D
100
AcDbEntity
  8
LAY-1
  6
CONTINUOUS
 62
     2
100
AcDbCircle
 10
3768.260846
 20
1955.109212
 30
0.0
 40
1.0
100
AcDbArc
 50
45.0
 51
142.103199
  0
POLYLINE
  5
20E
100
AcDbEntity
  8
LAY-1
  6
CONTINUOUS
 62
     2
100
AcDb2dPolyline
 66
     1
 10
0.0
 20
0.0
 30
0.0
 70
   128
  0
VERTEX
  5
20F
100
AcDbEntity
  8
LAY-1
  6
CONTINUOUS
 62
     2
100
AcDbVertex
100
AcDb2dVertex
 10
3756.774778
 20
1941.981034
 30
0.0
  0
VERTEX
  5
210
100
AcDbEntity
  8
LAY-1
  6
CONTINUOUS
 62
     2
100
AcDbVertex
100
AcDb2dVertex
 10
3767.471727
 20
1955.723453
 30
0.0
  0
SEQEND
  5
211
100
AcDbEntity
  8
LAY-1
  6
CONTINUOUS
 62
     2
  0
ARC
  5
212
100
AcDbEntity
  8
LAY-1
  6
CONTINUOUS
 62
     2
100
AcDbCircle
 10
3756.5
 20
1940.0
 30
0.0
 40
2.0
100
AcDbArc
 50
82.103199
 51
197.24747
  0
POLYLINE
  5
213
100
AcDbEntity
  8
LAY-1
  6
CONTINUOUS
 62
     2
100
AcDb2dPolyline
 66
     1
 10
0.0
 20
0.0
 30
0.0
 70
   128
  0
VERTEX
  5
214
100
AcDbEntity
  8
LAY-1
  6
CONTINUOUS
 62
     2
100
AcDbVertex
100
AcDb2dVertex
 10
3738.468777
 20
1921.968777
 30
0.0
  0
VERTEX
  5
215
100
AcDbEntity
  8
LAY-1
  6
CONTINUOUS
 62
     2
100
AcDbVertex
100
AcDb2dVertex
 10
3754.589934
 20
1939.407001
 30
0.0
  0
SEQEND
  5
216
100
AcDbEntity
  8
LAY-1
  6
CONTINUOUS
 62
     2
  0
CIRCLE
  5
217
100
AcDbEntity
  8
LAY-1
  6
CONTINUOUS
 62
     2
100
AcDbCircle
 10
3756.5
 20
1940.0
 30
0.0
 40
1.0
  0
LINE
  5
218
100
AcDbEntity
  8
LAY-1
  6
CONTINUOUS
 62
     2
100
AcDbLine
 10
3774.531223
 20
1958.031223
 30
0.0
 11
3778.066757
 21
1961.566757
 31
0.0
  0
LINE
  5
219
100
AcDbEntity
  8
LAY-1
  6
CONTINUOUS
 62
     2
100
AcDbLine
 10
3738.468777
 20
1958.031223
 30
0.0
 11
3734.933243
 21
1961.566757
 31
0.0
  0
LINE
  5
21A
100
AcDbEntity
  8
LAY-1
  6
CONTINUOUS
 62
     2
100
AcDbLine
 10
3774.531223
 20
1921.968777
 30
0.0
 11
3778.066757
 21
1918.433243
 31
0.0
  0
LINE
  5
21B
100
AcDbEntity
  8
LAY-1
  6
CONTINUOUS
 62
     2
100
AcDbLine
 10
3738.468777
 20
1921.968777
 30
0.0
 11
3734.933243
 21
1918.433243
 31
0.0
  0
ARC
  5
21C
100
AcDbEntity
  8
LAY-1
  6
CONTINUOUS
 62
     2
100
AcDbCircle
 10
3756.5
 20
1940.0
 30
0.0
 40
25.5
100
AcDbArc
 50
315.0
 51
225.0
  0
ARC
  5
21D
100
AcDbEntity
  8
LAY-1
  6
CONTINUOUS
 62
     2
100
AcDbCircle
 10
3756.5
 20
1940.0
 30
0.0
 40
30.5
100
AcDbArc
 50
315.0
 51
225.0
  0
POLYLINE
  5
21E
100
AcDbEntity
  8
LAY-1
  6
CONTINUOUS
 62
     2
100
AcDb2dPolyline
 66
     1
 10
0.0
 20
0.0
 30
0.0
 70
   128
  0
VERTEX
  5
21F
100
AcDbEntity
  8
LAY-1
  6
CONTINUOUS
 62
     2
100
AcDbVertex
100
AcDb2dVertex
 10
3855.907001
 20
1938.089934
 30
0.0
  0
VERTEX
  5
220
100
AcDbEntity
  8
LAY-1
  6
CONTINUOUS
 62
     2
100
AcDbVertex
100
AcDb2dVertex
 10
3838.468777
 20
1921.968777
 30
0.0
  0
SEQEND
  5
221
100
AcDbEntity
  8
LAY-1
  6
CONTINUOUS
 62
     2
  0
ARC
  5
222
100
AcDbEntity
  8
LAY-1
  6
CONTINUOUS
 62
     2
100
AcDbCircle
 10
3856.5
 20
1940.0
 30
0.0
 40
2.0
100
AcDbArc
 50
252.75253
 51
7.896801
  0
POLYLINE
  5
223
100
AcDbEntity
  8
LAY-1
  6
CONTINUOUS
 62
     2
100
AcDb2dPolyline
 66
     1
 10
0.0
 20
0.0
 30
0.0
 70
   128
  0
VERTEX
  5
224
100
AcDbEntity
  8
LAY-1
  6
CONTINUOUS
 62
     2
100
AcDbVertex
100
AcDb2dVertex
 10
3872.223453
 20
1950.971727
 30
0.0
  0
VERTEX
  5
225
100
AcDbEntity
  8
LAY-1
  6
CONTINUOUS
 62
     2
100
AcDbVertex
100
AcDb2dVertex
 10
3858.481034
 20
1940.274778
 30
0.0
  0
SEQEND
  5
226
100
AcDbEntity
  8
LAY-1
  6
CONTINUOUS
 62
     2
  0
ARC
  5
227
100
AcDbEntity
  8
LAY-1
  6
CONTINUOUS
 62
     2
100
AcDbCircle
 10
3871.609212
 20
1951.760846
 30
0.0
 40
1.0
100
AcDbArc
 50
307.896801
 51
45.0
  0
POLYLINE
  5
228
100
AcDbEntity
  8
LAY-1
  6
CONTINUOUS
 62
     2
100
AcDb2dPolyline
 66
     1
 10
0.0
 20
0.0
 30
0.0
 70
   128
  0
VERTEX
  5
229
100
AcDbEntity
  8
LAY-1
  6
CONTINUOUS
 62
     2
100
AcDbVertex
100
AcDb2dVertex
 10
3868.967953
 20
1955.816319
 30
0.0
  0
VERTEX
  5
22A
100
AcDbEntity
  8
LAY-1
  6
CONTINUOUS
 62
     2
100
AcDbVertex
100
AcDb2dVertex
 10
3872.316319
 20
1952.467953
 30
0.0
  0
SEQEND
  5
22B
100
AcDbEntity
  8
LAY-1
  6
CONTINUOUS
 62
     2
  0
ARC
  5
22C
100
AcDbEntity
  8
LAY-1
  6
CONTINUOUS
 62
     2
100
AcDbCircle
 10
3868.260846
 20
1955.109212
 30
0.0
 40
1.0
100
AcDbArc
 50
45.0
 51
142.103199
  0
POLYLINE
  5
22D
100
AcDbEntity
  8
LAY-1
  6
CONTINUOUS
 62
     2
100
AcDb2dPolyline
 66
     1
 10
0.0
 20
0.0
 30
0.0
 70
   128
  0
VERTEX
  5
22E
100
AcDbEntity
  8
LAY-1
  6
CONTINUOUS
 62
     2
100
AcDbVertex
100
AcDb2dVertex
 10
3856.774778
 20
1941.981034
 30
0.0
  0
VERTEX
  5
22F
100
AcDbEntity
  8
LAY-1
  6
CONTINUOUS
 62
     2
100
AcDbVertex
100
AcDb2dVertex
 10
3867.471727
 20
1955.723453
 30
0.0
  0
SEQEND
  5
230
100
AcDbEntity
  8
LAY-1
  6
CONTINUOUS
 62
     2
  0
ARC
  5
231
100
AcDbEntity
  8
LAY-1
  6
CONTINUOUS
 62
     2
100
AcDbCircle
 10
3856.5
 20
1940.0
 30
0.0
 40
2.0
100
AcDbArc
 50
82.103199
 51
197.24747
  0
POLYLINE
  5
232
100
AcDbEntity
  8
LAY-1
  6
CONTINUOUS
 62
     2
100
AcDb2dPolyline
 66
     1
 10
0.0
 20
0.0
 30
0.0
 70
   128
  0
VERTEX
  5
233
100
AcDbEntity
  8
LAY-1
  6
CONTINUOUS
 62
     2
100
AcDbVertex
100
AcDb2dVertex
 10
3838.468777
 20
1921.968777
 30
0.0
  0
VERTEX
  5
234
100
AcDbEntity
  8
LAY-1
  6
CONTINUOUS
 62
     2
100
AcDbVertex
100
AcDb2dVertex
 10
3854.589934
 20
1939.407001
 30
0.0
  0
SEQEND
  5
235
100
AcDbEntity
  8
LAY-1
  6
CONTINUOUS
 62
     2
  0
CIRCLE
  5
236
100
AcDbEntity
  8
LAY-1
  6
CONTINUOUS
 62
     2
100
AcDbCircle
 10
3856.5
 20
1940.0
 30
0.0
 40
1.0
  0
LINE
  5
237
100
AcDbEntity
  8
LAY-1
  6
CONTINUOUS
 62
     2
100
AcDbLine
 10
3838.468777
 20
1958.031223
 30
0.0
 11
3834.933243
 21
1961.566757
 31
0.0
  0
LINE
  5
238
100
AcDbEntity
  8
LAY-1
  6
CONTINUOUS
 62
     2
100
AcDbLine
 10
3874.531223
 20
1958.031223
 30
0.0
 11
3878.066757
 21
1961.566757
 31
0.0
  0
LINE
  5
239
100
AcDbEntity
  8
LAY-1
  6
CONTINUOUS
 62
     2
100
AcDbLine
 10
3838.468777
 20
1921.968777
 30
0.0
 11
3834.933243
 21
1918.433243
 31
0.0
  0
LINE
  5
23A
100
AcDbEntity
  8
LAY-1
  6
CONTINUOUS
 62
     2
100
AcDbLine
 10
3874.531223
 20
1921.968777
 30
0.0
 11
3878.066757
 21
1918.433243
 31
0.0
  0
ARC
  5
23B
100
AcDbEntity
  8
LAY-1
  6
CONTINUOUS
 62
     2
100
AcDbCircle
 10
3856.5
 20
1940.0
 30
0.0
 40
25.5
100
AcDbArc
 50
315.0
 51
225.0
  0
ARC
  5
23C
100
AcDbEntity
  8
LAY-1
  6
CONTINUOUS
 62
     2
100
AcDbCircle
 10
3856.5
 20
1940.0
 30
0.0
 40
30.5
100
AcDbArc
 50
315.0
 51
225.0
  0
ARC
  5
23D
100
AcDbEntity
  8
LAY-1
  6
CONTINUOUS
 62
     2
100
AcDbCircle
 10
3660.25
 20
1927.0
 30
0.0
 40
4.0
100
AcDbArc
 50
0.0
 51
180.0
  0
ARC
  5
23E
100
AcDbEntity
  8
LAY-1
  6
CONTINUOUS
 62
     2
100
AcDbCircle
 10
3660.25
 20
1889.0
 30
0.0
 40
4.0
100
AcDbArc
 50
180.0
 51
0.0
  0
LINE
  5
23F
100
AcDbEntity
  8
LAY-1
  6
CONTINUOUS
 62
     2
100
AcDbLine
 10
3656.25
 20
1927.0
 30
0.0
 11
3656.25
 21
1889.0
 31
0.0
  0
LINE
  5
240
100
AcDbEntity
  8
LAY-1
  6
CONTINUOUS
 62
     2
100
AcDbLine
 10
3664.25
 20
1927.0
 30
0.0
 11
3664.25
 21
1889.0
 31
0.0
  0
ARC
  5
241
100
AcDbEntity
  8
LAY-1
  6
CONTINUOUS
 62
     2
100
AcDbCircle
 10
3660.25
 20
2007.0
 30
0.0
 40
4.0
100
AcDbArc
 50
0.0
 51
180.0
  0
ARC
  5
242
100
AcDbEntity
  8
LAY-1
  6
CONTINUOUS
 62
     2
100
AcDbCircle
 10
3660.25
 20
1969.0
 30
0.0
 40
4.0
100
AcDbArc
 50
180.0
 51
0.0
  0
LINE
  5
243
100
AcDbEntity
  8
LAY-1
  6
CONTINUOUS
 62
     2
100
AcDbLine
 10
3656.25
 20
2007.0
 30
0.0
 11
3656.25
 21
1969.0
 31
0.0
  0
LINE
  5
244
100
AcDbEntity
  8
LAY-1
  6
CONTINUOUS
 62
     2
100
AcDbLine
 10
3664.25
 20
2007.0
 30
0.0
 11
3664.25
 21
1969.0
 31
0.0
  0
ARC
  5
245
100
AcDbEntity
  8
LAY-1
  6
CONTINUOUS
 62
     2
100
AcDbCircle
 10
3930.25
 20
1927.0
 30
0.0
 40
4.0
100
AcDbArc
 50
0.0
 51
180.0
  0
ARC
  5
246
100
AcDbEntity
  8
LAY-1
  6
CONTINUOUS
 62
     2
100
AcDbCircle
 10
3930.25
 20
1889.0
 30
0.0
 40
4.0
100
AcDbArc
 50
180.0
 51
0.0
  0
LINE
  5
247
100
AcDbEntity
  8
LAY-1
  6
CONTINUOUS
 62
     2
100
AcDbLine
 10
3934.25
 20
1927.0
 30
0.0
 11
3934.25
 21
1889.0
 31
0.0
  0
LINE
  5
248
100
AcDbEntity
  8
LAY-1
  6
CONTINUOUS
 62
     2
100
AcDbLine
 10
3926.25
 20
1927.0
 30
0.0
 11
3926.25
 21
1889.0
 31
0.0
  0
ARC
  5
249
100
AcDbEntity
  8
LAY-1
  6
CONTINUOUS
 62
     2
100
AcDbCircle
 10
3930.25
 20
2007.0
 30
0.0
 40
4.0
100
AcDbArc
 50
0.0
 51
180.0
  0
ARC
  5
24A
100
AcDbEntity
  8
LAY-1
  6
CONTINUOUS
 62
     2
100
AcDbCircle
 10
3930.25
 20
1969.0
 30
0.0
 40
4.0
100
AcDbArc
 50
180.0
 51
0.0
  0
LINE
  5
24B
100
AcDbEntity
  8
LAY-1
  6
CONTINUOUS
 62
     2
100
AcDbLine
 10
3934.25
 20
2007.0
 30
0.0
 11
3934.25
 21
1969.0
 31
0.0
  0
LINE
  5
24C
100
AcDbEntity
  8
LAY-1
  6
CONTINUOUS
 62
     2
100
AcDbLine
 10
3926.25
 20
2007.0
 30
0.0
 11
3926.25
 21
1969.0
 31
0.0
  0
ARC
  5
24D
100
AcDbEntity
  8
LAY-1
  6
CONTINUOUS
 62
     2
100
AcDbCircle
 10
3997.75
 20
2087.0
 30
0.0
 40
4.0
100
AcDbArc
 50
0.0
 51
180.0
  0
ARC
  5
24E
100
AcDbEntity
  8
LAY-1
  6
CONTINUOUS
 62
     2
100
AcDbCircle
 10
3997.75
 20
2049.0
 30
0.0
 40
4.0
100
AcDbArc
 50
180.0
 51
0.0
  0
LINE
  5
24F
100
AcDbEntity
  8
LAY-1
  6
CONTINUOUS
 62
     2
100
AcDbLine
 10
4001.75
 20
2087.0
 30
0.0
 11
4001.75
 21
2049.0
 31
0.0
  0
LINE
  5
250
100
AcDbEntity
  8
LAY-1
  6
CONTINUOUS
 62
     2
100
AcDbLine
 10
3993.75
 20
2087.0
 30
0.0
 11
3993.75
 21
2049.0
 31
0.0
  0
ARC
  5
251
100
AcDbEntity
  8
LAY-1
  6
CONTINUOUS
 62
     2
100
AcDbCircle
 10
3682.75
 20
1927.0
 30
0.0
 40
4.0
100
AcDbArc
 50
0.0
 51
180.0
  0
ARC
  5
252
100
AcDbEntity
  8
LAY-1
  6
CONTINUOUS
 62
     2
100
AcDbCircle
 10
3682.75
 20
1889.0
 30
0.0
 40
4.0
100
AcDbArc
 50
180.0
 51
0.0
  0
LINE
  5
253
100
AcDbEntity
  8
LAY-1
  6
CONTINUOUS
 62
     2
100
AcDbLine
 10
3678.75
 20
1927.0
 30
0.0
 11
3678.75
 21
1889.0
 31
0.0
  0
LINE
  5
254
100
AcDbEntity
  8
LAY-1
  6
CONTINUOUS
 62
     2
100
AcDbLine
 10
3686.75
 20
1927.0
 30
0.0
 11
3686.75
 21
1889.0
 31
0.0
  0
ARC
  5
255
100
AcDbEntity
  8
LAY-1
  6
CONTINUOUS
 62
     2
100
AcDbCircle
 10
3682.75
 20
2007.0
 30
0.0
 40
4.0
100
AcDbArc
 50
0.0
 51
180.0
  0
ARC
  5
256
100
AcDbEntity
  8
LAY-1
  6
CONTINUOUS
 62
     2
100
AcDbCircle
 10
3682.75
 20
1969.0
 30
0.0
 40
4.0
100
AcDbArc
 50
180.0
 51
0.0
  0
LINE
  5
257
100
AcDbEntity
  8
LAY-1
  6
CONTINUOUS
 62
     2
100
AcDbLine
 10
3678.75
 20
2007.0
 30
0.0
 11
3678.75
 21
1969.0
 31
0.0
  0
LINE
  5
258
100
AcDbEntity
  8
LAY-1
  6
CONTINUOUS
 62
     2
100
AcDbLine
 10
3686.75
 20
2007.0
 30
0.0
 11
3686.75
 21
1969.0
 31
0.0
  0
ARC
  5
259
100
AcDbEntity
  8
LAY-1
  6
CONTINUOUS
 62
     2
100
AcDbCircle
 10
3952.75
 20
1927.0
 30
0.0
 40
4.0
100
AcDbArc
 50
0.0
 51
180.0
  0
ARC
  5
25A
100
AcDbEntity
  8
LAY-1
  6
CONTINUOUS
 62
     2
100
AcDbCircle
 10
3952.75
 20
1889.0
 30
0.0
 40
4.0
100
AcDbArc
 50
180.0
 51
0.0
  0
LINE
  5
25B
100
AcDbEntity
  8
LAY-1
  6
CONTINUOUS
 62
     2
100
AcDbLine
 10
3956.75
 20
1927.0
 30
0.0
 11
3956.75
 21
1889.0
 31
0.0
  0
LINE
  5
25C
100
AcDbEntity
  8
LAY-1
  6
CONTINUOUS
 62
     2
100
AcDbLine
 10
3948.75
 20
1927.0
 30
0.0
 11
3948.75
 21
1889.0
 31
0.0
  0
ARC
  5
25D
100
AcDbEntity
  8
LAY-1
  6
CONTINUOUS
 62
     2
100
AcDbCircle
 10
3975.25
 20
1927.0
 30
0.0
 40
4.0
100
AcDbArc
 50
0.0
 51
180.0
  0
ARC
  5
25E
100
AcDbEntity
  8
LAY-1
  6
CONTINUOUS
 62
     2
100
AcDbCircle
 10
3975.25
 20
1889.0
 30
0.0
 40
4.0
100
AcDbArc
 50
180.0
 51
0.0
  0
LINE
  5
25F
100
AcDbEntity
  8
LAY-1
  6
CONTINUOUS
 62
     2
100
AcDbLine
 10
3979.25
 20
1927.0
 30
0.0
 11
3979.25
 21
1889.0
 31
0.0
  0
LINE
  5
260
100
AcDbEntity
  8
LAY-1
  6
CONTINUOUS
 62
     2
100
AcDbLine
 10
3971.25
 20
1927.0
 30
0.0
 11
3971.25
 21
1889.0
 31
0.0
  0
ARC
  5
261
100
AcDbEntity
  8
LAY-1
  6
CONTINUOUS
 62
     2
100
AcDbCircle
 10
3997.75
 20
1927.0
 30
0.0
 40
4.0
100
AcDbArc
 50
0.0
 51
180.0
  0
ARC
  5
262
100
AcDbEntity
  8
LAY-1
  6
CONTINUOUS
 62
     2
100
AcDbCircle
 10
3997.75
 20
1889.0
 30
0.0
 40
4.0
100
AcDbArc
 50
180.0
 51
0.0
  0
LINE
  5
263
100
AcDbEntity
  8
LAY-1
  6
CONTINUOUS
 62
     2
100
AcDbLine
 10
4001.75
 20
1927.0
 30
0.0
 11
4001.75
 21
1889.0
 31
0.0
  0
LINE
  5
264
100
AcDbEntity
  8
LAY-1
  6
CONTINUOUS
 62
     2
100
AcDbLine
 10
3993.75
 20
1927.0
 30
0.0
 11
3993.75
 21
1889.0
 31
0.0
  0
ARC
  5
265
100
AcDbEntity
  8
LAY-1
  6
CONTINUOUS
 62
     2
100
AcDbCircle
 10
3952.75
 20
2007.0
 30
0.0
 40
4.0
100
AcDbArc
 50
0.0
 51
180.0
  0
ARC
  5
266
100
AcDbEntity
  8
LAY-1
  6
CONTINUOUS
 62
     2
100
AcDbCircle
 10
3952.75
 20
1969.0
 30
0.0
 40
4.0
100
AcDbArc
 50
180.0
 51
0.0
  0
LINE
  5
267
100
AcDbEntity
  8
LAY-1
  6
CONTINUOUS
 62
     2
100
AcDbLine
 10
3956.75
 20
2007.0
 30
0.0
 11
3956.75
 21
1969.0
 31
0.0
  0
LINE
  5
268
100
AcDbEntity
  8
LAY-1
  6
CONTINUOUS
 62
     2
100
AcDbLine
 10
3948.75
 20
2007.0
 30
0.0
 11
3948.75
 21
1969.0
 31
0.0
  0
ARC
  5
269
100
AcDbEntity
  8
LAY-1
  6
CONTINUOUS
 62
     2
100
AcDbCircle
 10
3975.25
 20
2007.0
 30
0.0
 40
4.0
100
AcDbArc
 50
0.0
 51
180.0
  0
ARC
  5
26A
100
AcDbEntity
  8
LAY-1
  6
CONTINUOUS
 62
     2
100
AcDbCircle
 10
3975.25
 20
1969.0
 30
0.0
 40
4.0
100
AcDbArc
 50
180.0
 51
0.0
  0
LINE
  5
26B
100
AcDbEntity
  8
LAY-1
  6
CONTINUOUS
 62
     2
100
AcDbLine
 10
3979.25
 20
2007.0
 30
0.0
 11
3979.25
 21
1969.0
 31
0.0
  0
LINE
  5
26C
100
AcDbEntity
  8
LAY-1
  6
CONTINUOUS
 62
     2
100
AcDbLine
 10
3971.25
 20
2007.0
 30
0.0
 11
3971.25
 21
1969.0
 31
0.0
  0
ARC
  5
26D
100
AcDbEntity
  8
LAY-1
  6
CONTINUOUS
 62
     2
100
AcDbCircle
 10
3997.75
 20
2007.0
 30
0.0
 40
4.0
100
AcDbArc
 50
0.0
 51
180.0
  0
ARC
  5
26E
100
AcDbEntity
  8
LAY-1
  6
CONTINUOUS
 62
     2
100
AcDbCircle
 10
3997.75
 20
1969.0
 30
0.0
 40
4.0
100
AcDbArc
 50
180.0
 51
0.0
  0
LINE
  5
26F
100
AcDbEntity
  8
LAY-1
  6
CONTINUOUS
 62
     2
100
AcDbLine
 10
4001.75
 20
2007.0
 30
0.0
 11
4001.75
 21
1969.0
 31
0.0
  0
LINE
  5
270
100
AcDbEntity
  8
LAY-1
  6
CONTINUOUS
 62
     2
100
AcDbLine
 10
3993.75
 20
2007.0
 30
0.0
 11
3993.75
 21
1969.0
 31
0.0
  0
ARC
  5
271
100
AcDbEntity
  8
LAY-1
  6
CONTINUOUS
 62
     2
100
AcDbCircle
 10
3615.25
 20
2087.0
 30
0.0
 40
4.0
100
AcDbArc
 50
0.0
 51
180.0
  0
ARC
  5
272
100
AcDbEntity
  8
LAY-1
  6
CONTINUOUS
 62
     2
100
AcDbCircle
 10
3615.25
 20
2049.0
 30
0.0
 40
4.0
100
AcDbArc
 50
180.0
 51
0.0
  0
LINE
  5
273
100
AcDbEntity
  8
LAY-1
  6
CONTINUOUS
 62
     2
100
AcDbLine
 10
3619.25
 20
2087.0
 30
0.0
 11
3619.25
 21
2049.0
 31
0.0
  0
LINE
  5
274
100
AcDbEntity
  8
LAY-1
  6
CONTINUOUS
 62
     2
100
AcDbLine
 10
3611.25
 20
2087.0
 30
0.0
 11
3611.25
 21
2049.0
 31
0.0
  0
ARC
  5
275
100
AcDbEntity
  8
LAY-1
  6
CONTINUOUS
 62
     2
100
AcDbCircle
 10
3637.75
 20
2087.0
 30
0.0
 40
4.0
100
AcDbArc
 50
0.0
 51
180.0
  0
ARC
  5
276
100
AcDbEntity
  8
LAY-1
  6
CONTINUOUS
 62
     2
100
AcDbCircle
 10
3637.75
 20
2049.0
 30
0.0
 40
4.0
100
AcDbArc
 50
180.0
 51
0.0
  0
LINE
  5
277
100
AcDbEntity
  8
LAY-1
  6
CONTINUOUS
 62
     2
100
AcDbLine
 10
3641.75
 20
2087.0
 30
0.0
 11
3641.75
 21
2049.0
 31
0.0
  0
LINE
  5
278
100
AcDbEntity
  8
LAY-1
  6
CONTINUOUS
 62
     2
100
AcDbLine
 10
3633.75
 20
2087.0
 30
0.0
 11
3633.75
 21
2049.0
 31
0.0
  0
ARC
  5
279
100
AcDbEntity
  8
LAY-1
  6
CONTINUOUS
 62
     2
100
AcDbCircle
 10
3660.25
 20
2087.0
 30
0.0
 40
4.0
100
AcDbArc
 50
0.0
 51
180.0
  0
ARC
  5
27A
100
AcDbEntity
  8
LAY-1
  6
CONTINUOUS
 62
     2
100
AcDbCircle
 10
3660.25
 20
2049.0
 30
0.0
 40
4.0
100
AcDbArc
 50
180.0
 51
0.0
  0
LINE
  5
27B
100
AcDbEntity
  8
LAY-1
  6
CONTINUOUS
 62
     2
100
AcDbLine
 10
3664.25
 20
2087.0
 30
0.0
 11
3664.25
 21
2049.0
 31
0.0
  0
LINE
  5
27C
100
AcDbEntity
  8
LAY-1
  6
CONTINUOUS
 62
     2
100
AcDbLine
 10
3656.25
 20
2087.0
 30
0.0
 11
3656.25
 21
2049.0
 31
0.0
  0
ARC
  5
27D
100
AcDbEntity
  8
LAY-1
  6
CONTINUOUS
 62
     2
100
AcDbCircle
 10
3682.75
 20
2087.0
 30
0.0
 40
4.0
100
AcDbArc
 50
0.0
 51
180.0
  0
ARC
  5
27E
100
AcDbEntity
  8
LAY-1
  6
CONTINUOUS
 62
     2
100
AcDbCircle
 10
3682.75
 20
2049.0
 30
0.0
 40
4.0
100
AcDbArc
 50
180.0
 51
0.0
  0
LINE
  5
27F
100
AcDbEntity
  8
LAY-1
  6
CONTINUOUS
 62
     2
100
AcDbLine
 10
3686.75
 20
2087.0
 30
0.0
 11
3686.75
 21
2049.0
 31
0.0
  0
LINE
  5
280
100
AcDbEntity
  8
LAY-1
  6
CONTINUOUS
 62
     2
100
AcDbLine
 10
3678.75
 20
2087.0
 30
0.0
 11
3678.75
 21
2049.0
 31
0.0
  0
ARC
  5
281
100
AcDbEntity
  8
LAY-1
  6
CONTINUOUS
 62
     2
100
AcDbCircle
 10
3705.25
 20
2087.0
 30
0.0
 40
4.0
100
AcDbArc
 50
0.0
 51
180.0
  0
ARC
  5
282
100
AcDbEntity
  8
LAY-1
  6
CONTINUOUS
 62
     2
100
AcDbCircle
 10
3705.25
 20
2049.0
 30
0.0
 40
4.0
100
AcDbArc
 50
180.0
 51
0.0
  0
LINE
  5
283
100
AcDbEntity
  8
LAY-1
  6
CONTINUOUS
 62
     2
100
AcDbLine
 10
3709.25
 20
2087.0
 30
0.0
 11
3709.25
 21
2049.0
 31
0.0
  0
LINE
  5
284
100
AcDbEntity
  8
LAY-1
  6
CONTINUOUS
 62
     2
100
AcDbLine
 10
3701.25
 20
2087.0
 30
0.0
 11
3701.25
 21
2049.0
 31
0.0
  0
ARC
  5
285
100
AcDbEntity
  8
LAY-1
  6
CONTINUOUS
 62
     2
100
AcDbCircle
 10
3727.75
 20
2087.0
 30
0.0
 40
4.0
100
AcDbArc
 50
0.0
 51
180.0
  0
ARC
  5
286
100
AcDbEntity
  8
LAY-1
  6
CONTINUOUS
 62
     2
100
AcDbCircle
 10
3727.75
 20
2049.0
 30
0.0
 40
4.0
100
AcDbArc
 50
180.0
 51
0.0
  0
LINE
  5
287
100
AcDbEntity
  8
LAY-1
  6
CONTINUOUS
 62
     2
100
AcDbLine
 10
3731.75
 20
2087.0
 30
0.0
 11
3731.75
 21
2049.0
 31
0.0
  0
LINE
  5
288
100
AcDbEntity
  8
LAY-1
  6
CONTINUOUS
 62
     2
100
AcDbLine
 10
3723.75
 20
2087.0
 30
0.0
 11
3723.75
 21
2049.0
 31
0.0
  0
ARC
  5
289
100
AcDbEntity
  8
LAY-1
  6
CONTINUOUS
 62
     2
100
AcDbCircle
 10
3750.25
 20
2087.0
 30
0.0
 40
4.0
100
AcDbArc
 50
0.0
 51
180.0
  0
ARC
  5
28A
100
AcDbEntity
  8
LAY-1
  6
CONTINUOUS
 62
     2
100
AcDbCircle
 10
3750.25
 20
2049.0
 30
0.0
 40
4.0
100
AcDbArc
 50
180.0
 51
0.0
  0
LINE
  5
28B
100
AcDbEntity
  8
LAY-1
  6
CONTINUOUS
 62
     2
100
AcDbLine
 10
3754.25
 20
2087.0
 30
0.0
 11
3754.25
 21
2049.0
 31
0.0
  0
LINE
  5
28C
100
AcDbEntity
  8
LAY-1
  6
CONTINUOUS
 62
     2
100
AcDbLine
 10
3746.25
 20
2087.0
 30
0.0
 11
3746.25
 21
2049.0
 31
0.0
  0
ARC
  5
28D
100
AcDbEntity
  8
LAY-1
  6
CONTINUOUS
 62
     2
100
AcDbCircle
 10
3772.75
 20
2087.0
 30
0.0
 40
4.0
100
AcDbArc
 50
0.0
 51
180.0
  0
ARC
  5
28E
100
AcDbEntity
  8
LAY-1
  6
CONTINUOUS
 62
     2
100
AcDbCircle
 10
3772.75
 20
2049.0
 30
0.0
 40
4.0
100
AcDbArc
 50
180.0
 51
0.0
  0
LINE
  5
28F
100
AcDbEntity
  8
LAY-1
  6
CONTINUOUS
 62
     2
100
AcDbLine
 10
3776.75
 20
2087.0
 30
0.0
 11
3776.75
 21
2049.0
 31
0.0
  0
LINE
  5
290
100
AcDbEntity
  8
LAY-1
  6
CONTINUOUS
 62
     2
100
AcDbLine
 10
3768.75
 20
2087.0
 30
0.0
 11
3768.75
 21
2049.0
 31
0.0
  0
ARC
  5
291
100
AcDbEntity
  8
LAY-1
  6
CONTINUOUS
 62
     2
100
AcDbCircle
 10
3795.25
 20
2087.0
 30
0.0
 40
4.0
100
AcDbArc
 50
0.0
 51
180.0
  0
ARC
  5
292
100
AcDbEntity
  8
LAY-1
  6
CONTINUOUS
 62
     2
100
AcDbCircle
 10
3795.25
 20
2049.0
 30
0.0
 40
4.0
100
AcDbArc
 50
180.0
 51
0.0
  0
LINE
  5
293
100
AcDbEntity
  8
LAY-1
  6
CONTINUOUS
 62
     2
100
AcDbLine
 10
3799.25
 20
2087.0
 30
0.0
 11
3799.25
 21
2049.0
 31
0.0
  0
LINE
  5
294
100
AcDbEntity
  8
LAY-1
  6
CONTINUOUS
 62
     2
100
AcDbLine
 10
3791.25
 20
2087.0
 30
0.0
 11
3791.25
 21
2049.0
 31
0.0
  0
ARC
  5
295
100
AcDbEntity
  8
LAY-1
  6
CONTINUOUS
 62
     2
100
AcDbCircle
 10
3817.75
 20
2087.0
 30
0.0
 40
4.0
100
AcDbArc
 50
0.0
 51
180.0
  0
ARC
  5
296
100
AcDbEntity
  8
LAY-1
  6
CONTINUOUS
 62
     2
100
AcDbCircle
 10
3817.75
 20
2049.0
 30
0.0
 40
4.0
100
AcDbArc
 50
180.0
 51
0.0
  0
LINE
  5
297
100
AcDbEntity
  8
LAY-1
  6
CONTINUOUS
 62
     2
100
AcDbLine
 10
3821.75
 20
2087.0
 30
0.0
 11
3821.75
 21
2049.0
 31
0.0
  0
LINE
  5
298
100
AcDbEntity
  8
LAY-1
  6
CONTINUOUS
 62
     2
100
AcDbLine
 10
3813.75
 20
2087.0
 30
0.0
 11
3813.75
 21
2049.0
 31
0.0
  0
ARC
  5
299
100
AcDbEntity
  8
LAY-1
  6
CONTINUOUS
 62
     2
100
AcDbCircle
 10
3840.25
 20
2087.0
 30
0.0
 40
4.0
100
AcDbArc
 50
0.0
 51
180.0
  0
ARC
  5
29A
100
AcDbEntity
  8
LAY-1
  6
CONTINUOUS
 62
     2
100
AcDbCircle
 10
3840.25
 20
2049.0
 30
0.0
 40
4.0
100
AcDbArc
 50
180.0
 51
0.0
  0
LINE
  5
29B
100
AcDbEntity
  8
LAY-1
  6
CONTINUOUS
 62
     2
100
AcDbLine
 10
3844.25
 20
2087.0
 30
0.0
 11
3844.25
 21
2049.0
 31
0.0
  0
LINE
  5
29C
100
AcDbEntity
  8
LAY-1
  6
CONTINUOUS
 62
     2
100
AcDbLine
 10
3836.25
 20
2087.0
 30
0.0
 11
3836.25
 21
2049.0
 31
0.0
  0
ARC
  5
29D
100
AcDbEntity
  8
LAY-1
  6
CONTINUOUS
 62
     2
100
AcDbCircle
 10
3862.75
 20
2087.0
 30
0.0
 40
4.0
100
AcDbArc
 50
0.0
 51
180.0
  0
ARC
  5
29E
100
AcDbEntity
  8
LAY-1
  6
CONTINUOUS
 62
     2
100
AcDbCircle
 10
3862.75
 20
2049.0
 30
0.0
 40
4.0
100
AcDbArc
 50
180.0
 51
0.0
  0
LINE
  5
29F
100
AcDbEntity
  8
LAY-1
  6
CONTINUOUS
 62
     2
100
AcDbLine
 10
3866.75
 20
2087.0
 30
0.0
 11
3866.75
 21
2049.0
 31
0.0
  0
LINE
  5
2A0
100
AcDbEntity
  8
LAY-1
  6
CONTINUOUS
 62
     2
100
AcDbLine
 10
3858.75
 20
2087.0
 30
0.0
 11
3858.75
 21
2049.0
 31
0.0
  0
ARC
  5
2A1
100
AcDbEntity
  8
LAY-1
  6
CONTINUOUS
 62
     2
100
AcDbCircle
 10
3885.25
 20
2087.0
 30
0.0
 40
4.0
100
AcDbArc
 50
0.0
 51
180.0
  0
ARC
  5
2A2
100
AcDbEntity
  8
LAY-1
  6
CONTINUOUS
 62
     2
100
AcDbCircle
 10
3885.25
 20
2049.0
 30
0.0
 40
4.0
100
AcDbArc
 50
180.0
 51
0.0
  0
LINE
  5
2A3
100
AcDbEntity
  8
LAY-1
  6
CONTINUOUS
 62
     2
100
AcDbLine
 10
3889.25
 20
2087.0
 30
0.0
 11
3889.25
 21
2049.0
 31
0.0
  0
LINE
  5
2A4
100
AcDbEntity
  8
LAY-1
  6
CONTINUOUS
 62
     2
100
AcDbLine
 10
3881.25
 20
2087.0
 30
0.0
 11
3881.25
 21
2049.0
 31
0.0
  0
ARC
  5
2A5
100
AcDbEntity
  8
LAY-1
  6
CONTINUOUS
 62
     2
100
AcDbCircle
 10
3907.75
 20
2087.0
 30
0.0
 40
4.0
100
AcDbArc
 50
0.0
 51
180.0
  0
ARC
  5
2A6
100
AcDbEntity
  8
LAY-1
  6
CONTINUOUS
 62
     2
100
AcDbCircle
 10
3907.75
 20
2049.0
 30
0.0
 40
4.0
100
AcDbArc
 50
180.0
 51
0.0
  0
LINE
  5
2A7
100
AcDbEntity
  8
LAY-1
  6
CONTINUOUS
 62
     2
100
AcDbLine
 10
3911.75
 20
2087.0
 30
0.0
 11
3911.75
 21
2049.0
 31
0.0
  0
LINE
  5
2A8
100
AcDbEntity
  8
LAY-1
  6
CONTINUOUS
 62
     2
100
AcDbLine
 10
3903.75
 20
2087.0
 30
0.0
 11
3903.75
 21
2049.0
 31
0.0
  0
ARC
  5
2A9
100
AcDbEntity
  8
LAY-1
  6
CONTINUOUS
 62
     2
100
AcDbCircle
 10
3930.25
 20
2087.0
 30
0.0
 40
4.0
100
AcDbArc
 50
0.0
 51
180.0
  0
ARC
  5
2AA
100
AcDbEntity
  8
LAY-1
  6
CONTINUOUS
 62
     2
100
AcDbCircle
 10
3930.25
 20
2049.0
 30
0.0
 40
4.0
100
AcDbArc
 50
180.0
 51
0.0
  0
LINE
  5
2AB
100
AcDbEntity
  8
LAY-1
  6
CONTINUOUS
 62
     2
100
AcDbLine
 10
3934.25
 20
2087.0
 30
0.0
 11
3934.25
 21
2049.0
 31
0.0
  0
LINE
  5
2AC
100
AcDbEntity
  8
LAY-1
  6
CONTINUOUS
 62
     2
100
AcDbLine
 10
3926.25
 20
2087.0
 30
0.0
 11
3926.25
 21
2049.0
 31
0.0
  0
ARC
  5
2AD
100
AcDbEntity
  8
LAY-1
  6
CONTINUOUS
 62
     2
100
AcDbCircle
 10
3952.75
 20
2087.0
 30
0.0
 40
4.0
100
AcDbArc
 50
0.0
 51
180.0
  0
ARC
  5
2AE
100
AcDbEntity
  8
LAY-1
  6
CONTINUOUS
 62
     2
100
AcDbCircle
 10
3952.75
 20
2049.0
 30
0.0
 40
4.0
100
AcDbArc
 50
180.0
 51
0.0
  0
LINE
  5
2AF
100
AcDbEntity
  8
LAY-1
  6
CONTINUOUS
 62
     2
100
AcDbLine
 10
3956.75
 20
2087.0
 30
0.0
 11
3956.75
 21
2049.0
 31
0.0
  0
LINE
  5
2B0
100
AcDbEntity
  8
LAY-1
  6
CONTINUOUS
 62
     2
100
AcDbLine
 10
3948.75
 20
2087.0
 30
0.0
 11
3948.75
 21
2049.0
 31
0.0
  0
LINE
  5
2B1
100
AcDbEntity
  8
LAY-1
  6
CONTINUOUS
 62
     2
100
AcDbLine
 10
3971.25
 20
2087.0
 30
0.0
 11
3971.25
 21
2049.0
 31
0.0
  0
LINE
  5
2B2
100
AcDbEntity
  8
LAY-1
  6
CONTINUOUS
 62
     2
100
AcDbLine
 10
3979.25
 20
2087.0
 30
0.0
 11
3979.25
 21
2049.0
 31
0.0
  0
ARC
  5
2B3
100
AcDbEntity
  8
LAY-1
  6
CONTINUOUS
 62
     2
100
AcDbCircle
 10
3975.25
 20
2087.0
 30
0.0
 40
4.0
100
AcDbArc
 50
0.0
 51
180.0
  0
ARC
  5
2B4
100
AcDbEntity
  8
LAY-1
  6
CONTINUOUS
 62
     2
100
AcDbCircle
 10
3975.25
 20
2049.0
 30
0.0
 40
4.0
100
AcDbArc
 50
180.0
 51
0.0
  0
LINE
  5
2B5
100
AcDbEntity
  8
LAY-1
  6
CONTINUOUS
 62
     2
100
AcDbLine
 10
3631.5
 20
1987.5
 30
0.0
 11
3621.5
 21
1987.5
 31
0.0
  0
LINE
  5
2B6
100
AcDbEntity
  8
LAY-1
  6
CONTINUOUS
 62
     2
100
AcDbLine
 10
3621.5
 20
1987.5
 30
0.0
 11
3621.5
 21
1881.043561
 31
0.0
  0
LINE
  5
2B7
100
AcDbEntity
  8
LAY-1
  6
CONTINUOUS
 62
     2
100
AcDbLine
 10
3631.5
 20
1987.5
 30
0.0
 11
3631.5
 21
1881.043561
 31
0.0
  0
ARC
  5
2B8
100
AcDbEntity
  8
LAY-1
  6
CONTINUOUS
 62
     2
100
AcDbCircle
 10
3626.5
 20
1892.5
 30
0.0
 40
12.5
100
AcDbArc
 50
180.0
 51
0.0
  0
ARC
  5
2B9
100
AcDbEntity
  8
LAY-1
  6
CONTINUOUS
 62
     2
100
AcDbCircle
 10
3626.5
 20
1987.5
 30
0.0
 40
12.5
100
AcDbArc
 50
0.0
 51
180.0
  0
LINE
  5
2BA
100
AcDbEntity
  8
LAY-1
  6
CONTINUOUS
 62
     2
100
AcDbLine
 10
3614.0
 20
1987.5
 30
0.0
 11
3614.0
 21
1892.5
 31
0.0
  0
LINE
  5
2BB
100
AcDbEntity
  8
LAY-1
  6
CONTINUOUS
 62
     2
100
AcDbLine
 10
3639.0
 20
1987.5
 30
0.0
 11
3639.0
 21
1892.5
 31
0.0
  0
LINE
  5
2BC
100
AcDbEntity
  8
LAY-1
  6
CONTINUOUS
 62
     2
100
AcDbLine
 10
3937.1
 20
2145.0
 30
0.0
 11
3937.1
 21
2131.6
 31
0.0
  0
LINE
  5
2BD
100
AcDbEntity
  8
LAY-1
  6
CONTINUOUS
 62
     2
100
AcDbLine
 10
3962.265029
 20
2145.0
 30
0.0
 11
3962.265029
 21
2131.6
 31
0.0
  0
LINE
  5
2BE
100
AcDbEntity
  8
LAY-1
  6
CONTINUOUS
 62
     2
100
AcDbLine
 10
3962.265029
 20
2145.0
 30
0.0
 11
3937.1
 21
2145.0
 31
0.0
  0
LINE
  5
2BF
100
AcDbEntity
  8
LAY-1
  6
CONTINUOUS
 62
     2
100
AcDbLine
 10
3963.865029
 20
2146.6
 30
0.0
 11
3935.5
 21
2146.6
 31
0.0
  0
LINE
  5
2C0
100
AcDbEntity
  8
LAY-1
  6
CONTINUOUS
 62
     2
100
AcDbLine
 10
3935.5
 20
2146.6
 30
0.0
 11
3935.5
 21
2133.2
 31
0.0
  0
LINE
  5
2C1
100
AcDbEntity
  8
LAY-1
  6
CONTINUOUS
 62
     2
100
AcDbLine
 10
3963.865029
 20
2146.6
 30
0.0
 11
3963.865029
 21
2133.2
 31
0.0
  0
LINE
  5
2C2
100
AcDbEntity
  8
LAY-1
  6
CONTINUOUS
 62
     2
100
AcDbLine
 10
4020.5
 20
2131.6
 30
0.0
 11
3880.5
 21
2131.6
 31
0.0
  0
LINE
  5
2C3
100
AcDbEntity
  8
LAY-1
  6
CONTINUOUS
 62
     2
100
AcDbLine
 10
3880.5
 20
2131.6
 30
0.0
 11
3880.5
 21
2130.0
 31
0.0
  0
LINE
  5
2C4
100
AcDbEntity
  8
LAY-1
  6
CONTINUOUS
 62
     2
100
AcDbLine
 10
3935.5
 20
2133.2
 30
0.0
 11
3925.5
 21
2133.2
 31
0.0
  0
LINE
  5
2C5
100
AcDbEntity
  8
LAY-1
  6
CONTINUOUS
 62
     2
100
AcDbLine
 10
3975.5
 20
2133.2
 30
0.0
 11
3963.865029
 21
2133.2
 31
0.0
  0
LINE
  5
2C6
100
AcDbEntity
  8
LAY-1
  6
CONTINUOUS
 62
     2
100
AcDbLine
 10
3925.5
 20
2133.2
 30
0.0
 11
3925.5
 21
2131.6
 31
0.0
  0
LINE
  5
2C7
100
AcDbEntity
  8
LAY-1
  6
CONTINUOUS
 62
     2
100
AcDbLine
 10
3975.5
 20
2133.2
 30
0.0
 11
3975.5
 21
2131.6
 31
0.0
  0
LINE
  5
2C8
100
AcDbEntity
  8
LAY-1
  6
CONTINUOUS
 62
     2
100
AcDbLine
 10
4020.5
 20
2131.6
 30
0.0
 11
4020.5
 21
2130.0
 31
0.0
  0
LINE
  5
2C9
100
AcDbEntity
  8
LAY-1
  6
CONTINUOUS
 62
     2
100
AcDbLine
 10
3650.65
 20
2375.921447
 30
0.0
 11
3682.35
 21
2375.921447
 31
0.0
  0
LINE
  5
2CA
100
AcDbEntity
  8
LAY-1
  6
CONTINUOUS
 62
     2
100
AcDbLine
 10
3650.65
 20
2410.921447
 30
0.0
 11
3682.35
 21
2410.921447
 31
0.0
  0
LINE
  5
2CB
100
AcDbEntity
  8
LAY-1
  6
CONTINUOUS
 62
     2
100
AcDbLine
 10
3682.35
 20
2410.921447
 30
0.0
 11
3682.35
 21
2375.921447
 31
0.0
  0
LINE
  5
2CC
100
AcDbEntity
  8
LAY-1
  6
CONTINUOUS
 62
     2
100
AcDbLine
 10
3650.65
 20
2410.921447
 30
0.0
 11
3650.65
 21
2375.921447
 31
0.0
  0
LINE
  5
2CD
100
AcDbEntity
  8
LAY-1
  6
CONTINUOUS
 62
     2
100
AcDbLine
 10
3569.242987
 20
2147.178734
 30
0.0
 11
3581.757013
 21
2147.178734
 31
0.0
  0
ARC
  5
2CE
100
AcDbEntity
  8
LAY-1
  6
CONTINUOUS
 62
     2
100
AcDbCircle
 10
3575.5
 20
2158.0
 30
0.0
 40
12.5
100
AcDbArc
 50
300.037123
 51
239.962877
  0
ARC
  5
2CF
100
AcDbEntity
  8
LAY-1
  6
CONTINUOUS
 62
     2
100
AcDbCircle
 10
3575.5
 20
2158.0
 30
0.0
 40
20.5
100
AcDbArc
 50
295.233094
 51
244.766906
  0
LINE
  5
2D0
100
AcDbEntity
  8
LAY-1
  6
CONTINUOUS
 62
     2
100
AcDbLine
 10
3583.5
 20
2145.0
 30
0.0
 11
3567.5
 21
2145.0
 31
0.0
  0
LINE
  5
2D1
100
AcDbEntity
  8
LAY-1
  6
CONTINUOUS
 62
     2
100
AcDbLine
 10
3567.5
 20
2145.0
 30
0.0
 11
3565.5
 21
2130.0
 31
0.0
  0
LINE
  5
2D2
100
AcDbEntity
  8
LAY-1
  6
CONTINUOUS
 62
     2
100
AcDbLine
 10
3569.242987
 20
2147.178734
 30
0.0
 11
3567.5
 21
2145.0
 31
0.0
  0
LINE
  5
2D3
100
AcDbEntity
  8
LAY-1
  6
CONTINUOUS
 62
     2
100
AcDbLine
 10
3583.5
 20
2145.0
 30
0.0
 11
3585.5
 21
2130.0
 31
0.0
  0
LINE
  5
2D4
100
AcDbEntity
  8
LAY-1
  6
CONTINUOUS
 62
     2
100
AcDbLine
 10
3581.757013
 20
2147.178734
 30
0.0
 11
3583.5
 21
2145.0
 31
0.0
  0
LINE
  5
2D5
100
AcDbEntity
  8
LAY-1
  6
CONTINUOUS
 62
     2
100
AcDbLine
 10
3677.35
 20
2375.921447
 30
0.0
 11
3677.35
 21
2130.0
 31
0.0
  0
LINE
  5
2D6
100
AcDbEntity
  8
LAY-1
  6
CONTINUOUS
 62
     2
100
AcDbLine
 10
3655.65
 20
2375.921447
 30
0.0
 11
3655.65
 21
2130.0
 31
0.0
  0
ARC
  5
2D7
100
AcDbEntity
  8
LAY-1
  6
CONTINUOUS
 62
     2
100
AcDbCircle
 10
3806.5
 20
2942.5
 30
0.0
 40
197.0
100
AcDbArc
 50
261.828766
 51
278.171234
  0
LINE
  5
2D8
100
AcDbEntity
  8
LAY-1
  6
CONTINUOUS
 62
     2
100
AcDbLine
 10
3776.5
 20
2757.5
 30
0.0
 11
3776.5
 21
2747.5
 31
0.0
  0
LINE
  5
2D9
100
AcDbEntity
  8
LAY-1
  6
CONTINUOUS
 62
     2
100
AcDbLine
 10
3836.5
 20
2757.5
 30
0.0
 11
3836.5
 21
2747.5
 31
0.0
  0
LINE
  5
2DA
100
AcDbEntity
  8
LAY-1
  6
CONTINUOUS
 62
     2
100
AcDbLine
 10
3836.5
 20
2747.5
 30
0.0
 11
3776.5
 21
2747.5
 31
0.0
  0
LINE
  5
2DB
100
AcDbEntity
  8
LAY-1
  6
CONTINUOUS
 62
     2
100
AcDbLine
 10
3836.5
 20
2757.5
 30
0.0
 11
3776.5
 21
2757.5
 31
0.0
  0
LINE
  5
2DC
100
AcDbEntity
  8
LAY-1
  6
CONTINUOUS
 62
     2
100
AcDbLine
 10
3785.0
 20
2759.5
 30
0.0
 11
3785.0
 21
2757.5
 31
0.0
  0
LINE
  5
2DD
100
AcDbEntity
  8
LAY-1
  6
CONTINUOUS
 62
     2
100
AcDbLine
 10
3828.0
 20
2759.5
 30
0.0
 11
3828.0
 21
2757.5
 31
0.0
  0
LINE
  5
2DE
100
AcDbEntity
  8
LAY-1
  6
CONTINUOUS
 62
     2
100
AcDbLine
 10
3817.0
 20
2762.5
 30
0.0
 11
3817.0
 21
2759.5
 31
0.0
  0
LINE
  5
2DF
100
AcDbEntity
  8
LAY-1
  6
CONTINUOUS
 62
     2
100
AcDbLine
 10
3796.0
 20
2762.5
 30
0.0
 11
3796.0
 21
2759.5
 31
0.0
  0
LINE
  5
2E0
100
AcDbEntity
  8
LAY-1
  6
CONTINUOUS
 62
     2
100
AcDbLine
 10
3828.0
 20
2759.5
 30
0.0
 11
3785.0
 21
2759.5
 31
0.0
  0
LINE
  5
2E1
100
AcDbEntity
  8
LAY-1
  6
CONTINUOUS
 62
     2
100
AcDbLine
 10
3799.5
 20
2767.5
 30
0.0
 11
3799.5
 21
2763.5
 31
0.0
  0
LINE
  5
2E2
100
AcDbEntity
  8
LAY-1
  6
CONTINUOUS
 62
     2
100
AcDbLine
 10
3813.5
 20
2767.5
 30
0.0
 11
3813.5
 21
2763.5
 31
0.0
  0
ARC
  5
2E3
100
AcDbEntity
  8
LAY-1
  6
CONTINUOUS
 62
     2
100
AcDbCircle
 10
3806.5
 20
2787.5
 30
0.0
 40
25.0
100
AcDbArc
 50
253.739795
 51
286.260205
  0
ARC
  5
2E4
100
AcDbEntity
  8
LAY-1
  6
CONTINUOUS
 62
     2
100
AcDbCircle
 10
3796.0
 20
2769.125
 30
0.0
 40
6.625
100
AcDbArc
 50
238.109208
 51
301.890792
  0
ARC
  5
2E5
100
AcDbEntity
  8
LAY-1
  6
CONTINUOUS
 62
     2
100
AcDbCircle
 10
3817.0
 20
2769.125
 30
0.0
 40
6.625
100
AcDbArc
 50
238.109208
 51
301.890792
  0
LINE
  5
2E6
100
AcDbEntity
  8
LAY-1
  6
CONTINUOUS
 62
     2
100
AcDbLine
 10
3792.5
 20
2767.5
 30
0.0
 11
3792.5
 21
2763.5
 31
0.0
  0
LINE
  5
2E7
100
AcDbEntity
  8
LAY-1
  6
CONTINUOUS
 62
     2
100
AcDbLine
 10
3820.5
 20
2767.5
 30
0.0
 11
3820.5
 21
2763.5
 31
0.0
  0
LINE
  5
2E8
100
AcDbEntity
  8
LAY-1
  6
CONTINUOUS
 62
     2
100
AcDbLine
 10
3817.0
 20
2762.5
 30
0.0
 11
3796.0
 21
2762.5
 31
0.0
  0
ARC
  5
2E9
100
AcDbEntity
  8
LAY-1
  6
CONTINUOUS
 62
     2
100
AcDbCircle
 10
3528.4905
 20
2964.107714
 30
0.0
 40
3.896364
100
AcDbArc
 50
312.232219
 51
58.953252
  0
ARC
  5
2EA
100
AcDbEntity
  8
LAY-1
  6
CONTINUOUS
 62
     2
100
AcDbCircle
 10
3518.065435
 20
2950.783674
 30
0.0
 40
15.065629
100
AcDbArc
 50
328.353731
 51
32.377391
  0
ARC
  5
2EB
100
AcDbEntity
  8
LAY-1
  6
CONTINUOUS
 62
     2
100
AcDbCircle
 10
3518.065435
 20
2932.216326
 30
0.0
 40
15.065629
100
AcDbArc
 50
327.622609
 51
31.646269
  0
ARC
  5
2EC
100
AcDbEntity
  8
LAY-1
  6
CONTINUOUS
 62
     2
100
AcDbCircle
 10
3528.4905
 20
2918.892286
 30
0.0
 40
3.896364
100
AcDbArc
 50
301.046748
 51
47.767781
  0
ARC
  5
2ED
100
AcDbEntity
  8
LAY-1
  6
CONTINUOUS
 62
     2
100
AcDbCircle
 10
3579.75
 20
2941.5
 30
0.0
 40
36.25
100
AcDbArc
 50
170.472717
 51
189.527283
  0
ARC
  5
2EE
100
AcDbEntity
  8
LAY-1
  6
CONTINUOUS
 62
     2
100
AcDbCircle
 10
3551.3125
 20
2950.25
 30
0.0
 40
7.8125
100
AcDbArc
 50
159.390307
 51
200.609693
  0
LINE
  5
2EF
100
AcDbEntity
  8
LAY-1
  6
CONTINUOUS
 62
     2
100
AcDbLine
 10
3544.0
 20
2935.5
 30
0.0
 11
3549.5
 21
2935.5
 31
0.0
  0
LINE
  5
2F0
100
AcDbEntity
  8
LAY-1
  6
CONTINUOUS
 62
     2
100
AcDbLine
 10
3544.0
 20
2947.5
 30
0.0
 11
3549.5
 21
2947.5
 31
0.0
  0
LINE
  5
2F1
100
AcDbEntity
  8
LAY-1
  6
CONTINUOUS
 62
     2
100
AcDbLine
 10
3544.0
 20
2953.0
 30
0.0
 11
3549.5
 21
2953.0
 31
0.0
  0
LINE
  5
2F2
100
AcDbEntity
  8
LAY-1
  6
CONTINUOUS
 62
     2
100
AcDbLine
 10
3543.5
 20
2932.75
 30
0.0
 11
3543.5
 21
2950.25
 31
0.0
  0
LINE
  5
2F3
100
AcDbEntity
  8
LAY-1
  6
CONTINUOUS
 62
     2
100
AcDbLine
 10
3540.5
 20
2944.5
 30
0.0
 11
3543.5
 21
2944.5
 31
0.0
  0
LINE
  5
2F4
100
AcDbEntity
  8
LAY-1
  6
CONTINUOUS
 62
     2
100
AcDbLine
 10
3540.5
 20
2938.5
 30
0.0
 11
3543.5
 21
2938.5
 31
0.0
  0
LINE
  5
2F5
100
AcDbEntity
  8
LAY-1
  6
CONTINUOUS
 62
     2
100
AcDbLine
 10
3549.5
 20
2933.0
 30
0.0
 11
3550.5
 21
2933.0
 31
0.0
  0
LINE
  5
2F6
100
AcDbEntity
  8
LAY-1
  6
CONTINUOUS
 62
     2
100
AcDbLine
 10
3549.5
 20
2950.0
 30
0.0
 11
3550.5
 21
2950.0
 31
0.0
  0
LINE
  5
2F7
100
AcDbEntity
  8
LAY-1
  6
CONTINUOUS
 62
     2
100
AcDbLine
 10
3550.5
 20
2954.5
 30
0.0
 11
3557.5
 21
2954.5
 31
0.0
  0
LINE
  5
2F8
100
AcDbEntity
  8
LAY-1
  6
CONTINUOUS
 62
     2
100
AcDbLine
 10
3533.128562
 20
2938.871438
 30
0.0
 11
3540.5
 21
2938.871438
 31
0.0
  0
LINE
  5
2F9
100
AcDbEntity
  8
LAY-1
  6
CONTINUOUS
 62
     2
100
AcDbLine
 10
3533.128562
 20
2944.128562
 30
0.0
 11
3540.5
 21
2944.128562
 31
0.0
  0
ARC
  5
2FA
100
AcDbEntity
  8
LAY-1
  6
CONTINUOUS
 62
     2
100
AcDbCircle
 10
3533.128562
 20
2941.5
 30
0.0
 40
2.628562
100
AcDbArc
 50
90.0
 51
270.0
  0
LINE
  5
2FB
100
AcDbEntity
  8
LAY-1
  6
CONTINUOUS
 62
     2
100
AcDbLine
 10
3532.054089
 20
2969.0
 30
0.0
 11
3540.0
 21
2969.0
 31
0.0
  0
ARC
  5
2FC
100
AcDbEntity
  8
LAY-1
  6
CONTINUOUS
 62
     2
100
AcDbCircle
 10
3532.054089
 20
2967.445911
 30
0.0
 40
1.554089
100
AcDbArc
 50
90.0
 51
180.0
  0
LINE
  5
2FD
100
AcDbEntity
  8
LAY-1
  6
CONTINUOUS
 62
     2
100
AcDbLine
 10
3530.5
 20
2967.445911
 30
0.0
 11
3540.5
 21
2967.445911
 31
0.0
  0
LINE
  5
2FE
100
AcDbEntity
  8
LAY-1
  6
CONTINUOUS
 62
     2
100
AcDbLine
 10
3532.358674
 20
2957.987855
 30
0.0
 11
3540.5
 21
2957.987855
 31
0.0
  0
LINE
  5
2FF
100
AcDbEntity
  8
LAY-1
  6
CONTINUOUS
 62
     2
100
AcDbLine
 10
3532.358674
 20
2961.705204
 30
0.0
 11
3540.5
 21
2961.705204
 31
0.0
  0
ARC
  5
300
100
AcDbEntity
  8
LAY-1
  6
CONTINUOUS
 62
     2
100
AcDbCircle
 10
3532.358674
 20
2959.84653
 30
0.0
 40
1.858674
100
AcDbArc
 50
90.0
 51
270.0
  0
ARC
  5
301
100
AcDbEntity
  8
LAY-1
  6
CONTINUOUS
 62
     2
100
AcDbCircle
 10
3540.0
 20
2968.5
 30
0.0
 40
0.5
100
AcDbArc
 50
0.0
 51
90.0
  0
LINE
  5
302
100
AcDbEntity
  8
LAY-1
  6
CONTINUOUS
 62
     2
100
AcDbLine
 10
3544.0
 20
2930.0
 30
0.0
 11
3549.5
 21
2930.0
 31
0.0
  0
LINE
  5
303
100
AcDbEntity
  8
LAY-1
  6
CONTINUOUS
 62
     2
100
AcDbLine
 10
3550.5
 20
2928.5
 30
0.0
 11
3557.5
 21
2928.5
 31
0.0
  0
LINE
  5
304
100
AcDbEntity
  8
LAY-1
  6
CONTINUOUS
 62
     2
100
AcDbLine
 10
3532.054089
 20
2914.0
 30
0.0
 11
3540.0
 21
2914.0
 31
0.0
  0
LINE
  5
305
100
AcDbEntity
  8
LAY-1
  6
CONTINUOUS
 62
     2
100
AcDbLine
 10
3532.358674
 20
2925.012145
 30
0.0
 11
3540.5
 21
2925.012145
 31
0.0
  0
LINE
  5
306
100
AcDbEntity
  8
LAY-1
  6
CONTINUOUS
 62
     2
100
AcDbLine
 10
3532.358674
 20
2921.294796
 30
0.0
 11
3540.5
 21
2921.294796
 31
0.0
  0
LINE
  5
307
100
AcDbEntity
  8
LAY-1
  6
CONTINUOUS
 62
     2
100
AcDbLine
 10
3530.5
 20
2915.554089
 30
0.0
 11
3540.5
 21
2915.554089
 31
0.0
  0
ARC
  5
308
100
AcDbEntity
  8
LAY-1
  6
CONTINUOUS
 62
     2
100
AcDbCircle
 10
3532.358674
 20
2923.15347
 30
0.0
 40
1.858674
100
AcDbArc
 50
90.0
 51
270.0
  0
ARC
  5
309
100
AcDbEntity
  8
LAY-1
  6
CONTINUOUS
 62
     2
100
AcDbCircle
 10
3532.054089
 20
2915.554089
 30
0.0
 40
1.554089
100
AcDbArc
 50
180.0
 51
270.0
  0
ARC
  5
30A
100
AcDbEntity
  8
LAY-1
  6
CONTINUOUS
 62
     2
100
AcDbCircle
 10
3540.0
 20
2914.5
 30
0.0
 40
0.5
100
AcDbArc
 50
270.0
 51
0.0
  0
LINE
  5
30B
100
AcDbEntity
  8
LAY-1
  6
CONTINUOUS
 62
     2
100
AcDbLine
 10
3549.5
 20
2930.0
 30
0.0
 11
3549.5
 21
2953.0
 31
0.0
  0
ARC
  5
30C
100
AcDbEntity
  8
LAY-1
  6
CONTINUOUS
 62
     2
100
AcDbCircle
 10
3551.3125
 20
2932.75
 30
0.0
 40
7.8125
100
AcDbArc
 50
159.390307
 51
200.609693
  0
LINE
  5
30D
100
AcDbEntity
  8
LAY-1
  6
CONTINUOUS
 62
     2
100
AcDbLine
 10
3550.5
 20
2928.5
 30
0.0
 11
3550.5
 21
2954.5
 31
0.0
  0
LINE
  5
30E
100
AcDbEntity
  8
LAY-1
  6
CONTINUOUS
 62
     2
100
AcDbLine
 10
3530.5
 20
2915.554089
 30
0.0
 11
3530.5
 21
2967.445911
 31
0.0
  0
LINE
  5
30F
100
AcDbEntity
  8
LAY-1
  6
CONTINUOUS
 62
     2
100
AcDbLine
 10
3540.5
 20
2914.5
 30
0.0
 11
3540.5
 21
2968.5
 31
0.0
  0
CIRCLE
  5
310
100
AcDbEntity
  8
LAY-1
  6
CONTINUOUS
 62
     2
100
AcDbCircle
 10
3521.5
 20
3186.5
 30
0.0
 40
7.5
  0
LINE
  5
311
100
AcDbEntity
  8
LAY-1
  6
CONTINUOUS
 62
     2
100
AcDbLine
 10
3648.0
 20
3317.882686
 30
0.0
 11
3648.0
 21
3312.0
 31
0.0
  0
ARC
  5
312
100
AcDbEntity
  8
LAY-1
  6
CONTINUOUS
 62
     2
100
AcDbCircle
 10
3609.4905
 20
3298.892286
 30
0.0
 40
3.896364
100
AcDbArc
 50
301.046748
 51
47.767781
  0
ARC
  5
313
100
AcDbEntity
  8
LAY-1
  6
CONTINUOUS
 62
     2
100
AcDbCircle
 10
3599.065435
 20
3312.216326
 30
0.0
 40
15.065629
100
AcDbArc
 50
327.622609
 51
31.646269
  0
ARC
  5
314
100
AcDbEntity
  8
LAY-1
  6
CONTINUOUS
 62
     2
100
AcDbCircle
 10
3599.065435
 20
3330.783674
 30
0.0
 40
15.065629
100
AcDbArc
 50
328.353731
 51
32.377391
  0
ARC
  5
315
100
AcDbEntity
  8
LAY-1
  6
CONTINUOUS
 62
     2
100
AcDbCircle
 10
3609.4905
 20
3344.107714
 30
0.0
 40
3.896364
100
AcDbArc
 50
312.232219
 51
58.953252
  0
LINE
  5
316
100
AcDbEntity
  8
LAY-1
  6
CONTINUOUS
 62
     2
100
AcDbLine
 10
3648.0
 20
3331.0
 30
0.0
 11
3651.39637
 21
3331.0
 31
0.0
  0
LINE
  5
317
100
AcDbEntity
  8
LAY-1
  6
CONTINUOUS
 62
     2
100
AcDbLine
 10
3648.0
 20
3312.0
 30
0.0
 11
3651.39637
 21
3312.0
 31
0.0
  0
ARC
  5
318
100
AcDbEntity
  8
LAY-1
  6
CONTINUOUS
 62
     2
100
AcDbCircle
 10
3660.75
 20
3321.5
 30
0.0
 40
36.25
100
AcDbArc
 50
170.472717
 51
189.527283
  0
ARC
  5
319
100
AcDbEntity
  8
LAY-1
  6
CONTINUOUS
 62
     2
100
AcDbCircle
 10
3632.3125
 20
3312.75
 30
0.0
 40
7.8125
100
AcDbArc
 50
159.390307
 51
200.609693
  0
LINE
  5
31A
100
AcDbEntity
  8
LAY-1
  6
CONTINUOUS
 62
     2
100
AcDbLine
 10
3625.0
 20
3327.5
 30
0.0
 11
3630.5
 21
3327.5
 31
0.0
  0
LINE
  5
31B
100
AcDbEntity
  8
LAY-1
  6
CONTINUOUS
 62
     2
100
AcDbLine
 10
3625.0
 20
3315.5
 30
0.0
 11
3630.5
 21
3315.5
 31
0.0
  0
LINE
  5
31C
100
AcDbEntity
  8
LAY-1
  6
CONTINUOUS
 62
     2
100
AcDbLine
 10
3625.0
 20
3310.0
 30
0.0
 11
3630.5
 21
3310.0
 31
0.0
  0
LINE
  5
31D
100
AcDbEntity
  8
LAY-1
  6
CONTINUOUS
 62
     2
100
AcDbLine
 10
3624.5
 20
3330.25
 30
0.0
 11
3624.5
 21
3312.75
 31
0.0
  0
LINE
  5
31E
100
AcDbEntity
  8
LAY-1
  6
CONTINUOUS
 62
     2
100
AcDbLine
 10
3621.5
 20
3318.5
 30
0.0
 11
3624.5
 21
3318.5
 31
0.0
  0
LINE
  5
31F
100
AcDbEntity
  8
LAY-1
  6
CONTINUOUS
 62
     2
100
AcDbLine
 10
3621.5
 20
3324.5
 30
0.0
 11
3624.5
 21
3324.5
 31
0.0
  0
LINE
  5
320
100
AcDbEntity
  8
LAY-1
  6
CONTINUOUS
 62
     2
100
AcDbLine
 10
3630.5
 20
3330.0
 30
0.0
 11
3631.5
 21
3330.0
 31
0.0
  0
LINE
  5
321
100
AcDbEntity
  8
LAY-1
  6
CONTINUOUS
 62
     2
100
AcDbLine
 10
3630.5
 20
3313.0
 30
0.0
 11
3631.5
 21
3313.0
 31
0.0
  0
LINE
  5
322
100
AcDbEntity
  8
LAY-1
  6
CONTINUOUS
 62
     2
100
AcDbLine
 10
3631.5
 20
3308.5
 30
0.0
 11
3645.5
 21
3308.5
 31
0.0
  0
LINE
  5
323
100
AcDbEntity
  8
LAY-1
  6
CONTINUOUS
 62
     2
100
AcDbLine
 10
3648.0
 20
3331.0
 30
0.0
 11
3648.0
 21
3325.117314
 31
0.0
  0
LINE
  5
324
100
AcDbEntity
  8
LAY-1
  6
CONTINUOUS
 62
     2
100
AcDbLine
 10
3645.5
 20
3308.5
 30
0.0
 11
3648.0
 21
3312.0
 31
0.0
  0
LINE
  5
325
100
AcDbEntity
  8
LAY-1
  6
CONTINUOUS
 62
     2
100
AcDbLine
 10
3614.128562
 20
3324.128562
 30
0.0
 11
3621.5
 21
3324.128562
 31
0.0
  0
LINE
  5
326
100
AcDbEntity
  8
LAY-1
  6
CONTINUOUS
 62
     2
100
AcDbLine
 10
3614.128562
 20
3318.871438
 30
0.0
 11
3621.5
 21
3318.871438
 31
0.0
  0
ARC
  5
327
100
AcDbEntity
  8
LAY-1
  6
CONTINUOUS
 62
     2
100
AcDbCircle
 10
3614.128562
 20
3321.5
 30
0.0
 40
2.628562
100
AcDbArc
 50
90.0
 51
270.0
  0
LINE
  5
328
100
AcDbEntity
  8
LAY-1
  6
CONTINUOUS
 62
     2
100
AcDbLine
 10
3613.054089
 20
3294.0
 30
0.0
 11
3621.0
 21
3294.0
 31
0.0
  0
ARC
  5
329
100
AcDbEntity
  8
LAY-1
  6
CONTINUOUS
 62
     2
100
AcDbCircle
 10
3613.054089
 20
3295.554089
 30
0.0
 40
1.554089
100
AcDbArc
 50
180.0
 51
270.0
  0
LINE
  5
32A
100
AcDbEntity
  8
LAY-1
  6
CONTINUOUS
 62
     2
100
AcDbLine
 10
3611.5
 20
3295.554089
 30
0.0
 11
3621.5
 21
3295.554089
 31
0.0
  0
LINE
  5
32B
100
AcDbEntity
  8
LAY-1
  6
CONTINUOUS
 62
     2
100
AcDbLine
 10
3613.358674
 20
3305.012145
 30
0.0
 11
3621.5
 21
3305.012145
 31
0.0
  0
LINE
  5
32C
100
AcDbEntity
  8
LAY-1
  6
CONTINUOUS
 62
     2
100
AcDbLine
 10
3613.358674
 20
3301.294796
 30
0.0
 11
3621.5
 21
3301.294796
 31
0.0
  0
ARC
  5
32D
100
AcDbEntity
  8
LAY-1
  6
CONTINUOUS
 62
     2
100
AcDbCircle
 10
3613.358674
 20
3303.15347
 30
0.0
 40
1.858674
100
AcDbArc
 50
90.0
 51
270.0
  0
ARC
  5
32E
100
AcDbEntity
  8
LAY-1
  6
CONTINUOUS
 62
     2
100
AcDbCircle
 10
3621.0
 20
3294.5
 30
0.0
 40
0.5
100
AcDbArc
 50
270.0
 51
0.0
  0
LINE
  5
32F
100
AcDbEntity
  8
LAY-1
  6
CONTINUOUS
 62
     2
100
AcDbLine
 10
3625.0
 20
3333.0
 30
0.0
 11
3630.5
 21
3333.0
 31
0.0
  0
LINE
  5
330
100
AcDbEntity
  8
LAY-1
  6
CONTINUOUS
 62
     2
100
AcDbLine
 10
3631.5
 20
3334.5
 30
0.0
 11
3645.5
 21
3334.5
 31
0.0
  0
LINE
  5
331
100
AcDbEntity
  8
LAY-1
  6
CONTINUOUS
 62
     2
100
AcDbLine
 10
3613.054089
 20
3349.0
 30
0.0
 11
3621.0
 21
3349.0
 31
0.0
  0
LINE
  5
332
100
AcDbEntity
  8
LAY-1
  6
CONTINUOUS
 62
     2
100
AcDbLine
 10
3613.358674
 20
3337.987855
 30
0.0
 11
3621.5
 21
3337.987855
 31
0.0
  0
LINE
  5
333
100
AcDbEntity
  8
LAY-1
  6
CONTINUOUS
 62
     2
100
AcDbLine
 10
3613.358674
 20
3341.705204
 30
0.0
 11
3621.5
 21
3341.705204
 31
0.0
  0
LINE
  5
334
100
AcDbEntity
  8
LAY-1
  6
CONTINUOUS
 62
     2
100
AcDbLine
 10
3611.5
 20
3347.445911
 30
0.0
 11
3621.5
 21
3347.445911
 31
0.0
  0
ARC
  5
335
100
AcDbEntity
  8
LAY-1
  6
CONTINUOUS
 62
     2
100
AcDbCircle
 10
3613.358674
 20
3339.84653
 30
0.0
 40
1.858674
100
AcDbArc
 50
90.0
 51
270.0
  0
ARC
  5
336
100
AcDbEntity
  8
LAY-1
  6
CONTINUOUS
 62
     2
100
AcDbCircle
 10
3613.054089
 20
3347.445911
 30
0.0
 40
1.554089
100
AcDbArc
 50
90.0
 51
180.0
  0
ARC
  5
337
100
AcDbEntity
  8
LAY-1
  6
CONTINUOUS
 62
     2
100
AcDbCircle
 10
3621.0
 20
3348.5
 30
0.0
 40
0.5
100
AcDbArc
 50
0.0
 51
90.0
  0
LINE
  5
338
100
AcDbEntity
  8
LAY-1
  6
CONTINUOUS
 62
     2
100
AcDbLine
 10
3630.5
 20
3333.0
 30
0.0
 11
3630.5
 21
3310.0
 31
0.0
  0
ARC
  5
339
100
AcDbEntity
  8
LAY-1
  6
CONTINUOUS
 62
     2
100
AcDbCircle
 10
3632.3125
 20
3330.25
 30
0.0
 40
7.8125
100
AcDbArc
 50
159.390307
 51
200.609693
  0
LINE
  5
33A
100
AcDbEntity
  8
LAY-1
  6
CONTINUOUS
 62
     2
100
AcDbLine
 10
3631.5
 20
3334.5
 30
0.0
 11
3631.5
 21
3308.5
 31
0.0
  0
LINE
  5
33B
100
AcDbEntity
  8
LAY-1
  6
CONTINUOUS
 62
     2
100
AcDbLine
 10
3645.5
 20
3334.5
 30
0.0
 11
3645.5
 21
3308.5
 31
0.0
  0
LINE
  5
33C
100
AcDbEntity
  8
LAY-1
  6
CONTINUOUS
 62
     2
100
AcDbLine
 10
3645.5
 20
3334.5
 30
0.0
 11
3648.0
 21
3331.0
 31
0.0
  0
LINE
  5
33D
100
AcDbEntity
  8
LAY-1
  6
CONTINUOUS
 62
     2
100
AcDbLine
 10
3611.5
 20
3347.445911
 30
0.0
 11
3611.5
 21
3295.554089
 31
0.0
  0
LINE
  5
33E
100
AcDbEntity
  8
LAY-1
  6
CONTINUOUS
 62
     2
100
AcDbLine
 10
3621.5
 20
3348.5
 30
0.0
 11
3621.5
 21
3294.5
 31
0.0
  0
CIRCLE
  5
33F
100
AcDbEntity
  8
LAY-1
  6
CONTINUOUS
 62
     2
100
AcDbCircle
 10
3661.5
 20
3321.5
 30
0.0
 40
11.0
  0
POLYLINE
  5
340
100
AcDbEntity
  8
LAY-1
  6
CONTINUOUS
 62
     2
100
AcDb2dPolyline
 66
     1
 10
0.0
 20
0.0
 30
0.0
 70
   128
  0
VERTEX
  5
341
100
AcDbEntity
  8
LAY-1
  6
CONTINUOUS
 62
     2
100
AcDbVertex
100
AcDb2dVertex
 10
3653.705771
 20
3335.0
 30
0.0
  0
VERTEX
  5
342
100
AcDbEntity
  8
LAY-1
  6
CONTINUOUS
 62
     2
100
AcDbVertex
100
AcDb2dVertex
 10
3645.911543
 20
3321.5
 30
0.0
  0
VERTEX
  5
343
100
AcDbEntity
  8
LAY-1
  6
CONTINUOUS
 62
     2
100
AcDbVertex
100
AcDb2dVertex
 10
3653.705771
 20
3308.0
 30
0.0
  0
VERTEX
  5
344
100
AcDbEntity
  8
LAY-1
  6
CONTINUOUS
 62
     2
100
AcDbVertex
100
AcDb2dVertex
 10
3669.294229
 20
3308.0
 30
0.0
  0
VERTEX
  5
345
100
AcDbEntity
  8
LAY-1
  6
CONTINUOUS
 62
     2
100
AcDbVertex
100
AcDb2dVertex
 10
3677.088457
 20
3321.5
 30
0.0
  0
VERTEX
  5
346
100
AcDbEntity
  8
LAY-1
  6
CONTINUOUS
 62
     2
100
AcDbVertex
100
AcDb2dVertex
 10
3669.294229
 20
3335.0
 30
0.0
  0
VERTEX
  5
347
100
AcDbEntity
  8
LAY-1
  6
CONTINUOUS
 62
     2
100
AcDbVertex
100
AcDb2dVertex
 10
3653.705771
 20
3335.0
 30
0.0
  0
SEQEND
  5
348
100
AcDbEntity
  8
LAY-1
  6
CONTINUOUS
 62
     2
  0
CIRCLE
  5
349
100
AcDbEntity
  8
LAY-1
  6
CONTINUOUS
 62
     2
100
AcDbCircle
 10
3661.5
 20
3321.5
 30
0.0
 40
13.5
  0
LINE
  5
34A
100
AcDbEntity
  8
LAY-1
  6
CONTINUOUS
 62
     2
100
AcDbLine
 10
3724.0
 20
3410.5
 30
0.0
 11
3724.0
 21
3395.5
 31
0.0
  0
LINE
  5
34B
100
AcDbEntity
  8
LAY-1
  6
CONTINUOUS
 62
     2
100
AcDbLine
 10
3599.0
 20
3410.5
 30
0.0
 11
3599.0
 21
3395.5
 31
0.0
  0
LINE
  5
34C
100
AcDbEntity
  8
LAY-1
  6
CONTINUOUS
 62
     2
100
AcDbLine
 10
3695.0
 20
3411.5
 30
0.0
 11
3695.0
 21
3410.5
 31
0.0
  0
LINE
  5
34D
100
AcDbEntity
  8
LAY-1
  6
CONTINUOUS
 62
     2
100
AcDbLine
 10
3628.0
 20
3411.5
 30
0.0
 11
3628.0
 21
3410.5
 31
0.0
  0
LINE
  5
34E
100
AcDbEntity
  8
LAY-1
  6
CONTINUOUS
 62
     2
100
AcDbLine
 10
3724.0
 20
3410.5
 30
0.0
 11
3599.0
 21
3410.5
 31
0.0
  0
LINE
  5
34F
100
AcDbEntity
  8
LAY-1
  6
CONTINUOUS
 62
     2
100
AcDbLine
 10
3724.0
 20
3395.5
 30
0.0
 11
3599.0
 21
3395.5
 31
0.0
  0
LINE
  5
350
100
AcDbEntity
  8
LAY-1
  6
CONTINUOUS
 62
     2
100
AcDbLine
 10
3695.0
 20
3411.5
 30
0.0
 11
3628.0
 21
3411.5
 31
0.0
  0
LINE
  5
351
100
AcDbEntity
  8
LAY-1
  6
CONTINUOUS
 62
     2
100
AcDbLine
 10
3644.5
 20
3308.5
 30
0.0
 11
3644.5
 21
3275.5
 31
0.0
  0
LINE
  5
352
100
AcDbEntity
  8
LAY-1
  6
CONTINUOUS
 62
     2
100
AcDbLine
 10
3678.5
 20
3395.5
 30
0.0
 11
3678.5
 21
3275.5
 31
0.0
  0
LINE
  5
353
100
AcDbEntity
  8
LAY-1
  6
CONTINUOUS
 62
     2
100
AcDbLine
 10
3644.5
 20
3395.5
 30
0.0
 11
3644.5
 21
3334.5
 31
0.0
  0
ARC
  5
354
100
AcDbEntity
  8
LAY-1
  6
CONTINUOUS
 62
     2
100
AcDbCircle
 10
3577.5
 20
3255.5
 30
0.0
 40
20.0
100
AcDbArc
 50
90.0
 51
180.0
  0
LINE
  5
355
100
AcDbEntity
  8
LAY-1
  6
CONTINUOUS
 62
     2
100
AcDbLine
 10
3901.5
 20
3410.5
 30
0.0
 11
4001.5
 21
3410.5
 31
0.0
  0
LINE
  5
356
100
AcDbEntity
  8
LAY-1
  6
CONTINUOUS
 62
     2
100
AcDbLine
 10
3901.5
 20
3395.5
 30
0.0
 11
4001.5
 21
3395.5
 31
0.0
  0
LINE
  5
357
100
AcDbEntity
  8
LAY-1
  6
CONTINUOUS
 62
     2
100
AcDbLine
 10
3923.5
 20
3411.5
 30
0.0
 11
3979.5
 21
3411.5
 31
0.0
  0
LINE
  5
358
100
AcDbEntity
  8
LAY-1
  6
CONTINUOUS
 62
     2
100
AcDbLine
 10
3901.5
 20
3410.5
 30
0.0
 11
3901.5
 21
3395.5
 31
0.0
  0
LINE
  5
359
100
AcDbEntity
  8
LAY-1
  6
CONTINUOUS
 62
     2
100
AcDbLine
 10
4001.5
 20
3410.5
 30
0.0
 11
4001.5
 21
3395.5
 31
0.0
  0
LINE
  5
35A
100
AcDbEntity
  8
LAY-1
  6
CONTINUOUS
 62
     2
100
AcDbLine
 10
3923.5
 20
3411.5
 30
0.0
 11
3923.5
 21
3410.5
 31
0.0
  0
LINE
  5
35B
100
AcDbEntity
  8
LAY-1
  6
CONTINUOUS
 62
     2
100
AcDbLine
 10
3979.5
 20
3411.5
 30
0.0
 11
3979.5
 21
3410.5
 31
0.0
  0
LINE
  5
35C
100
AcDbEntity
  8
LAY-1
  6
CONTINUOUS
 62
     2
100
AcDbLine
 10
5164.65
 20
2410.62
 30
0.0
 11
5196.35
 21
2410.62
 31
0.0
  0
LINE
  5
35D
100
AcDbEntity
  8
LAY-1
  6
CONTINUOUS
 62
     2
100
AcDbLine
 10
5270.5
 20
2043.0
 30
0.0
 11
5270.5
 21
1987.0
 31
0.0
  0
LINE
  5
35E
100
AcDbEntity
  8
LAY-1
  6
CONTINUOUS
 62
     2
100
AcDbLine
 10
5270.5
 20
1987.0
 30
0.0
 11
5269.5
 21
1987.0
 31
0.0
  0
LINE
  5
35F
100
AcDbEntity
  8
LAY-1
  6
CONTINUOUS
 62
     2
100
AcDbLine
 10
5269.5
 20
2065.0
 30
0.0
 11
5269.5
 21
1965.0
 31
0.0
  0
LINE
  5
360
100
AcDbEntity
  8
LAY-1
  6
CONTINUOUS
 62
     2
100
AcDbLine
 10
5269.5
 20
1965.0
 30
0.0
 11
5269.5
 21
1887.5
 31
0.0
  0
LINE
  5
361
100
AcDbEntity
  8
LAY-1
  6
CONTINUOUS
 62
     2
100
AcDbLine
 10
5254.5
 20
2065.0
 30
0.0
 11
5254.5
 21
1965.0
 31
0.0
  0
LINE
  5
362
100
AcDbEntity
  8
LAY-1
  6
CONTINUOUS
 62
     2
100
AcDbLine
 10
5254.5
 20
1965.0
 30
0.0
 11
5254.5
 21
1887.5
 31
0.0
  0
LINE
  5
363
100
AcDbEntity
  8
LAY-1
  6
CONTINUOUS
 62
     2
100
AcDbLine
 10
5269.5
 20
1965.0
 30
0.0
 11
5254.5
 21
1965.0
 31
0.0
  0
LINE
  5
364
100
AcDbEntity
  8
LAY-1
  6
CONTINUOUS
 62
     2
100
AcDbLine
 10
5167.5
 20
1996.12
 30
0.0
 11
5167.5
 21
2001.4
 31
0.0
  0
LINE
  5
365
100
AcDbEntity
  8
LAY-1
  6
CONTINUOUS
 62
     2
100
AcDbLine
 10
5193.5
 20
2001.4
 30
0.0
 11
5193.5
 21
1996.12
 31
0.0
  0
ARC
  5
366
100
AcDbEntity
  8
LAY-1
  6
CONTINUOUS
 62
     2
100
AcDbCircle
 10
5148.770444
 20
1999.977188
 30
0.0
 40
12.0
100
AcDbArc
 50
343.814171
 51
6.809448
  0
ARC
  5
367
100
AcDbEntity
  8
LAY-1
  6
CONTINUOUS
 62
     2
100
AcDbCircle
 10
5212.229556
 20
1999.977188
 30
0.0
 40
12.0
100
AcDbArc
 50
173.190552
 51
196.185829
  0
LINE
  5
368
100
AcDbEntity
  8
LAY-1
  6
CONTINUOUS
 62
     2
100
AcDbLine
 10
5167.5
 20
2028.6
 30
0.0
 11
5167.5
 21
2030.12
 31
0.0
  0
LINE
  5
369
100
AcDbEntity
  8
LAY-1
  6
CONTINUOUS
 62
     2
100
AcDbLine
 10
5193.5
 20
2030.12
 30
0.0
 11
5193.5
 21
2028.6
 31
0.0
  0
LINE
  5
36A
100
AcDbEntity
  8
LAY-1
  6
CONTINUOUS
 62
     2
100
AcDbLine
 10
5171.85
 20
2040.62
 30
0.0
 11
5171.85
 21
2030.12
 31
0.0
  0
LINE
  5
36B
100
AcDbEntity
  8
LAY-1
  6
CONTINUOUS
 62
     2
100
AcDbLine
 10
5189.15
 20
2040.62
 30
0.0
 11
5189.15
 21
2030.12
 31
0.0
  0
LINE
  5
36C
100
AcDbEntity
  8
LAY-1
  6
CONTINUOUS
 62
     2
100
AcDbLine
 10
5193.5
 20
2030.12
 30
0.0
 11
5167.5
 21
2030.12
 31
0.0
  0
ARC
  5
36D
100
AcDbEntity
  8
LAY-1
  6
CONTINUOUS
 62
     2
100
AcDbCircle
 10
5148.770444
 20
2026.262812
 30
0.0
 40
12.0
100
AcDbArc
 50
11.231033
 51
16.185829
  0
ARC
  5
36E
100
AcDbEntity
  8
LAY-1
  6
CONTINUOUS
 62
     2
100
AcDbCircle
 10
5212.229556
 20
2026.262812
 30
0.0
 40
12.0
100
AcDbArc
 50
163.814171
 51
168.768967
  0
ARC
  5
36F
100
AcDbEntity
  8
LAY-1
  6
CONTINUOUS
 62
     2
100
AcDbCircle
 10
5167.357188
 20
2044.849556
 30
0.0
 40
12.0
100
AcDbArc
 50
253.814171
 51
291.658371
  0
ARC
  5
370
100
AcDbEntity
  8
LAY-1
  6
CONTINUOUS
 62
     2
100
AcDbCircle
 10
5167.357188
 20
1981.390444
 30
0.0
 40
12.0
100
AcDbArc
 50
68.341629
 51
106.185829
  0
ARC
  5
371
100
AcDbEntity
  8
LAY-1
  6
CONTINUOUS
 62
     2
100
AcDbCircle
 10
5163.175884
 20
2030.444116
 30
0.0
 40
3.0
100
AcDbArc
 50
73.814171
 51
196.185829
  0
ARC
  5
372
100
AcDbEntity
  8
LAY-1
  6
CONTINUOUS
 62
     2
100
AcDbCircle
 10
5197.824116
 20
2030.444116
 30
0.0
 40
3.0
100
AcDbArc
 50
343.814171
 51
106.185829
  0
LINE
  5
373
100
AcDbEntity
  8
LAY-1
  6
CONTINUOUS
 62
     2
100
AcDbLine
 10
5189.457778
 20
1985.96
 30
0.0
 11
5171.542222
 21
1985.96
 31
0.0
  0
ARC
  5
374
100
AcDbEntity
  8
LAY-1
  6
CONTINUOUS
 62
     2
100
AcDbCircle
 10
5193.642812
 20
1981.390444
 30
0.0
 40
12.0
100
AcDbArc
 50
73.814171
 51
111.658371
  0
LINE
  5
375
100
AcDbEntity
  8
LAY-1
  6
CONTINUOUS
 62
     2
100
AcDbLine
 10
5171.32
 20
1979.96
 30
0.0
 11
5171.918519
 21
1996.12
 31
0.0
  0
LINE
  5
376
100
AcDbEntity
  8
LAY-1
  6
CONTINUOUS
 62
     2
100
AcDbLine
 10
5189.68
 20
1979.96
 30
0.0
 11
5189.081481
 21
1996.12
 31
0.0
  0
LINE
  5
377
100
AcDbEntity
  8
LAY-1
  6
CONTINUOUS
 62
     2
100
AcDbLine
 10
5193.5
 20
1996.12
 30
0.0
 11
5167.5
 21
1996.12
 31
0.0
  0
ARC
  5
378
100
AcDbEntity
  8
LAY-1
  6
CONTINUOUS
 62
     2
100
AcDbCircle
 10
5193.642812
 20
2044.849556
 30
0.0
 40
12.0
100
AcDbArc
 50
248.012702
 51
286.185829
  0
LINE
  5
379
100
AcDbEntity
  8
LAY-1
  6
CONTINUOUS
 62
     2
100
AcDbLine
 10
5189.15
 20
2038.62
 30
0.0
 11
5171.85
 21
2038.62
 31
0.0
  0
ARC
  5
37A
100
AcDbEntity
  8
LAY-1
  6
CONTINUOUS
 62
     2
100
AcDbCircle
 10
5167.75
 20
2050.15125
 30
0.0
 40
9.53125
100
AcDbArc
 50
243.51896
 51
296.48104
  0
ARC
  5
37B
100
AcDbEntity
  8
LAY-1
  6
CONTINUOUS
 62
     2
100
AcDbCircle
 10
5180.5
 20
2077.245
 30
0.0
 40
36.625
100
AcDbArc
 50
256.580326
 51
283.419674
  0
ARC
  5
37C
100
AcDbEntity
  8
LAY-1
  6
CONTINUOUS
 62
     2
100
AcDbCircle
 10
5193.25
 20
2050.15125
 30
0.0
 40
9.53125
100
AcDbArc
 50
243.51896
 51
296.48104
  0
ARC
  5
37D
100
AcDbEntity
  8
LAY-1
  6
CONTINUOUS
 62
     2
100
AcDbCircle
 10
5167.75
 20
2076.08875
 30
0.0
 40
9.53125
100
AcDbArc
 50
63.51896
 51
116.48104
  0
ARC
  5
37E
100
AcDbEntity
  8
LAY-1
  6
CONTINUOUS
 62
     2
100
AcDbCircle
 10
5180.5
 20
2048.995
 30
0.0
 40
36.625
100
AcDbArc
 50
76.580326
 51
103.419674
  0
ARC
  5
37F
100
AcDbEntity
  8
LAY-1
  6
CONTINUOUS
 62
     2
100
AcDbCircle
 10
5193.25
 20
2076.08875
 30
0.0
 40
9.53125
100
AcDbArc
 50
63.51896
 51
116.48104
  0
LINE
  5
380
100
AcDbEntity
  8
LAY-1
  6
CONTINUOUS
 62
     2
100
AcDbLine
 10
5163.5
 20
2086.62
 30
0.0
 11
5163.5
 21
2109.62
 31
0.0
  0
LINE
  5
381
100
AcDbEntity
  8
LAY-1
  6
CONTINUOUS
 62
     2
100
AcDbLine
 10
5163.5
 20
2041.62
 30
0.0
 11
5163.5
 21
2084.62
 31
0.0
  0
LINE
  5
382
100
AcDbEntity
  8
LAY-1
  6
CONTINUOUS
 62
     2
100
AcDbLine
 10
5197.5
 20
2041.62
 30
0.0
 11
5197.5
 21
2084.62
 31
0.0
  0
LINE
  5
383
100
AcDbEntity
  8
LAY-1
  6
CONTINUOUS
 62
     2
100
AcDbLine
 10
5189.0
 20
2041.62
 30
0.0
 11
5189.0
 21
2084.62
 31
0.0
  0
LINE
  5
384
100
AcDbEntity
  8
LAY-1
  6
CONTINUOUS
 62
     2
100
AcDbLine
 10
5172.0
 20
2041.62
 30
0.0
 11
5172.0
 21
2084.62
 31
0.0
  0
ARC
  5
385
100
AcDbEntity
  8
LAY-1
  6
CONTINUOUS
 62
     2
100
AcDbCircle
 10
5167.75
 20
2095.15125
 30
0.0
 40
9.53125
100
AcDbArc
 50
243.51896
 51
296.48104
  0
ARC
  5
386
100
AcDbEntity
  8
LAY-1
  6
CONTINUOUS
 62
     2
100
AcDbCircle
 10
5180.5
 20
2122.245
 30
0.0
 40
36.625
100
AcDbArc
 50
256.580326
 51
283.419674
  0
ARC
  5
387
100
AcDbEntity
  8
LAY-1
  6
CONTINUOUS
 62
     2
100
AcDbCircle
 10
5193.25
 20
2095.15125
 30
0.0
 40
9.53125
100
AcDbArc
 50
243.51896
 51
296.48104
  0
LINE
  5
388
100
AcDbEntity
  8
LAY-1
  6
CONTINUOUS
 62
     2
100
AcDbLine
 10
5193.25
 20
2085.62
 30
0.0
 11
5167.75
 21
2085.62
 31
0.0
  0
ARC
  5
389
100
AcDbEntity
  8
LAY-1
  6
CONTINUOUS
 62
     2
100
AcDbCircle
 10
5167.75
 20
2101.08875
 30
0.0
 40
9.53125
100
AcDbArc
 50
63.51896
 51
116.48104
  0
ARC
  5
38A
100
AcDbEntity
  8
LAY-1
  6
CONTINUOUS
 62
     2
100
AcDbCircle
 10
5180.5
 20
2073.995
 30
0.0
 40
36.625
100
AcDbArc
 50
76.580326
 51
103.419674
  0
ARC
  5
38B
100
AcDbEntity
  8
LAY-1
  6
CONTINUOUS
 62
     2
100
AcDbCircle
 10
5193.25
 20
2101.08875
 30
0.0
 40
9.53125
100
AcDbArc
 50
63.51896
 51
116.48104
  0
LINE
  5
38C
100
AcDbEntity
  8
LAY-1
  6
CONTINUOUS
 62
     2
100
AcDbLine
 10
5197.5
 20
2109.62
 30
0.0
 11
5197.5
 21
2086.62
 31
0.0
  0
LINE
  5
38D
100
AcDbEntity
  8
LAY-1
  6
CONTINUOUS
 62
     2
100
AcDbLine
 10
5189.0
 20
2109.62
 30
0.0
 11
5189.0
 21
2086.62
 31
0.0
  0
LINE
  5
38E
100
AcDbEntity
  8
LAY-1
  6
CONTINUOUS
 62
     2
100
AcDbLine
 10
5172.0
 20
2109.62
 30
0.0
 11
5172.0
 21
2086.62
 31
0.0
  0
LINE
  5
38F
100
AcDbEntity
  8
LAY-1
  6
CONTINUOUS
 62
     2
100
AcDbLine
 10
5193.25
 20
2040.62
 30
0.0
 11
5167.75
 21
2040.62
 31
0.0
  0
LINE
  5
390
100
AcDbEntity
  8
LAY-1
  6
CONTINUOUS
 62
     2
100
AcDbLine
 10
5193.25
 20
2110.62
 30
0.0
 11
5167.75
 21
2110.62
 31
0.0
  0
LINE
  5
391
100
AcDbEntity
  8
LAY-1
  6
CONTINUOUS
 62
     2
100
AcDbLine
 10
5189.68
 20
1979.96
 30
0.0
 11
5171.32
 21
1979.96
 31
0.0
  0
ARC
  5
392
100
AcDbEntity
  8
LAY-1
  6
CONTINUOUS
 62
     2
100
AcDbCircle
 10
5163.175884
 20
1995.795884
 30
0.0
 40
3.0
100
AcDbArc
 50
163.814171
 51
286.185829
  0
ARC
  5
393
100
AcDbEntity
  8
LAY-1
  6
CONTINUOUS
 62
     2
100
AcDbCircle
 10
5197.824116
 20
1995.795884
 30
0.0
 40
3.0
100
AcDbArc
 50
253.814171
 51
16.185829
  0
LINE
  5
394
100
AcDbEntity
  8
LAY-1
  6
CONTINUOUS
 62
     2
100
AcDbLine
 10
5170.24
 20
1971.32
 30
0.0
 11
5165.92
 21
1967.0
 31
0.0
  0
LINE
  5
395
100
AcDbEntity
  8
LAY-1
  6
CONTINUOUS
 62
     2
100
AcDbLine
 10
5190.76
 20
1971.32
 30
0.0
 11
5195.08
 21
1967.0
 31
0.0
  0
LINE
  5
396
100
AcDbEntity
  8
LAY-1
  6
CONTINUOUS
 62
     2
100
AcDbLine
 10
5171.32
 20
1979.96
 30
0.0
 11
5170.24
 21
1979.42
 31
0.0
  0
LINE
  5
397
100
AcDbEntity
  8
LAY-1
  6
CONTINUOUS
 62
     2
100
AcDbLine
 10
5170.24
 20
1971.32
 30
0.0
 11
5170.24
 21
1979.42
 31
0.0
  0
LINE
  5
398
100
AcDbEntity
  8
LAY-1
  6
CONTINUOUS
 62
     2
100
AcDbLine
 10
5189.68
 20
1979.96
 30
0.0
 11
5190.76
 21
1979.42
 31
0.0
  0
LINE
  5
399
100
AcDbEntity
  8
LAY-1
  6
CONTINUOUS
 62
     2
100
AcDbLine
 10
5190.76
 20
1971.32
 30
0.0
 11
5190.76
 21
1979.42
 31
0.0
  0
LINE
  5
39A
100
AcDbEntity
  8
LAY-1
  6
CONTINUOUS
 62
     2
100
AcDbLine
 10
5170.24
 20
1971.32
 30
0.0
 11
5190.76
 21
1971.32
 31
0.0
  0
LINE
  5
39B
100
AcDbEntity
  8
LAY-1
  6
CONTINUOUS
 62
     2
100
AcDbLine
 10
5190.76
 20
1979.42
 30
0.0
 11
5170.24
 21
1979.42
 31
0.0
  0
LINE
  5
39C
100
AcDbEntity
  8
LAY-1
  6
CONTINUOUS
 62
     2
100
AcDbLine
 10
5189.531852
 20
1983.96
 30
0.0
 11
5171.468148
 21
1983.96
 31
0.0
  0
LINE
  5
39D
100
AcDbEntity
  8
LAY-1
  6
CONTINUOUS
 62
     2
100
AcDbLine
 10
5189.605926
 20
1981.96
 30
0.0
 11
5171.394074
 21
1981.96
 31
0.0
  0
LINE
  5
39E
100
AcDbEntity
  8
LAY-1
  6
CONTINUOUS
 62
     2
100
AcDbLine
 10
5169.65
 20
2375.62
 30
0.0
 11
5169.65
 21
2110.62
 31
0.0
  0
LINE
  5
39F
100
AcDbEntity
  8
LAY-1
  6
CONTINUOUS
 62
     2
100
AcDbLine
 10
5191.35
 20
2375.62
 30
0.0
 11
5191.35
 21
2110.62
 31
0.0
  0
LINE
  5
3A0
100
AcDbEntity
  8
LAY-1
  6
CONTINUOUS
 62
     2
100
AcDbLine
 10
5196.35
 20
2375.62
 30
0.0
 11
5164.65
 21
2375.62
 31
0.0
  0
LINE
  5
3A1
100
AcDbEntity
  8
LAY-1
  6
CONTINUOUS
 62
     2
100
AcDbLine
 10
5196.35
 20
2410.62
 30
0.0
 11
5196.35
 21
2375.62
 31
0.0
  0
LINE
  5
3A2
100
AcDbEntity
  8
LAY-1
  6
CONTINUOUS
 62
     2
100
AcDbLine
 10
5164.65
 20
2410.62
 30
0.0
 11
5164.65
 21
2375.62
 31
0.0
  0
LINE
  5
3A3
100
AcDbEntity
  8
LAY-1
  6
CONTINUOUS
 62
     2
100
AcDbLine
 10
5269.5
 20
1887.5
 30
0.0
 11
5254.5
 21
1887.5
 31
0.0
  0
LINE
  5
3A4
100
AcDbEntity
  8
LAY-1
  6
CONTINUOUS
 62
     2
100
AcDbLine
 10
5270.5
 20
1983.5
 30
0.0
 11
5269.5
 21
1983.5
 31
0.0
  0
LINE
  5
3A5
100
AcDbEntity
  8
LAY-1
  6
CONTINUOUS
 62
     2
100
AcDbLine
 10
5270.5
 20
1916.5
 30
0.0
 11
5269.5
 21
1916.5
 31
0.0
  0
LINE
  5
3A6
100
AcDbEntity
  8
LAY-1
  6
CONTINUOUS
 62
     2
100
AcDbLine
 10
5270.5
 20
1983.5
 30
0.0
 11
5270.5
 21
1916.5
 31
0.0
  0
LINE
  5
3A7
100
AcDbEntity
  8
LAY-1
  6
CONTINUOUS
 62
     2
100
AcDbLine
 10
5269.5
 20
2065.0
 30
0.0
 11
5254.5
 21
2065.0
 31
0.0
  0
LINE
  5
3A8
100
AcDbEntity
  8
LAY-1
  6
CONTINUOUS
 62
     2
100
AcDbLine
 10
5270.5
 20
2043.0
 30
0.0
 11
5269.5
 21
2043.0
 31
0.0
  0
LINE
  5
3A9
100
AcDbEntity
  8
LAY-1
  6
CONTINUOUS
 62
     2
100
AcDbLine
 10
5254.5
 20
2001.4
 30
0.0
 11
5134.5
 21
2001.4
 31
0.0
  0
LINE
  5
3AA
100
AcDbEntity
  8
LAY-1
  6
CONTINUOUS
 62
     2
100
AcDbLine
 10
5254.5
 20
2028.6
 30
0.0
 11
5134.5
 21
2028.6
 31
0.0
  0
LINE
  5
3AB
100
AcDbEntity
  8
LAY-1
  6
CONTINUOUS
 62
     2
100
AcDbLine
 10
5038.5
 20
2146.6
 30
0.0
 11
5020.5
 21
2146.6
 31
0.0
  0
LINE
  5
3AC
100
AcDbEntity
  8
LAY-1
  6
CONTINUOUS
 62
     2
100
AcDbLine
 10
5038.5
 20
2133.2
 30
0.0
 11
5020.5
 21
2133.2
 31
0.0
  0
LINE
  5
3AD
100
AcDbEntity
  8
LAY-1
  6
CONTINUOUS
 62
     2
100
AcDbLine
 10
5038.5
 20
2146.6
 30
0.0
 11
5038.5
 21
2131.6
 31
0.0
  0
LINE
  5
3AE
100
AcDbEntity
  8
LAY-1
  6
CONTINUOUS
 62
     2
100
AcDbLine
 10
5020.5
 20
2146.6
 30
0.0
 11
5020.5
 21
2131.6
 31
0.0
  0
LINE
  5
3AF
100
AcDbEntity
  8
LAY-1
  6
CONTINUOUS
 62
     2
100
AcDbLine
 10
5099.5
 20
2131.6
 30
0.0
 11
4959.5
 21
2131.6
 31
0.0
  0
LINE
  5
3B0
100
AcDbEntity
  8
LAY-1
  6
CONTINUOUS
 62
     2
100
AcDbLine
 10
5099.5
 20
2131.6
 30
0.0
 11
5099.5
 21
2130.0
 31
0.0
  0
LINE
  5
3B1
100
AcDbEntity
  8
LAY-1
  6
CONTINUOUS
 62
     2
100
AcDbLine
 10
4959.5
 20
2131.6
 30
0.0
 11
4959.5
 21
2130.0
 31
0.0
  0
LINE
  5
3B2
100
AcDbEntity
  8
LAY-1
  6
CONTINUOUS
 62
     2
100
AcDbLine
 10
4928.5
 20
2145.0
 30
0.0
 11
4912.5
 21
2145.0
 31
0.0
  0
LINE
  5
3B3
100
AcDbEntity
  8
LAY-1
  6
CONTINUOUS
 62
     2
100
AcDbLine
 10
4924.5
 20
2150.0
 30
0.0
 11
4916.5
 21
2150.0
 31
0.0
  0
LINE
  5
3B4
100
AcDbEntity
  8
LAY-1
  6
CONTINUOUS
 62
     2
100
AcDbLine
 10
4912.5
 20
2145.0
 30
0.0
 11
4910.5
 21
2130.0
 31
0.0
  0
LINE
  5
3B5
100
AcDbEntity
  8
LAY-1
  6
CONTINUOUS
 62
     2
100
AcDbLine
 10
4916.5
 20
2150.0
 30
0.0
 11
4912.5
 21
2145.0
 31
0.0
  0
LINE
  5
3B6
100
AcDbEntity
  8
LAY-1
  6
CONTINUOUS
 62
     2
100
AcDbLine
 10
4928.5
 20
2145.0
 30
0.0
 11
4930.5
 21
2130.0
 31
0.0
  0
LINE
  5
3B7
100
AcDbEntity
  8
LAY-1
  6
CONTINUOUS
 62
     2
100
AcDbLine
 10
4924.5
 20
2150.0
 30
0.0
 11
4928.5
 21
2145.0
 31
0.0
  0
ARC
  5
3B8
100
AcDbEntity
  8
LAY-1
  6
CONTINUOUS
 62
     2
100
AcDbCircle
 10
4920.5
 20
2174.5
 30
0.0
 40
4.0
100
AcDbArc
 50
0.0
 51
180.0
  0
LINE
  5
3B9
100
AcDbEntity
  8
LAY-1
  6
CONTINUOUS
 62
     2
100
AcDbLine
 10
4924.5
 20
2174.5
 30
0.0
 11
4924.5
 21
2150.0
 31
0.0
  0
LINE
  5
3BA
100
AcDbEntity
  8
LAY-1
  6
CONTINUOUS
 62
     2
100
AcDbLine
 10
4916.5
 20
2174.5
 30
0.0
 11
4916.5
 21
2150.0
 31
0.0
  0
LINE
  5
3BB
100
AcDbEntity
  8
LAY-1
  6
CONTINUOUS
 62
     2
100
AcDbLine
 10
5254.5
 20
1967.0
 30
0.0
 11
5134.5
 21
1967.0
 31
0.0
  0
LINE
  5
3BC
100
AcDbEntity
  8
LAY-1
  6
CONTINUOUS
 62
     2
100
AcDbLine
 10
5254.5
 20
1933.0
 30
0.0
 11
5134.5
 21
1933.0
 31
0.0
  0
LINE
  5
3BD
100
AcDbEntity
  8
LAY-1
  6
CONTINUOUS
 62
     2
100
AcDbLine
 10
5130.5
 20
1830.0
 30
0.0
 11
5130.5
 21
1258.0
 31
0.0
  0
ARC
  5
3BE
100
AcDbEntity
  8
LAY-1
  6
CONTINUOUS
 62
     2
100
AcDbCircle
 10
4801.5
 20
1550.0
 30
0.0
 40
197.0
100
AcDbArc
 50
171.828766
 51
188.171234
  0
LINE
  5
3BF
100
AcDbEntity
  8
LAY-1
  6
CONTINUOUS
 62
     2
100
AcDbLine
 10
4616.5
 20
1520.0
 30
0.0
 11
4606.5
 21
1520.0
 31
0.0
  0
LINE
  5
3C0
100
AcDbEntity
  8
LAY-1
  6
CONTINUOUS
 62
     2
100
AcDbLine
 10
4616.5
 20
1580.0
 30
0.0
 11
4606.5
 21
1580.0
 31
0.0
  0
LINE
  5
3C1
100
AcDbEntity
  8
LAY-1
  6
CONTINUOUS
 62
     2
100
AcDbLine
 10
4606.5
 20
1580.0
 30
0.0
 11
4606.5
 21
1520.0
 31
0.0
  0
LINE
  5
3C2
100
AcDbEntity
  8
LAY-1
  6
CONTINUOUS
 62
     2
100
AcDbLine
 10
4616.5
 20
1580.0
 30
0.0
 11
4616.5
 21
1520.0
 31
0.0
  0
LINE
  5
3C3
100
AcDbEntity
  8
LAY-1
  6
CONTINUOUS
 62
     2
100
AcDbLine
 10
4618.5
 20
1528.5
 30
0.0
 11
4616.5
 21
1528.5
 31
0.0
  0
LINE
  5
3C4
100
AcDbEntity
  8
LAY-1
  6
CONTINUOUS
 62
     2
100
AcDbLine
 10
4618.5
 20
1571.5
 30
0.0
 11
4616.5
 21
1571.5
 31
0.0
  0
LINE
  5
3C5
100
AcDbEntity
  8
LAY-1
  6
CONTINUOUS
 62
     2
100
AcDbLine
 10
4621.5
 20
1560.5
 30
0.0
 11
4618.5
 21
1560.5
 31
0.0
  0
LINE
  5
3C6
100
AcDbEntity
  8
LAY-1
  6
CONTINUOUS
 62
     2
100
AcDbLine
 10
4621.5
 20
1539.5
 30
0.0
 11
4618.5
 21
1539.5
 31
0.0
  0
LINE
  5
3C7
100
AcDbEntity
  8
LAY-1
  6
CONTINUOUS
 62
     2
100
AcDbLine
 10
4618.5
 20
1571.5
 30
0.0
 11
4618.5
 21
1528.5
 31
0.0
  0
LINE
  5
3C8
100
AcDbEntity
  8
LAY-1
  6
CONTINUOUS
 62
     2
100
AcDbLine
 10
4630.5
 20
1543.0
 30
0.0
 11
4622.5
 21
1543.0
 31
0.0
  0
LINE
  5
3C9
100
AcDbEntity
  8
LAY-1
  6
CONTINUOUS
 62
     2
100
AcDbLine
 10
4630.5
 20
1557.0
 30
0.0
 11
4622.5
 21
1557.0
 31
0.0
  0
ARC
  5
3CA
100
AcDbEntity
  8
LAY-1
  6
CONTINUOUS
 62
     2
100
AcDbCircle
 10
4646.5
 20
1550.0
 30
0.0
 40
25.0
100
AcDbArc
 50
163.739795
 51
196.260205
  0
ARC
  5
3CB
100
AcDbEntity
  8
LAY-1
  6
CONTINUOUS
 62
     2
100
AcDbCircle
 10
4628.125
 20
1539.5
 30
0.0
 40
6.625
100
AcDbArc
 50
148.109208
 51
211.890792
  0
ARC
  5
3CC
100
AcDbEntity
  8
LAY-1
  6
CONTINUOUS
 62
     2
100
AcDbCircle
 10
4628.125
 20
1560.5
 30
0.0
 40
6.625
100
AcDbArc
 50
148.109208
 51
211.890792
  0
LINE
  5
3CD
100
AcDbEntity
  8
LAY-1
  6
CONTINUOUS
 62
     2
100
AcDbLine
 10
4630.5
 20
1536.0
 30
0.0
 11
4622.5
 21
1536.0
 31
0.0
  0
LINE
  5
3CE
100
AcDbEntity
  8
LAY-1
  6
CONTINUOUS
 62
     2
100
AcDbLine
 10
4630.5
 20
1564.0
 30
0.0
 11
4622.5
 21
1564.0
 31
0.0
  0
LINE
  5
3CF
100
AcDbEntity
  8
LAY-1
  6
CONTINUOUS
 62
     2
100
AcDbLine
 10
4621.5
 20
1560.5
 30
0.0
 11
4621.5
 21
1539.5
 31
0.0
  0
TEXT
  5
3D0
100
AcDbEntity
  8
LAY-1
  6
CONTINUOUS
 62
     3
100
AcDbText
 10
4573.32
 20
730.38
 30
0.0
 40
60.0
  1
型式
 41
0.984714
  7
EXCADSTD
 72
     5
 11
4702.261218
 21
730.38
 31
0.0
100
AcDbText
  0
TEXT
  5
3D1
100
AcDbEntity
  8
LAY-1
  6
CONTINUOUS
 62
     3
100
AcDbText
 10
4571.88
 20
645.9
 30
0.0
 40
60.0
  1
品名
 41
0.984714
  7
EXCADSTD
 72
     5
 11
4700.821218
 21
645.9
 31
0.0
100
AcDbText
  0
LINE
  5
3D2
100
AcDbEntity
  8
LAY-1
  6
CONTINUOUS
 62
     4
100
AcDbLine
 10
4545.0
 20
560.7
 30
0.0
 11
5620.2
 21
560.7
 31
0.0
  0
LINE
  5
3D3
100
AcDbEntity
  8
LAY-1
  6
CONTINUOUS
 62
     1
100
AcDbLine
 10
4545.0
 20
633.9
 30
0.0
 11
5620.2
 21
633.9
 31
0.0
  0
TEXT
  5
3D4
100
AcDbEntity
  8
LAY-1
  6
CONTINUOUS
 62
     3
100
AcDbText
 10
4927.08
 20
568.62
 30
0.0
 40
60.0
  1
外観図
 41
1.47392
  7
EXCADSTD
 72
     5
 11
5242.919996
 21
568.62
 31
0.0
100
AcDbText
  0
LINE
  5
3D5
100
AcDbEntity
  8
LAY-1
  6
CONTINUOUS
 62
     4
100
AcDbLine
 10
4545.0
 20
885.9
 30
0.0
 11
5620.2
 21
885.9
 31
0.0
  0
LINE
  5
3D6
100
AcDbEntity
  8
LAY-1
  6
CONTINUOUS
 62
     1
100
AcDbLine
 10
4545.0
 20
717.9
 30
0.0
 11
5620.2
 21
717.9
 31
0.0
  0
LINE
  5
3D7
100
AcDbEntity
  8
LAY-1
  6
CONTINUOUS
 62
     1
100
AcDbLine
 10
4545.0
 20
801.9
 30
0.0
 11
5620.2
 21
801.9
 31
0.0
  0
LINE
  5
3D8
100
AcDbEntity
  8
LAY-1
  6
CONTINUOUS
 62
     1
100
AcDbLine
 10
4725.0
 20
885.9
 30
0.0
 11
4725.0
 21
633.9
 31
0.0
  0
LINE
  5
3D9
100
AcDbEntity
  8
LAY-1
  6
CONTINUOUS
 62
     4
100
AcDbLine
 10
4545.0
 20
487.5
 30
0.0
 11
5620.2
 21
487.5
 31
0.0
  0
LINE
  5
3DA
100
AcDbEntity
  8
LAY-1
  6
CONTINUOUS
 62
     4
100
AcDbLine
 10
5620.2
 20
487.5
 30
0.0
 11
5620.2
 21
885.9
 31
0.0
  0
LINE
  5
3DB
100
AcDbEntity
  8
LAY-1
  6
CONTINUOUS
 62
     4
100
AcDbLine
 10
4545.0
 20
487.5
 30
0.0
 11
4545.0
 21
885.9
 31
0.0
  0
TEXT
  5
3DC
100
AcDbEntity
  8
LAY-1
  6
CONTINUOUS
 62
     3
100
AcDbText
 10
4552.68
 20
812.46
 30
0.0
 40
60.0
  1
作成日
 41
0.84
  7
EXCADSTD
 72
     5
 11
4732.68
 21
812.46
 31
0.0
100
AcDbText
  0
HATCH
  5
3DD
100
AcDbEntity
  8
LAY-1
  6
CONTINUOUS
 62
     3
100
AcDbHatch
 10
0.0
 20
0.0
 30
0.0
210
0.0
220
0.0
230
1.0
  2
SOLID
 70
     1
 71
     1
 91
        1
 92
        1
 93
       16
 72
     1
 10
5301.7796980837329
 20
505.78757142856995
 11
5313.1389837980178
 21
505.78757142856995
 72
     1
 10
5313.1389837980178
 20
505.78757142856995
 11
5313.1389837980178
 21
498.45899999999847
 72
     1
 10
5313.1389837980178
 20
498.45899999999847
 11
5282.7254123694465
 21
498.45899999999847
 72
     1
 10
5282.7254123694465
 20
498.45899999999847
 11
5282.7254123694465
 21
505.78757142856995
 72
     1
 10
5282.7254123694465
 20
505.78757142856995
 11
5294.4511266551617
 21
505.78757142856995
 72
     1
 10
5294.4511266551617
 20
505.78757142856995
 11
5294.4511266551617
 21
527.04042857142713
 72
     1
 10
5294.4511266551617
 20
527.04042857142713
 11
5285.290412369447
 21
527.04042857142713
 72
     1
 10
5285.290412369447
 20
527.04042857142713
 11
5285.290412369447
 21
534.36899999999866
 72
     1
 10
5285.290412369447
 20
534.36899999999866
 11
5294.4511266551617
 21
534.36899999999866
 72
     1
 10
5294.4511266551617
 20
534.36899999999866
 11
5294.4511266551617
 21
549.75899999999854
 72
     1
 10
5294.4511266551617
 20
549.75899999999854
 11
5301.7796980837329
 21
549.75899999999854
 72
     1
 10
5301.7796980837329
 20
549.75899999999854
 11
5301.7796980837329
 21
534.36899999999866
 72
     1
 10
5301.7796980837329
 20
534.36899999999866
 11
5312.4061266551616
 21
534.36899999999866
 72
     1
 10
5312.4061266551616
 20
534.36899999999866
 11
5312.4061266551616
 21
527.04042857142713
 72
     1
 10
5312.4061266551616
 20
527.04042857142713
 11
5301.7796980837329
 21
527.04042857142713
 72
     1
 10
5301.7796980837329
 20
527.04042857142713
 11
5301.7796980837329
 21
505.78757142856995
 97
        0
 75
     0
 76
     1
 98
        1
 10
0.0
 20
0.0
  0
HATCH
  5
3DE
100
AcDbEntity
  8
LAY-1
  6
CONTINUOUS
 62
     3
100
AcDbHatch
 10
0.0
 20
0.0
 30
0.0
210
0.0
220
0.0
230
1.0
  2
SOLID
 70
     1
 71
     1
 91
        1
 92
        1
 93
       17
 72
     2
 10
5224.785904151604
 20
563.9823803770787
 40
65.957142857143097
 50
44.165469
 51
51.472792
 73
     0
 72
     1
 10
5265.8696980837321
 20
512.38328571428451
 11
5262.1592317364957
 21
518.81000194747287
 72
     2
 10
5224.785904151604
 20
563.9823803770787
 40
58.628571428571625
 50
309.602625
 51
331.307968
 73
     1
 72
     1
 10
5276.2156453658481
 20
535.83471428571295
 11
5264.0375552265896
 21
535.83471428571295
 72
     1
 10
5264.0375552265896
 20
535.83471428571295
 11
5264.0375552265896
 21
542.43042857142711
 72
     1
 10
5264.0375552265896
 20
542.43042857142711
 11
5272.0989837980178
 21
542.43042857142711
 72
     1
 10
5272.0989837980178
 20
542.43042857142711
 11
5272.0989837980178
 21
549.75899999999854
 72
     1
 10
5272.0989837980178
 20
549.75899999999854
 11
5278.6946980837329
 21
549.75899999999854
 72
     1
 10
5278.6946980837329
 20
549.75899999999854
 11
5278.6946980837329
 21
542.43042857142711
 72
     1
 10
5278.6946980837329
 20
542.43042857142711
 11
5287.1225552265896
 21
542.43042857142711
 72
     2
 10
5224.785904151604
 20
563.9823803770787
 40
65.957142857143097
 50
19.072051
 51
32.871988
 73
     0
 72
     1
 10
5280.1823403021099
 20
528.18322458115949
 11
5288.9546980837322
 21
519.71185714285571
 72
     1
 10
5288.9546980837322
 20
519.71185714285571
 11
5283.7718261536802
 21
514.52898521280383
 72
     1
 10
5283.7718261536802
 20
514.52898521280383
 11
5278.6946980837329
 21
519.43191079821065
 72
     1
 10
5278.6946980837329
 20
519.43191079821065
 11
5278.6946980837329
 21
498.45899999999847
 72
     1
 10
5278.6946980837329
 20
498.45899999999847
 11
5272.0989837980178
 21
498.45899999999847
 72
     1
 10
5272.0989837980178
 20
498.45899999999847
 11
5272.0989837980178
 21
518.02786821287839
 97
        0
 75
     0
 76
     1
 98
        1
 10
0.0
 20
0.0
  0
HATCH
  5
3DF
100
AcDbEntity
  8
LAY-1
  6
CONTINUOUS
 62
     3
100
AcDbHatch
 10
0.0
 20
0.0
 30
0.0
210
0.0
220
0.0
230
1.0
  2
SOLID
 70
     1
 71
     1
 91
        1
 92
        1
 93
       12
 72
     2
 10
5317.4712199155992
 20
465.0651338396309
 40
103.33285714285749
 50
150.903074
 51
156.790773
 73
     1
 72
     1
 10
5222.5008959079323
 20
505.78757142856938
 11
5245.0638741962211
 21
505.78757142857023
 72
     2
 10
5180.971214902539
 20
487.3569684904146
 40
66.690000000000225
 50
16.043216
 51
21.362935
 73
     1
 72
     1
 10
5243.0790557705986
 20
511.65042857142708
 11
5250.1132695123033
 21
511.65042857142708
 72
     2
 10
5180.971214902539
 20
487.3569684904146
 40
73.285714285714533
 50
340.64078
 51
351.286733
 73
     0
 72
     1
 10
5253.4111266551599
 20
498.45899999999847
 11
5212.7375552265885
 21
498.45899999999847
 72
     2
 10
5317.4712199155992
 20
465.0651338396309
 40
109.92857142857177
 50
197.684652
 51
207.200855
 73
     0
 72
     1
 10
5219.6996980837321
 20
515.31471428571297
 11
5209.4396980837328
 21
515.31471428571297
 72
     1
 10
5209.4396980837328
 20
515.31471428571297
 11
5209.4396980837328
 21
522.64328571428439
 72
     1
 10
5209.4396980837328
 20
522.64328571428439
 11
5256.3425552265899
 21
522.64328571428439
 72
     1
 10
5256.3425552265899
 20
522.64328571428439
 11
5256.3425552265899
 21
515.31471428571297
 72
     1
 10
5256.3425552265899
 20
515.31471428571297
 11
5227.1791436835238
 21
515.31471428571297
 97
        0
 75
     0
 76
     1
 98
        1
 10
0.0
 20
0.0
  0
HATCH
  5
3E0
100
AcDbEntity
  8
LAY-1
  6
CONTINUOUS
 62
     3
100
AcDbHatch
 10
0.0
 20
0.0
 30
0.0
210
0.0
220
0.0
230
1.0
  2
SOLID
 70
     1
 71
     1
 91
        1
 92
        1
 93
       10
 72
     2
 10
5317.9107530887068
 20
623.68869195647767
 40
117.25714285714325
 50
129.545698
 51
136.474664
 73
     0
 72
     1
 10
5232.8911266551631
 20
542.93659803860305
 11
5232.8911266551631
 21
549.75899999999854
 72
     1
 10
5232.8911266551631
 20
549.75899999999854
 11
5236.5554123694474
 21
549.75899999999854
 72
     2
 10
5317.9107530887068
 20
623.68869195647767
 40
109.92857142857177
 50
222.262231
 51
237.763996
 73
     1
 72
     1
 10
5259.2739837980189
 20
530.70471428571295
 11
5254.5224445920476
 21
525.04205036664496
 72
     2
 10
5317.9107530887068
 20
623.68869195647767
 40
117.25714285714325
 50
122.723968
 51
128.230009
 73
     0
 72
     1
 10
5245.3496980837326
 20
531.57935015237149
 11
5245.3496980837326
 21
525.94114285714136
 72
     1
 10
5245.3496980837326
 20
525.94114285714136
 11
5232.8911266551631
 21
525.94114285714136
 72
     1
 10
5232.8911266551631
 20
525.94114285714136
 11
5232.8911266551631
 21
533.26971428571289
 72
     1
 10
5232.8911266551631
 20
533.26971428571289
 11
5243.2538978911143
 21
533.26971428571289
 97
        0
 75
     0
 76
     1
 98
        1
 10
0.0
 20
0.0
  0
HATCH
  5
3E1
100
AcDbEntity
  8
LAY-1
  6
CONTINUOUS
 62
     3
100
AcDbHatch
 10
0.0
 20
0.0
 30
0.0
210
0.0
220
0.0
230
1.0
  2
SOLID
 70
     1
 71
     1
 91
        1
 92
        1
 93
       10
 72
     2
 10
5147.8715002216159
 20
623.68869195647767
 40
117.25714285714325
 50
51.769991
 51
57.276032
 73
     0
 72
     1
 10
5211.2598087182741
 20
525.04205036664473
 11
5206.5082695123037
 21
530.70471428571284
 72
     2
 10
5147.8715002216159
 20
623.68869195647767
 40
109.92857142857177
 50
302.236004
 51
317.737769
 73
     1
 72
     1
 10
5229.2268409408753
 20
549.75899999999854
 11
5232.8911266551631
 21
549.75899999999854
 72
     1
 10
5232.8911266551631
 20
549.75899999999854
 11
5232.8911266551631
 21
542.93659803860737
 72
     2
 10
5147.8715002216159
 20
623.68869195647767
 40
117.25714285714325
 50
43.525336
 51
50.454302
 73
     0
 72
     1
 10
5222.5283554192083
 20
533.26971428571289
 11
5232.8911266551631
 21
533.26971428571289
 72
     1
 10
5232.8911266551631
 20
533.26971428571289
 11
5232.8911266551631
 21
525.94114285714136
 72
     1
 10
5232.8911266551631
 20
525.94114285714136
 11
5220.43255522659
 21
525.94114285714136
 72
     1
 10
5220.43255522659
 20
525.94114285714136
 11
5220.43255522659
 21
531.57935015237149
 97
        0
 75
     0
 76
     1
 98
        1
 10
0.0
 20
0.0
  0
HATCH
  5
3E2
100
AcDbEntity
  8
LAY-1
  6
CONTINUOUS
 62
     3
100
AcDbHatch
 10
0.0
 20
0.0
 30
0.0
210
0.0
220
0.0
230
1.0
  2
SOLID
 70
     1
 71
     1
 91
        1
 92
        1
 93
       18
 72
     2
 10
5093.9340696276204
 20
516.82506236911092
 40
102.60000000000034
 50
14.02954
 51
18.723021
 73
     1
 72
     1
 10
5191.1046194466107
 20
549.75899999999854
 11
5198.8132695123031
 21
549.75899999999854
 72
     2
 10
5093.9340696276204
 20
516.82506236911092
 40
109.92857142857177
 50
342.566782
 51
346.922981
 73
     0
 72
     1
 10
5201.0118409408751
 20
541.69757142857009
 11
5203.9432695123032
 21
541.69757142857009
 72
     1
 10
5203.9432695123032
 20
541.69757142857009
 11
5203.9432695123032
 21
534.36899999999855
 72
     1
 10
5203.9432695123032
 20
534.36899999999855
 11
5190.2421625453544
 21
534.36899999999866
 72
     2
 10
5266.2361266551607
 20
546.46114285714157
 40
76.950000000000259
 50
189.041096
 51
204.65198
 73
     1
 72
     2
 10
5211.6260129926131
 20
521.39872719628954
 40
16.863485764327443
 50
204.65198
 51
242.897449
 73
     1
 72
     1
 10
5203.9432695123032
 20
506.38697830618872
 11
5203.9432695123032
 21
498.45899999999847
 72
     2
 10
5211.6260129926131
 20
521.39872719628954
 40
24.192057192898893
 50
108.516212
 51
155.34802
 73
     0
 72
     2
 10
5266.2361266551607
 20
546.46114285714157
 40
84.278571428571695
 50
155.34802
 51
171.750831
 73
     0
 72
     1
 10
5182.8295460804638
 20
534.36899999999866
 11
5154.841840940875
 21
534.36899999999855
 72
     1
 10
5154.841840940875
 20
534.36899999999855
 11
5154.841840940875
 21
541.69757142857009
 72
     1
 10
5154.841840940875
 20
541.69757142857009
 11
5182.0725312836767
 21
541.69757142857009
 72
     1
 10
5182.0725312836767
 20
541.69757142857009
 11
5181.7910199947592
 21
549.75899999999854
 72
     1
 10
5181.7910199947592
 20
549.75899999999854
 11
5189.1240585122632
 21
549.75899999999854
 72
     1
 10
5189.1240585122632
 20
549.75899999999854
 11
5189.4055698011807
 21
541.69757142857009
 72
     1
 10
5189.4055698011807
 20
541.69757142857009
 11
5193.4736009359758
 21
541.69757142857009
 97
        0
 75
     0
 76
     1
 98
        1
 10
0.0
 20
0.0
  0
HATCH
  5
3E3
100
AcDbEntity
  8
LAY-1
  6
CONTINUOUS
 62
     3
100
AcDbHatch
 10
0.0
 20
0.0
 30
0.0
210
0.0
220
0.0
230
1.0
  2
SOLID
 70
     1
 71
     1
 91
        1
 92
        1
 93
       12
 72
     2
 10
5131.7750062109526
 20
866.3593886167364
 40
359.10000000000116
 50
276.500664
 51
278.269357
 73
     1
 72
     1
 10
5183.4232695123037
 20
510.99300458758358
 11
5183.4232695123037
 21
503.58899999999863
 72
     2
 10
5131.7750062109526
 20
866.3593886167364
 40
366.42857142857264
 50
81.897153
 51
86.39082
 73
     0
 72
     1
 10
5154.841840940875
 20
500.65757142856995
 11
5154.841840940875
 21
508.00100496212815
 72
     2
 10
5131.7750062109526
 20
866.3593886167364
 40
359.10000000000116
 50
273.682937
 51
275.325087
 73
     1
 72
     1
 10
5165.1018409408753
 20
508.80920740172792
 11
5165.1018409408753
 21
520.44471428571273
 72
     1
 10
5165.1018409408753
 20
520.44471428571273
 11
5154.841840940875
 21
520.44471428571273
 72
     1
 10
5154.841840940875
 20
520.44471428571273
 11
5154.841840940875
 21
527.77328571428416
 72
     1
 10
5154.841840940875
 20
527.77328571428416
 11
5181.2246980837326
 21
527.77328571428416
 72
     1
 10
5181.2246980837326
 20
527.77328571428416
 11
5181.2246980837326
 21
520.44471428571273
 72
     1
 10
5181.2246980837326
 20
520.44471428571273
 11
5172.4304123694474
 21
520.44471428571273
 72
     1
 10
5172.4304123694474
 20
520.44471428571273
 11
5172.4304123694465
 21
509.56820606020403
 97
        0
 75
     0
 76
     1
 98
        1
 10
0.0
 20
0.0
  0
HATCH
  5
3E4
100
AcDbEntity
  8
LAY-1
  6
CONTINUOUS
 62
     3
100
AcDbHatch
 10
0.0
 20
0.0
 30
0.0
210
0.0
220
0.0
230
1.0
  2
SOLID
 70
     1
 71
     1
 91
        1
 92
        1
 93
       30
 72
     2
 10
5065.5379974435828
 20
561.47621735273071
 40
80.247857142857399
 50
37.940537
 51
46.713808
 73
     0
 72
     1
 10
5120.5593748023148
 20
503.06075185284436
 11
5115.6339837980177
 21
507.98614285714166
 72
     2
 10
5065.5379974435828
 20
561.47621735273071
 40
73.285714285714576
 50
313.123325
 51
325.95222
 73
     1
 72
     1
 10
5126.2604123694455
 20
520.44471428571296
 11
5117.4661266551611
 21
520.44471428571296
 72
     1
 10
5117.4661266551611
 20
520.44471428571296
 11
5117.4661266551611
 21
527.77328571428427
 72
     1
 10
5117.4661266551611
 20
527.77328571428427
 11
5128.8254123694469
 21
527.77328571428427
 72
     1
 10
5128.8254123694469
 20
527.77328571428427
 11
5128.8254123694469
 21
535.10185714285569
 72
     1
 10
5128.8254123694469
 20
535.10185714285569
 11
5125.1715408206201
 21
535.10185714285569
 72
     2
 10
5046.8086090656625
 20
550.60326215595285
 40
79.88142857142887
 50
11.189535
 51
14.746058
 73
     0
 72
     1
 10
5124.0590192259569
 20
530.27060958235563
 11
5117.8325552265887
 21
532.53685714285564
 72
     2
 10
5046.8086090656625
 20
550.60326215595285
 40
73.285714285714576
 50
345.728313
 51
357.620387
 73
     1
 72
     1
 10
5120.0311266551616
 20
547.56042857144905
 11
5126.5796781156159
 21
546.40574226441311
 72
     2
 10
5046.8086090656625
 20
550.60326215595285
 40
79.88142857142887
 50
3.012102
 51
6.401006
 73
     0
 72
     1
 10
5126.1920538339546
 20
541.69757142857009
 11
5128.8254123694469
 21
541.69757142857009
 72
     1
 10
5128.8254123694469
 20
541.69757142857009
 11
5128.8254123694469
 21
549.75899999999854
 72
     1
 10
5128.8254123694469
 20
549.75899999999854
 11
5136.1539837980181
 21
549.75899999999854
 72
     1
 10
5136.1539837980181
 20
549.75899999999854
 11
5136.1539837980181
 21
541.69757142857009
 72
     1
 10
5136.1539837980181
 20
541.69757142857009
 11
5146.0475552265898
 21
541.69757142857009
 72
     1
 10
5146.0475552265898
 20
541.69757142857009
 11
5146.0475552265898
 21
535.10185714285569
 72
     1
 10
5146.0475552265898
 20
535.10185714285569
 11
5136.1539837980181
 21
535.10185714285569
 72
     1
 10
5136.1539837980181
 20
535.10185714285569
 11
5136.1539837980181
 21
527.77328571428427
 72
     1
 10
5136.1539837980181
 20
527.77328571428427
 11
5147.5132695123039
 21
527.77328571428427
 72
     1
 10
5147.5132695123039
 20
527.77328571428427
 11
5147.5132695123039
 21
520.44471428571296
 72
     1
 10
5147.5132695123039
 20
520.44471428571296
 11
5138.7189837980177
 21
520.44471428571296
 72
     2
 10
5199.4413987238804
 20
561.4762173527306
 40
73.285714285714576
 50
214.04778
 51
226.876675
 73
     1
 72
     1
 10
5149.3454123694455
 20
507.98614285714166
 11
5144.4200213651475
 21
503.06075185284436
 72
     2
 10
5199.4413987238804
 20
561.4762173527306
 40
80.247857142857399
 50
133.286192
 51
142.059463
 73
     0
 72
     1
 10
5136.1539837980181
 20
512.13635833365618
 11
5136.1539837980181
 21
498.45899999999847
 72
     1
 10
5136.1539837980181
 20
498.45899999999847
 11
5128.8254123694469
 21
498.45899999999847
 72
     1
 10
5128.8254123694469
 20
498.45899999999847
 11
5128.8254123694469
 21
512.13635833365822
 97
        0
 75
     0
 76
     1
 98
        1
 10
0.0
 20
0.0
  0
HATCH
  5
3E5
100
AcDbEntity
  8
LAY-1
  6
CONTINUOUS
 62
     3
100
AcDbHatch
 10
0.0
 20
0.0
 30
0.0
210
0.0
220
0.0
230
1.0
  2
SOLID
 70
     1
 71
     1
 91
        1
 92
        1
 93
       19
 72
     2
 10
5035.3695992720313
 20
551.69510757057242
 40
79.881428571428842
 50
27.683433
 51
32.280505
 73
     0
 72
     1
 10
5102.904841761715
 20
509.03325514393862
 11
5097.6789837980177
 21
513.11614285714131
 72
     2
 10
5035.3695992720313
 20
551.69510757057242
 40
73.285714285714533
 50
328.236207
 51
344.845745
 73
     1
 72
     1
 10
5106.1068409408745
 20
532.53685714285575
 11
5099.5111266551612
 21
532.53685714285575
 72
     1
 10
5099.5111266551612
 20
532.53685714285575
 11
5099.5111266551612
 21
539.86542857142717
 72
     1
 10
5099.5111266551612
 20
539.86542857142717
 11
5106.1068409408754
 21
539.86542857142717
 72
     1
 10
5106.1068409408754
 20
539.86542857142717
 11
5106.1068409408754
 21
549.75899999999854
 72
     1
 10
5106.1068409408754
 20
549.75899999999854
 11
5113.4354123694466
 21
549.75899999999854
 72
     1
 10
5113.4354123694466
 20
549.75899999999854
 11
5113.4354123694466
 21
539.86542857142717
 72
     1
 10
5113.4354123694466
 20
539.86542857142717
 11
5116.7332695123041
 21
539.86542857142717
 72
     1
 10
5116.7332695123041
 20
539.86542857142717
 11
5116.7332695123041
 21
532.53685714285575
 72
     1
 10
5116.7332695123041
 20
532.53685714285575
 11
5113.4354123694466
 21
532.53685714285575
 72
     1
 10
5113.4354123694466
 20
532.53685714285575
 11
5117.4661266551611
 21
526.78040056996497
 72
     1
 10
5117.4661266551611
 20
526.78040056996497
 11
5117.4661266551611
 21
522.31886187303689
 72
     1
 10
5117.4661266551611
 20
522.31886187303689
 11
5115.2675552265891
 21
519.69870647446135
 72
     1
 10
5115.2675552265891
 20
519.69870647446135
 11
5113.4354123694466
 21
522.31527764395628
 72
     1
 10
5113.4354123694466
 20
522.31527764395628
 11
5113.4354123694466
 21
498.45899999999847
 72
     1
 10
5113.4354123694466
 20
498.45899999999847
 11
5106.1068409408754
 21
498.45899999999847
 72
     1
 10
5106.1068409408754
 20
498.45899999999847
 11
5106.1068409408754
 21
514.58331333079127
 97
        0
 75
     0
 76
     1
 98
        1
 10
0.0
 20
0.0
  0
HATCH
  5
3E6
100
AcDbEntity
  8
LAY-1
  6
CONTINUOUS
 62
     3
100
AcDbHatch
 10
0.0
 20
0.0
 30
0.0
210
0.0
220
0.0
230
1.0
  2
SOLID
 70
     1
 71
     1
 91
        1
 92
        1
 93
        8
 72
     2
 10
5066.1503998357748
 20
520.00499999999749
 40
14.364000000000116
 50
270.0
 51
330.0
 73
     1
 72
     2
 10
5059.0420633215126
 20
524.10899999999754
 40
22.572000000000109
 50
330.0
 51
30.0
 73
     1
 72
     2
 10
5066.1503998357748
 20
528.21299999999746
 40
14.364000000000107
 50
30.0
 51
90.0
 73
     1
 72
     1
 10
5066.1503998357794
 20
542.57699999999761
 11
5066.1503998357794
 21
550.78499999999929
 72
     2
 10
5066.1503998357748
 20
528.21299999999928
 40
22.57200000000007
 50
270.0
 51
330.0
 73
     0
 72
     2
 10
5059.0420633215135
 20
524.1089999999989
 40
30.78000000000014
 50
330.0
 51
30.0
 73
     0
 72
     2
 10
5066.1503998357757
 20
520.00499999999658
 40
22.572000000000045
 50
30.0
 51
90.0
 73
     0
 72
     1
 10
5066.1503998357794
 20
497.43299999999658
 11
5066.1503998357794
 21
505.64099999999735
 97
        0
 75
     0
 76
     1
 98
        1
 10
0.0
 20
0.0
  0
HATCH
  5
3E7
100
AcDbEntity
  8
LAY-1
  6
CONTINUOUS
 62
     3
100
AcDbHatch
 10
0.0
 20
0.0
 30
0.0
210
0.0
220
0.0
230
1.0
  2
SOLID
 70
     1
 71
     1
 91
        1
 92
        1
 93
        8
 72
     2
 10
5066.1503998357757
 20
520.00499999999658
 40
22.572000000000045
 50
90.0
 51
150.0
 73
     0
 72
     2
 10
5073.258736350037
 20
524.1089999999972
 40
30.780000000000168
 50
150.0
 51
210.0
 73
     0
 72
     2
 10
5066.1503998357748
 20
528.21299999999928
 40
22.57200000000007
 50
210.0
 51
270.0
 73
     0
 72
     1
 10
5066.1503998357794
 20
550.78499999999929
 11
5066.1503998357794
 21
542.57699999999761
 72
     2
 10
5066.1503998357748
 20
528.21299999999746
 40
14.364000000000107
 50
90.0
 51
150.0
 73
     1
 72
     2
 10
5073.2587363500379
 20
524.10899999999754
 40
22.57200000000012
 50
150.0
 51
210.0
 73
     1
 72
     2
 10
5066.1503998357748
 20
520.00499999999749
 40
14.364000000000116
 50
210.0
 51
270.0
 73
     1
 72
     1
 10
5066.1503998357794
 20
505.64099999999735
 11
5066.1503998357794
 21
497.43299999999658
 97
        0
 75
     0
 76
     1
 98
        1
 10
0.0
 20
0.0
  0
HATCH
  5
3E8
100
AcDbEntity
  8
LAY-1
  6
CONTINUOUS
 62
     3
100
AcDbHatch
 10
0.0
 20
0.0
 30
0.0
210
0.0
220
0.0
230
1.0
  2
SOLID
 70
     1
 71
     1
 91
        1
 92
        1
 93
        4
 72
     1
 10
5034.3443998357752
 20
514.8749999999975
 11
5026.1363998357756
 21
514.8749999999975
 72
     1
 10
5026.1363998357756
 20
514.8749999999975
 11
5026.1363998357756
 21
523.08299999999747
 72
     1
 10
5026.1363998357756
 20
523.08299999999747
 11
5034.3443998357752
 21
523.08299999999747
 72
     1
 10
5034.3443998357752
 20
523.08299999999747
 11
5034.3443998357752
 21
514.87499999999693
 97
        0
 75
     0
 76
     1
 98
        1
 10
0.0
 20
0.0
  0
HATCH
  5
3E9
100
AcDbEntity
  8
LAY-1
  6
CONTINUOUS
 62
     3
100
AcDbHatch
 10
0.0
 20
0.0
 30
0.0
210
0.0
220
0.0
230
1.0
  2
SOLID
 70
     1
 71
     1
 91
        1
 92
        1
 93
       16
 72
     1
 10
4995.3563998357749
 20
541.55099999999754
 11
4984.0703998357749
 21
541.55099999999754
 72
     1
 10
4984.0703998357749
 20
541.55099999999754
 11
4982.0183998357752
 21
530.26499999999749
 72
     1
 10
4982.0183998357752
 20
530.26499999999749
 11
4975.8623998357752
 21
530.26499999999749
 72
     1
 10
4975.8623998357752
 20
530.26499999999749
 11
4975.8623998357752
 21
549.75899999999763
 72
     1
 10
4975.8623998357752
 20
549.75899999999763
 11
5023.0583998357752
 21
549.75899999999763
 72
     1
 10
5023.0583998357752
 20
549.75899999999763
 11
5023.0583998357752
 21
530.26499999999749
 72
     1
 10
5023.0583998357752
 20
530.26499999999749
 11
5016.9023998357752
 21
530.26499999999749
 72
     1
 10
5016.9023998357752
 20
530.26499999999749
 11
5014.8503998357755
 21
541.55099999999754
 72
     1
 10
5014.8503998357755
 20
541.55099999999754
 11
5003.5643998357746
 21
541.55099999999754
 72
     1
 10
5003.5643998357746
 20
541.55099999999754
 11
5003.5643998357755
 21
506.66699999999742
 72
     1
 10
5003.5643998357755
 20
506.66699999999742
 11
5011.7723998357751
 21
504.61499999999739
 72
     1
 10
5011.7723998357751
 20
504.61499999999739
 11
5011.7723998357751
 21
498.45899999999739
 72
     1
 10
5011.7723998357751
 20
498.45899999999739
 11
4987.1483998357753
 21
498.45899999999739
 72
     1
 10
4987.1483998357753
 20
498.45899999999739
 11
4987.1483998357753
 21
504.61499999999739
 72
     1
 10
4987.1483998357753
 20
504.61499999999739
 11
4995.3563998357749
 21
506.66699999999742
 72
     1
 10
4995.3563998357749
 20
506.66699999999742
 11
4995.3563998357749
 21
541.55099999999754
 97
        0
 75
     0
 76
     1
 98
        1
 10
0.0
 20
0.0
  0
HATCH
  5
3EA
100
AcDbEntity
  8
LAY-1
  6
CONTINUOUS
 62
     3
100
AcDbHatch
 10
0.0
 20
0.0
 30
0.0
210
0.0
220
0.0
230
1.0
  2
SOLID
 70
     1
 71
     1
 91
        1
 92
        1
 93
        4
 72
     1
 10
4964.5763998357752
 20
514.8749999999975
 11
4964.5763998357752
 21
523.08299999999792
 72
     1
 10
4964.5763998357752
 20
523.08299999999792
 11
4972.7843998357748
 21
523.08299999999747
 72
     1
 10
4972.7843998357748
 20
523.08299999999747
 11
4972.7843998357748
 21
514.8749999999975
 72
     1
 10
4972.7843998357748
 20
514.8749999999975
 11
4964.5763998357752
 21
514.8749999999975
 97
        0
 75
     0
 76
     1
 98
        1
 10
0.0
 20
0.0
  0
HATCH
  5
3EB
100
AcDbEntity
  8
LAY-1
  6
CONTINUOUS
 62
     3
100
AcDbHatch
 10
0.0
 20
0.0
 30
0.0
210
0.0
220
0.0
230
1.0
  2
SOLID
 70
     1
 71
     1
 91
        1
 92
        1
 93
       12
 72
     1
 10
4955.3423998357748
 20
549.75899999999763
 11
4955.3423998357748
 21
543.60299999999756
 72
     1
 10
4955.3423998357748
 20
543.60299999999756
 11
4947.1343998357752
 21
541.55099999999754
 72
     1
 10
4947.1343998357752
 20
541.55099999999754
 11
4947.1343998357752
 21
506.66699999999742
 72
     1
 10
4947.1343998357752
 20
506.66699999999742
 11
4955.3423998357748
 21
504.61499999999739
 72
     1
 10
4955.3423998357748
 20
504.61499999999739
 11
4955.3423998357748
 21
498.45899999999739
 72
     1
 10
4955.3423998357748
 20
498.45899999999739
 11
4930.718399835775
 21
498.45899999999739
 72
     1
 10
4930.718399835775
 20
498.45899999999739
 11
4930.718399835775
 21
504.61499999999739
 72
     1
 10
4930.718399835775
 20
504.61499999999739
 11
4938.9263998357746
 21
506.66699999999742
 72
     1
 10
4938.9263998357746
 20
506.66699999999742
 11
4938.9263998357746
 21
541.55099999999754
 72
     1
 10
4938.9263998357746
 20
541.55099999999754
 11
4930.718399835775
 21
543.60299999999756
 72
     1
 10
4930.718399835775
 20
543.60299999999756
 11
4930.718399835775
 21
549.75899999999763
 72
     1
 10
4930.718399835775
 20
549.75899999999763
 11
4955.3423998357748
 21
549.75899999999763
 97
        0
 75
     0
 76
     1
 98
        1
 10
0.0
 20
0.0
  0
HATCH
  5
3EC
100
AcDbEntity
  8
LAY-1
  6
CONTINUOUS
 62
     3
100
AcDbHatch
 10
0.0
 20
0.0
 30
0.0
210
0.0
220
0.0
230
1.0
  2
SOLID
 70
     1
 71
     1
 91
        1
 92
        1
 93
       15
 72
     2
 10
4874.8791500150419
 20
524.10899999999856
 40
22.779477947794813
 50
124.301153
 51
180.0
 73
     0
 72
     1
 10
4852.0996720672465
 20
524.10899999999992
 11
4860.695219569875
 21
524.10899999999992
 72
     2
 10
4882.8590359515129
 20
524.10899999999879
 40
22.163816381638231
 50
180.0
 51
199.464384
 73
     1
 72
     2
 10
4861.6032385923854
 20
526.56760783349523
 40
9.8505850585060877
 50
272.086657
 51
294.619977
 73
     1
 72
     2
 10
4864.4245543217721
 20
520.41099217192891
 40
3.0783078307830967
 50
294.619977
 51
0.0
 73
     1
 72
     1
 10
4867.5028621525562
 20
520.41099217192891
 11
4867.5028621525562
 21
524.10899999999992
 72
     1
 10
4867.5028621525562
 20
524.10899999999992
 11
4874.8908009464349
 21
524.10899999999992
 72
     1
 10
4874.8908009464349
 20
524.10899999999992
 11
4874.8908009464349
 21
520.40446025275048
 72
     2
 10
4877.969108777218
 20
520.40446025275048
 40
3.0783078307829701
 50
180.0
 51
245.380023
 73
     1
 72
     2
 10
4880.7904245066056
 20
526.56107591431794
 40
9.8505850585071713
 50
245.380023
 51
267.913343
 73
     1
 72
     1
 10
4880.4317550418446
 20
516.71702277498889
 11
4880.4317550418446
 21
514.87003807651934
 72
     1
 10
4880.4317550418446
 20
514.87003807651934
 11
4862.7126630974371
 21
514.87003807651922
 72
     2
 10
4882.8590359515138
 20
524.10899999999879
 40
22.163816381638203
 50
204.635803
 51
268.19864
 73
     1
 72
     1
 10
4882.1623279326377
 20
501.95613665154178
 11
4882.1623279326377
 21
498.87344656803924
 72
     2
 10
4882.8590359515129
 20
535.80656975697559
 40
36.939693969397105
 50
91.080702
 51
124.301153
 73
     0
 97
        0
 75
     0
 76
     1
 98
        1
 10
0.0
 20
0.0
  0
HATCH
  5
3ED
100
AcDbEntity
  8
LAY-1
  6
CONTINUOUS
 62
     3
100
AcDbHatch
 10
0.0
 20
0.0
 30
0.0
210
0.0
220
0.0
230
1.0
  2
SOLID
 70
     1
 71
     1
 91
        1
 92
        1
 93
       24
 72
     2
 10
4878.5843228349049
 20
527.18730783078183
 40
3.0783078307831229
 50
90.0
 51
157.380135
 73
     1
 72
     2
 10
4885.9722616287836
 20
524.10899999999901
 40
11.081908190819133
 50
157.380135
 51
180.0
 73
     1
 72
     1
 10
4874.8903534379651
 20
524.10899999999992
 11
4867.5028621525562
 21
524.10899999999992
 72
     1
 10
4867.5028621525562
 20
524.10899999999992
 11
4867.5028621525562
 21
540.09094865637917
 72
     2
 10
4882.8590359515129
 20
524.10899999999879
 40
22.163816381638231
 50
133.856042
 51
180.0
 73
     1
 72
     1
 10
4860.695219569875
 20
524.10899999999992
 11
4852.0996720672465
 21
524.10899999999992
 72
     2
 10
4874.8791500150419
 20
524.10899999999856
 40
22.779477947794813
 50
180.0
 51
235.698847
 73
     0
 72
     2
 10
4882.8590359515138
 20
512.41143024302164
 40
36.93969396939719
 50
235.698847
 51
245.436008
 73
     0
 72
     1
 10
4867.5028621525562
 20
546.00799132907503
 11
4867.5028621525562
 21
549.35361770046813
 72
     2
 10
4864.4245543217721
 20
549.35361770046813
 40
3.0783078307830789
 50
0.0
 51
65.380023
 73
     1
 72
     2
 10
4861.6032385923854
 20
543.19700203890193
 40
9.8505850585058656
 50
65.380023
 51
87.913343
 73
     1
 72
     1
 10
4861.9619080571456
 20
553.04105517822961
 11
4861.9619080571456
 21
554.88803987669939
 72
     1
 10
4861.9619080571456
 20
554.88803987669939
 11
4880.4317550418446
 21
554.88803987669939
 72
     1
 10
4880.4317550418446
 20
554.88803987669939
 11
4880.4317550418446
 21
553.04105517822961
 72
     2
 10
4880.7904245066056
 20
543.19700203890193
 40
9.85058505850591
 50
92.086657
 51
114.619977
 73
     1
 72
     2
 10
4877.9691087772189
 20
549.35361770046825
 40
3.0783078307831229
 50
114.619977
 51
180.0
 73
     1
 72
     1
 10
4874.8908009464349
 20
549.35361770046813
 11
4874.8908009464349
 21
548.48147628480774
 72
     2
 10
4882.8590359515129
 20
512.41143024302164
 40
36.939693969397098
 50
257.542857
 51
268.919298
 73
     0
 72
     1
 10
4882.1623279326377
 20
549.34455343195805
 11
4882.1623279326377
 21
546.26186334845579
 72
     2
 10
4882.8590359515138
 20
524.10899999999879
 40
22.163816381638231
 50
91.80136
 51
111.070443
 73
     1
 72
     1
 10
4874.8908009464349
 20
544.79092417312165
 11
4874.8908009464349
 21
533.34392349234793
 72
     1
 10
4874.8908009464349
 20
533.34392349234793
 11
4882.1623279326386
 21
533.34392349234793
 72
     1
 10
4882.1623279326386
 20
533.34392349234793
 11
4882.1623279326377
 21
530.26561566156477
 72
     1
 10
4882.1623279326377
 20
530.26561566156477
 11
4878.5843228349049
 21
530.26561566156477
 97
        0
 75
     0
 76
     1
 98
        1
 10
0.0
 20
0.0
  0
HATCH
  5
3EE
100
AcDbEntity
  8
LAY-1
  6
CONTINUOUS
 62
     3
100
AcDbHatch
 10
0.0
 20
0.0
 30
0.0
210
0.0
220
0.0
230
1.0
  2
SOLID
 70
     1
 71
     1
 91
        1
 92
        1
 93
       14
 72
     2
 10
4882.8590359515129
 20
524.10899999999879
 40
22.163816381638274
 50
0.0
 51
9.281799
 73
     1
 72
     2
 10
4901.6946579891228
 20
527.18730783078183
 40
3.0783078307830603
 50
9.281799
 51
90.0
 73
     1
 72
     1
 10
4901.6946579891228
 20
530.26561566156477
 11
4895.1722672746455
 21
530.26561566156477
 72
     1
 10
4895.1722672746455
 20
530.26561566156477
 11
4895.1722672746455
 21
524.10899999999992
 72
     1
 10
4895.1722672746455
 20
524.10899999999992
 11
4887.7843284807659
 21
524.10899999999992
 72
     1
 10
4887.7843284807659
 20
524.10899999999992
 11
4887.7843284807659
 21
530.26561566156477
 72
     1
 10
4887.7843284807659
 20
530.26561566156477
 11
4882.1623279326377
 21
530.26561566156477
 72
     1
 10
4882.1623279326377
 20
530.26561566156477
 11
4882.1623279326377
 21
533.34392349234793
 72
     1
 10
4882.1623279326377
 20
533.34392349234793
 11
4903.0072603072585
 21
533.3439234923477
 72
     2
 10
4882.8590359515138
 20
524.10899999999879
 40
22.163816381638231
 50
24.624318
 51
91.80136
 73
     1
 72
     1
 10
4882.1623279326377
 20
546.26186334845579
 11
4882.1623279326377
 21
549.34455343195805
 72
     2
 10
4882.8590359515129
 20
512.41143024302164
 40
36.939693969397098
 50
268.919298
 51
304.301153
 73
     0
 72
     2
 10
4890.8389218879856
 20
524.10899999999856
 40
22.779477947794835
 50
304.301153
 51
0.0
 73
     0
 72
     1
 10
4913.6183998357801
 20
524.10899999999992
 11
4905.0228523331516
 21
524.10899999999992
 97
        0
 75
     0
 76
     1
 98
        1
 10
0.0
 20
0.0
  0
HATCH
  5
3EF
100
AcDbEntity
  8
LAY-1
  6
CONTINUOUS
 62
     3
100
AcDbHatch
 10
0.0
 20
0.0
 30
0.0
210
0.0
220
0.0
230
1.0
  2
SOLID
 70
     1
 71
     1
 91
        1
 92
        1
 93
       19
 72
     2
 10
4882.8590359515129
 20
524.10899999999879
 40
22.163816381638274
 50
303.748989
 51
0.0
 73
     1
 72
     1
 10
4905.0228523331516
 20
524.10899999999992
 11
4913.6183998357801
 21
524.10899999999992
 72
     2
 10
4890.8389218879856
 20
524.10899999999856
 40
22.779477947794835
 50
0.0
 51
55.698847
 73
     0
 72
     2
 10
4882.8590359515138
 20
535.8065697569757
 40
36.939693969397162
 50
55.698847
 51
70.528779
 73
     0
 72
     1
 10
4895.1722672746455
 20
500.9794922893534
 11
4895.1722672746455
 21
498.86034386839907
 72
     2
 10
4898.2505751054287
 20
498.86034386839907
 40
3.0783078307830967
 50
180.0
 51
245.380023
 73
     1
 72
     2
 10
4901.0718908348163
 20
505.01695952996533
 40
9.8505850585058923
 50
245.380023
 51
267.913343
 73
     1
 72
     1
 10
4900.7132213700552
 20
495.17290639063759
 11
4900.7132213700552
 21
493.32592169216775
 72
     1
 10
4900.7132213700552
 20
493.32592169216775
 11
4882.2433743853571
 21
493.32592169216775
 72
     1
 10
4882.2433743853571
 20
493.32592169216775
 11
4882.2433743853571
 21
495.17290639063759
 72
     2
 10
4881.8847049205951
 20
505.01695952996533
 40
9.8505850585058923
 50
272.086657
 51
294.619977
 73
     1
 72
     2
 10
4884.7060206499827
 20
498.86034386839907
 40
3.0783078307830967
 50
294.619977
 51
0.0
 73
     1
 72
     1
 10
4887.7843284807659
 20
498.86034386839907
 11
4887.7843284807659
 21
499.19670108671124
 72
     2
 10
4882.8590359515129
 20
535.80656975697559
 40
36.939693969397105
 50
82.337744
 51
91.080702
 73
     0
 72
     1
 10
4882.1623279326377
 20
498.87344656803924
 11
4882.1623279326377
 21
501.95613665154178
 72
     2
 10
4882.8590359515138
 20
524.10899999999879
 40
22.163816381638203
 50
268.19864
 51
282.839588
 73
     1
 72
     1
 10
4887.7843284807659
 20
502.4993667291572
 11
4887.7843284807659
 21
524.10899999999992
 72
     1
 10
4887.7843284807659
 20
524.10899999999992
 11
4895.1722672746455
 21
524.10899999999992
 72
     1
 10
4895.1722672746455
 20
524.10899999999992
 11
4895.1722672746455
 21
505.68024282589693
 97
        0
 75
     0
 76
     1
 98
        1
 10
0.0
 20
0.0
  0
TEXT
  5
3F0
100
AcDbEntity
  8
LAY-1
  6
CONTINUOUS
 62
     3
100
AcDbText
 10
4754.712
 20
645.948
 30
0.0
 40
60.0
  1
電熱式ベーパライザー
 41
0.84
  7
EXCADSTD
 72
     5
 11
5354.712
 21
645.948
 31
0.0
100
AcDbText
  0
INSERT
  5
3F1
100
AcDbEntity
  8
LAY-1
  6
CONTINUOUS
 62
     0
100
AcDbBlockReference
  2
SYM-1
 10
3951.5
 20
3472.2
 30
0.0
 41
15.0
 42
15.0
 50
270.0
  0
INSERT
  5
3F2
100
AcDbEntity
  8
LAY-1
  6
CONTINUOUS
 62
     0
100
AcDbBlockReference
  2
SYM-1
 10
3661.5
 20
3769.95
 30
0.0
 41
15.0
 42
15.0
 50
90.0
  0
LINE
  5
3F3
100
AcDbEntity
  8
LAY-1
  6
EXLTYPE3
 62
     1
100
AcDbLine
 10
3508.5
 20
2856.5
 30
0.0
 11
3534.45
 21
2856.5
 31
0.0
  0
LINE
  5
3F4
100
AcDbEntity
  8
LAY-1
  6
EXLTYPE3
 62
     1
100
AcDbLine
 10
3521.5
 20
2844.3
 30
0.0
 11
3521.5
 21
3198.6
 31
0.0
  0
LINE
  5
3F5
100
AcDbEntity
  8
LAY-1
  6
EXLTYPE3
 62
     1
100
AcDbLine
 10
3508.5
 20
3186.5
 30
0.0
 11
3534.45
 21
3186.5
 31
0.0
  0
LINE
  5
3F6
100
AcDbEntity
  8
LAY-1
  6
EXLTYPE3
 62
     1
100
AcDbLine
 10
4104.5
 20
3186.5
 30
0.0
 11
4078.55
 21
3186.5
 31
0.0
  0
LINE
  5
3F7
100
AcDbEntity
  8
LAY-1
  6
EXLTYPE3
 62
     1
100
AcDbLine
 10
4091.5
 20
2844.3
 30
0.0
 11
4091.5
 21
3198.6
 31
0.0
  0
LINE
  5
3F8
100
AcDbEntity
  8
LAY-1
  6
EXLTYPE3
 62
     1
100
AcDbLine
 10
4104.5
 20
2856.5
 30
0.0
 11
4078.55
 21
2856.5
 31
0.0
  0
LINE
  5
3F9
100
AcDbEntity
  8
LAY-1
  6
EXLTYPE3
 62
     1
100
AcDbLine
 10
1097.729842
 20
1214.5
 30
0.0
 11
1097.729842
 21
1190.0
 31
0.0
  0
LINE
  5
3FA
100
AcDbEntity
  8
LAY-1
  6
EXLTYPE3
 62
     1
100
AcDbLine
 10
1667.729842
 20
1214.5
 30
0.0
 11
1667.729842
 21
1190.0
 31
0.0
  0
LINE
  5
3FB
100
AcDbEntity
  8
LAY-1
  6
EXLTYPE3
 62
     1
100
AcDbLine
 10
1382.729842
 20
2180.0
 30
0.0
 11
1382.729842
 21
1150.0
 31
0.0
  0
LINE
  5
3FC
100
AcDbEntity
  8
LAY-1
  6
EXLTYPE3
 62
     1
100
AcDbLine
 10
1663.729842
 20
1910.0
 30
0.0
 11
1612.729842
 21
1910.0
 31
0.0
  0
LINE
  5
3FD
100
AcDbEntity
  8
LAY-1
  6
CONTINUOUS
 62
     2
100
AcDbLine
 10
1133.729842
 20
2130.0
 30
0.0
 11
1133.729842
 21
1830.0
 31
0.0
  0
LINE
  5
3FE
100
AcDbEntity
  8
LAY-1
  6
CONTINUOUS
 62
     2
100
AcDbLine
 10
1631.729842
 20
2130.0
 30
0.0
 11
1631.729842
 21
1830.0
 31
0.0
  0
LINE
  5
3FF
100
AcDbEntity
  8
LAY-1
  6
CONTINUOUS
 62
     2
100
AcDbLine
 10
1133.729842
 20
1830.0
 30
0.0
 11
1631.729842
 21
1830.0
 31
0.0
  0
LINE
  5
400
100
AcDbEntity
  8
LAY-1
  6
CONTINUOUS
 62
     2
100
AcDbLine
 10
1137.729842
 20
1830.0
 30
0.0
 11
1137.729842
 21
1258.0
 31
0.0
  0
LINE
  5
401
100
AcDbEntity
  8
LAY-1
  6
CONTINUOUS
 62
     2
100
AcDbLine
 10
1627.729842
 20
1830.0
 30
0.0
 11
1627.729842
 21
1258.0
 31
0.0
  0
LINE
  5
402
100
AcDbEntity
  8
LAY-1
  6
CONTINUOUS
 62
     2
100
AcDbLine
 10
1077.729842
 20
1200.0
 30
0.0
 11
1687.729842
 21
1200.0
 31
0.0
  0
LINE
  5
403
100
AcDbEntity
  8
LAY-1
  6
CONTINUOUS
 62
     2
100
AcDbLine
 10
1077.729842
 20
1204.5
 30
0.0
 11
1077.729842
 21
1200.0
 31
0.0
  0
LINE
  5
404
100
AcDbEntity
  8
LAY-1
  6
CONTINUOUS
 62
     2
100
AcDbLine
 10
1687.729842
 20
1204.5
 30
0.0
 11
1687.729842
 21
1200.0
 31
0.0
  0
LINE
  5
405
100
AcDbEntity
  8
LAY-1
  6
CONTINUOUS
 62
     2
100
AcDbLine
 10
1077.729842
 20
1204.5
 30
0.0
 11
1687.729842
 21
1204.5
 31
0.0
  0
LINE
  5
406
100
AcDbEntity
  8
LAY-1
  6
CONTINUOUS
 62
     2
100
AcDbLine
 10
1167.729842
 20
1258.0
 30
0.0
 11
1167.729842
 21
1204.5
 31
0.0
  0
LINE
  5
407
100
AcDbEntity
  8
LAY-1
  6
CONTINUOUS
 62
     2
100
AcDbLine
 10
1157.986854
 20
2147.178734
 30
0.0
 11
1159.729842
 21
2145.0
 31
0.0
  0
LINE
  5
408
100
AcDbEntity
  8
LAY-1
  6
CONTINUOUS
 62
     2
100
AcDbLine
 10
1159.729842
 20
2145.0
 30
0.0
 11
1161.729842
 21
2130.0
 31
0.0
  0
LINE
  5
409
100
AcDbEntity
  8
LAY-1
  6
CONTINUOUS
 62
     2
100
AcDbLine
 10
1145.472829
 20
2147.178734
 30
0.0
 11
1143.729842
 21
2145.0
 31
0.0
  0
LINE
  5
40A
100
AcDbEntity
  8
LAY-1
  6
CONTINUOUS
 62
     2
100
AcDbLine
 10
1143.729842
 20
2145.0
 30
0.0
 11
1141.729842
 21
2130.0
 31
0.0
  0
LINE
  5
40B
100
AcDbEntity
  8
LAY-1
  6
CONTINUOUS
 62
     2
100
AcDbLine
 10
1159.729842
 20
2145.0
 30
0.0
 11
1143.729842
 21
2145.0
 31
0.0
  0
ARC
  5
40C
100
AcDbEntity
  8
LAY-1
  6
CONTINUOUS
 62
     2
100
AcDbCircle
 10
1151.729842
 20
2158.0
 30
0.0
 40
20.5
100
AcDbArc
 50
295.233094
 51
244.766906
  0
ARC
  5
40D
100
AcDbEntity
  8
LAY-1
  6
CONTINUOUS
 62
     2
100
AcDbCircle
 10
1151.729842
 20
2158.0
 30
0.0
 40
12.5
100
AcDbArc
 50
300.037123
 51
239.962877
  0
LINE
  5
40E
100
AcDbEntity
  8
LAY-1
  6
CONTINUOUS
 62
     2
100
AcDbLine
 10
1145.472829
 20
2147.178734
 30
0.0
 11
1157.986854
 21
2147.178734
 31
0.0
  0
LINE
  5
40F
100
AcDbEntity
  8
LAY-1
  6
CONTINUOUS
 62
     2
100
AcDbLine
 10
1607.472829
 20
2147.178734
 30
0.0
 11
1605.729842
 21
2145.0
 31
0.0
  0
LINE
  5
410
100
AcDbEntity
  8
LAY-1
  6
CONTINUOUS
 62
     2
100
AcDbLine
 10
1605.729842
 20
2145.0
 30
0.0
 11
1603.729842
 21
2130.0
 31
0.0
  0
LINE
  5
411
100
AcDbEntity
  8
LAY-1
  6
CONTINUOUS
 62
     2
100
AcDbLine
 10
1619.986854
 20
2147.178734
 30
0.0
 11
1621.729842
 21
2145.0
 31
0.0
  0
LINE
  5
412
100
AcDbEntity
  8
LAY-1
  6
CONTINUOUS
 62
     2
100
AcDbLine
 10
1621.729842
 20
2145.0
 30
0.0
 11
1623.729842
 21
2130.0
 31
0.0
  0
LINE
  5
413
100
AcDbEntity
  8
LAY-1
  6
CONTINUOUS
 62
     2
100
AcDbLine
 10
1605.729842
 20
2145.0
 30
0.0
 11
1621.729842
 21
2145.0
 31
0.0
  0
ARC
  5
414
100
AcDbEntity
  8
LAY-1
  6
CONTINUOUS
 62
     2
100
AcDbCircle
 10
1613.729842
 20
2158.0
 30
0.0
 40
20.5
100
AcDbArc
 50
295.233094
 51
244.766906
  0
ARC
  5
415
100
AcDbEntity
  8
LAY-1
  6
CONTINUOUS
 62
     2
100
AcDbCircle
 10
1613.729842
 20
2158.0
 30
0.0
 40
12.5
100
AcDbArc
 50
300.037123
 51
239.962877
  0
LINE
  5
416
100
AcDbEntity
  8
LAY-1
  6
CONTINUOUS
 62
     2
100
AcDbLine
 10
1619.986854
 20
2147.178734
 30
0.0
 11
1607.472829
 21
2147.178734
 31
0.0
  0
LINE
  5
417
100
AcDbEntity
  8
LAY-1
  6
CONTINUOUS
 62
     2
100
AcDbLine
 10
1168.729842
 20
2131.6
 30
0.0
 11
1168.729842
 21
2130.0
 31
0.0
  0
LINE
  5
418
100
AcDbEntity
  8
LAY-1
  6
CONTINUOUS
 62
     2
100
AcDbLine
 10
1308.729842
 20
2131.6
 30
0.0
 11
1308.729842
 21
2130.0
 31
0.0
  0
LINE
  5
419
100
AcDbEntity
  8
LAY-1
  6
CONTINUOUS
 62
     2
100
AcDbLine
 10
1168.729842
 20
2131.6
 30
0.0
 11
1308.729842
 21
2131.6
 31
0.0
  0
LINE
  5
41A
100
AcDbEntity
  8
LAY-1
  6
CONTINUOUS
 62
     2
100
AcDbLine
 10
1225.364813
 20
2146.6
 30
0.0
 11
1225.364813
 21
2133.2
 31
0.0
  0
LINE
  5
41B
100
AcDbEntity
  8
LAY-1
  6
CONTINUOUS
 62
     2
100
AcDbLine
 10
1213.729842
 20
2133.2
 30
0.0
 11
1213.729842
 21
2131.6
 31
0.0
  0
LINE
  5
41C
100
AcDbEntity
  8
LAY-1
  6
CONTINUOUS
 62
     2
100
AcDbLine
 10
1253.729842
 20
2146.6
 30
0.0
 11
1253.729842
 21
2133.2
 31
0.0
  0
LINE
  5
41D
100
AcDbEntity
  8
LAY-1
  6
CONTINUOUS
 62
     2
100
AcDbLine
 10
1263.729842
 20
2133.2
 30
0.0
 11
1263.729842
 21
2131.6
 31
0.0
  0
LINE
  5
41E
100
AcDbEntity
  8
LAY-1
  6
CONTINUOUS
 62
     2
100
AcDbLine
 10
1213.729842
 20
2133.2
 30
0.0
 11
1225.364813
 21
2133.2
 31
0.0
  0
LINE
  5
41F
100
AcDbEntity
  8
LAY-1
  6
CONTINUOUS
 62
     2
100
AcDbLine
 10
1225.364813
 20
2146.6
 30
0.0
 11
1253.729842
 21
2146.6
 31
0.0
  0
LINE
  5
420
100
AcDbEntity
  8
LAY-1
  6
CONTINUOUS
 62
     2
100
AcDbLine
 10
1226.964813
 20
2145.0
 30
0.0
 11
1252.129842
 21
2145.0
 31
0.0
  0
LINE
  5
421
100
AcDbEntity
  8
LAY-1
  6
CONTINUOUS
 62
     2
100
AcDbLine
 10
1226.964813
 20
2145.0
 30
0.0
 11
1226.964813
 21
2131.6
 31
0.0
  0
LINE
  5
422
100
AcDbEntity
  8
LAY-1
  6
CONTINUOUS
 62
     2
100
AcDbLine
 10
1252.129842
 20
2145.0
 30
0.0
 11
1252.129842
 21
2131.6
 31
0.0
  0
LINE
  5
423
100
AcDbEntity
  8
LAY-1
  6
CONTINUOUS
 62
     2
100
AcDbLine
 10
1253.729842
 20
2133.2
 30
0.0
 11
1263.729842
 21
2133.2
 31
0.0
  0
LINE
  5
424
100
AcDbEntity
  8
LAY-1
  6
CONTINUOUS
 62
     2
100
AcDbLine
 10
1648.729842
 20
1883.0
 30
0.0
 11
1648.729842
 21
1937.0
 31
0.0
  0
LINE
  5
425
100
AcDbEntity
  8
LAY-1
  6
CONTINUOUS
 62
     2
100
AcDbLine
 10
1658.729842
 20
1884.054089
 30
0.0
 11
1658.729842
 21
1935.945911
 31
0.0
  0
LINE
  5
426
100
AcDbEntity
  8
LAY-1
  6
CONTINUOUS
 62
     2
100
AcDbLine
 10
1638.729842
 20
1897.0
 30
0.0
 11
1638.729842
 21
1923.0
 31
0.0
  0
ARC
  5
427
100
AcDbEntity
  8
LAY-1
  6
CONTINUOUS
 62
     2
100
AcDbCircle
 10
1637.917342
 20
1901.25
 30
0.0
 40
7.8125
100
AcDbArc
 50
339.390307
 51
20.609693
  0
LINE
  5
428
100
AcDbEntity
  8
LAY-1
  6
CONTINUOUS
 62
     2
100
AcDbLine
 10
1639.729842
 20
1898.5
 30
0.0
 11
1639.729842
 21
1921.5
 31
0.0
  0
ARC
  5
429
100
AcDbEntity
  8
LAY-1
  6
CONTINUOUS
 62
     2
100
AcDbCircle
 10
1649.229842
 20
1883.0
 30
0.0
 40
0.5
100
AcDbArc
 50
180.0
 51
270.0
  0
ARC
  5
42A
100
AcDbEntity
  8
LAY-1
  6
CONTINUOUS
 62
     2
100
AcDbCircle
 10
1657.175753
 20
1884.054089
 30
0.0
 40
1.554089
100
AcDbArc
 50
270.0
 51
0.0
  0
ARC
  5
42B
100
AcDbEntity
  8
LAY-1
  6
CONTINUOUS
 62
     2
100
AcDbCircle
 10
1656.871167
 20
1891.65347
 30
0.0
 40
1.858674
100
AcDbArc
 50
270.0
 51
90.0
  0
LINE
  5
42C
100
AcDbEntity
  8
LAY-1
  6
CONTINUOUS
 62
     2
100
AcDbLine
 10
1658.729842
 20
1884.054089
 30
0.0
 11
1648.729842
 21
1884.054089
 31
0.0
  0
LINE
  5
42D
100
AcDbEntity
  8
LAY-1
  6
CONTINUOUS
 62
     2
100
AcDbLine
 10
1656.871167
 20
1889.794796
 30
0.0
 11
1648.729842
 21
1889.794796
 31
0.0
  0
LINE
  5
42E
100
AcDbEntity
  8
LAY-1
  6
CONTINUOUS
 62
     2
100
AcDbLine
 10
1656.871167
 20
1893.512145
 30
0.0
 11
1648.729842
 21
1893.512145
 31
0.0
  0
LINE
  5
42F
100
AcDbEntity
  8
LAY-1
  6
CONTINUOUS
 62
     2
100
AcDbLine
 10
1657.175753
 20
1882.5
 30
0.0
 11
1649.229842
 21
1882.5
 31
0.0
  0
LINE
  5
430
100
AcDbEntity
  8
LAY-1
  6
CONTINUOUS
 62
     2
100
AcDbLine
 10
1638.729842
 20
1897.0
 30
0.0
 11
1631.729842
 21
1897.0
 31
0.0
  0
LINE
  5
431
100
AcDbEntity
  8
LAY-1
  6
CONTINUOUS
 62
     2
100
AcDbLine
 10
1645.229842
 20
1898.5
 30
0.0
 11
1639.729842
 21
1898.5
 31
0.0
  0
ARC
  5
432
100
AcDbEntity
  8
LAY-1
  6
CONTINUOUS
 62
     2
100
AcDbCircle
 10
1649.229842
 20
1937.0
 30
0.0
 40
0.5
100
AcDbArc
 50
90.0
 51
180.0
  0
ARC
  5
433
100
AcDbEntity
  8
LAY-1
  6
CONTINUOUS
 62
     2
100
AcDbCircle
 10
1656.871167
 20
1928.34653
 30
0.0
 40
1.858674
100
AcDbArc
 50
270.0
 51
90.0
  0
LINE
  5
434
100
AcDbEntity
  8
LAY-1
  6
CONTINUOUS
 62
     2
100
AcDbLine
 10
1656.871167
 20
1930.205204
 30
0.0
 11
1648.729842
 21
1930.205204
 31
0.0
  0
LINE
  5
435
100
AcDbEntity
  8
LAY-1
  6
CONTINUOUS
 62
     2
100
AcDbLine
 10
1656.871167
 20
1926.487855
 30
0.0
 11
1648.729842
 21
1926.487855
 31
0.0
  0
LINE
  5
436
100
AcDbEntity
  8
LAY-1
  6
CONTINUOUS
 62
     2
100
AcDbLine
 10
1658.729842
 20
1935.945911
 30
0.0
 11
1648.729842
 21
1935.945911
 31
0.0
  0
ARC
  5
437
100
AcDbEntity
  8
LAY-1
  6
CONTINUOUS
 62
     2
100
AcDbCircle
 10
1657.175753
 20
1935.945911
 30
0.0
 40
1.554089
100
AcDbArc
 50
0.0
 51
90.0
  0
LINE
  5
438
100
AcDbEntity
  8
LAY-1
  6
CONTINUOUS
 62
     2
100
AcDbLine
 10
1657.175753
 20
1937.5
 30
0.0
 11
1649.229842
 21
1937.5
 31
0.0
  0
ARC
  5
439
100
AcDbEntity
  8
LAY-1
  6
CONTINUOUS
 62
     2
100
AcDbCircle
 10
1656.101279
 20
1910.0
 30
0.0
 40
2.628562
100
AcDbArc
 50
270.0
 51
90.0
  0
LINE
  5
43A
100
AcDbEntity
  8
LAY-1
  6
CONTINUOUS
 62
     2
100
AcDbLine
 10
1656.101279
 20
1912.628562
 30
0.0
 11
1648.729842
 21
1912.628562
 31
0.0
  0
LINE
  5
43B
100
AcDbEntity
  8
LAY-1
  6
CONTINUOUS
 62
     2
100
AcDbLine
 10
1656.101279
 20
1907.371438
 30
0.0
 11
1648.729842
 21
1907.371438
 31
0.0
  0
LINE
  5
43C
100
AcDbEntity
  8
LAY-1
  6
CONTINUOUS
 62
     2
100
AcDbLine
 10
1638.729842
 20
1923.0
 30
0.0
 11
1631.729842
 21
1923.0
 31
0.0
  0
LINE
  5
43D
100
AcDbEntity
  8
LAY-1
  6
CONTINUOUS
 62
     2
100
AcDbLine
 10
1639.729842
 20
1918.5
 30
0.0
 11
1638.729842
 21
1918.5
 31
0.0
  0
LINE
  5
43E
100
AcDbEntity
  8
LAY-1
  6
CONTINUOUS
 62
     2
100
AcDbLine
 10
1639.729842
 20
1901.5
 30
0.0
 11
1638.729842
 21
1901.5
 31
0.0
  0
LINE
  5
43F
100
AcDbEntity
  8
LAY-1
  6
CONTINUOUS
 62
     2
100
AcDbLine
 10
1648.729842
 20
1907.0
 30
0.0
 11
1645.729842
 21
1907.0
 31
0.0
  0
LINE
  5
440
100
AcDbEntity
  8
LAY-1
  6
CONTINUOUS
 62
     2
100
AcDbLine
 10
1648.729842
 20
1913.0
 30
0.0
 11
1645.729842
 21
1913.0
 31
0.0
  0
LINE
  5
441
100
AcDbEntity
  8
LAY-1
  6
CONTINUOUS
 62
     2
100
AcDbLine
 10
1645.729842
 20
1901.25
 30
0.0
 11
1645.729842
 21
1918.75
 31
0.0
  0
LINE
  5
442
100
AcDbEntity
  8
LAY-1
  6
CONTINUOUS
 62
     2
100
AcDbLine
 10
1645.229842
 20
1921.5
 30
0.0
 11
1639.729842
 21
1921.5
 31
0.0
  0
LINE
  5
443
100
AcDbEntity
  8
LAY-1
  6
CONTINUOUS
 62
     2
100
AcDbLine
 10
1645.229842
 20
1916.0
 30
0.0
 11
1639.729842
 21
1916.0
 31
0.0
  0
LINE
  5
444
100
AcDbEntity
  8
LAY-1
  6
CONTINUOUS
 62
     2
100
AcDbLine
 10
1645.229842
 20
1904.0
 30
0.0
 11
1639.729842
 21
1904.0
 31
0.0
  0
ARC
  5
445
100
AcDbEntity
  8
LAY-1
  6
CONTINUOUS
 62
     2
100
AcDbCircle
 10
1637.917342
 20
1918.75
 30
0.0
 40
7.8125
100
AcDbArc
 50
339.390307
 51
20.609693
  0
ARC
  5
446
100
AcDbEntity
  8
LAY-1
  6
CONTINUOUS
 62
     2
100
AcDbCircle
 10
1609.479842
 20
1910.0
 30
0.0
 40
36.25
100
AcDbArc
 50
350.472717
 51
9.527283
  0
ARC
  5
447
100
AcDbEntity
  8
LAY-1
  6
CONTINUOUS
 62
     2
100
AcDbCircle
 10
1660.739342
 20
1887.392286
 30
0.0
 40
3.896364
100
AcDbArc
 50
132.232219
 51
238.953252
  0
ARC
  5
448
100
AcDbEntity
  8
LAY-1
  6
CONTINUOUS
 62
     2
100
AcDbCircle
 10
1671.164406
 20
1900.716326
 30
0.0
 40
15.065629
100
AcDbArc
 50
148.353731
 51
212.377391
  0
ARC
  5
449
100
AcDbEntity
  8
LAY-1
  6
CONTINUOUS
 62
     2
100
AcDbCircle
 10
1671.164406
 20
1919.283674
 30
0.0
 40
15.065629
100
AcDbArc
 50
147.622609
 51
211.646269
  0
ARC
  5
44A
100
AcDbEntity
  8
LAY-1
  6
CONTINUOUS
 62
     2
100
AcDbCircle
 10
1660.739342
 20
1932.607714
 30
0.0
 40
3.896364
100
AcDbArc
 50
121.046748
 51
227.767781
  0
LINE
  5
44B
100
AcDbEntity
  8
LAY-1
  6
CONTINUOUS
 62
     2
100
AcDbLine
 10
1538.579842
 20
2410.921447
 30
0.0
 11
1538.579842
 21
2375.921447
 31
0.0
  0
LINE
  5
44C
100
AcDbEntity
  8
LAY-1
  6
CONTINUOUS
 62
     2
100
AcDbLine
 10
1506.879842
 20
2410.921447
 30
0.0
 11
1506.879842
 21
2375.921447
 31
0.0
  0
LINE
  5
44D
100
AcDbEntity
  8
LAY-1
  6
CONTINUOUS
 62
     2
100
AcDbLine
 10
1538.579842
 20
2410.921447
 30
0.0
 11
1506.879842
 21
2410.921447
 31
0.0
  0
LINE
  5
44E
100
AcDbEntity
  8
LAY-1
  6
CONTINUOUS
 62
     2
100
AcDbLine
 10
1538.579842
 20
2375.921447
 30
0.0
 11
1506.879842
 21
2375.921447
 31
0.0
  0
LINE
  5
44F
100
AcDbEntity
  8
LAY-1
  6
CONTINUOUS
 62
     2
100
AcDbLine
 10
1597.729842
 20
1258.0
 30
0.0
 11
1597.729842
 21
1204.5
 31
0.0
  0
LINE
  5
450
100
AcDbEntity
  8
LAY-1
  6
EXLTYPE3
 62
     1
100
AcDbLine
 10
1522.729842
 20
2420.921447
 30
0.0
 11
1522.729842
 21
1871.1
 31
0.0
  0
LINE
  5
451
100
AcDbEntity
  8
LAY-1
  6
EXLTYPE3
 62
     1
100
AcDbLine
 10
1437.0
 20
1950.0
 30
0.0
 11
1602.0
 21
1950.0
 31
0.0
  0
CIRCLE
  5
452
100
AcDbEntity
  8
LAY-1
  6
CONTINUOUS
 62
     2
100
AcDbCircle
 10
1237.729842
 20
2015.0
 30
0.0
 40
50.0
  0
CIRCLE
  5
453
100
AcDbEntity
  8
LAY-1
  6
CONTINUOUS
 62
     2
100
AcDbCircle
 10
1522.729842
 20
1950.0
 30
0.0
 40
62.5
  0
ARC
  5
454
100
AcDbEntity
  8
LAY-1
  6
CONTINUOUS
 62
     2
100
AcDbCircle
 10
1574.739342
 20
2035.727714
 30
0.0
 40
3.896364
100
AcDbArc
 50
121.046748
 51
227.767781
  0
ARC
  5
455
100
AcDbEntity
  8
LAY-1
  6
CONTINUOUS
 62
     2
100
AcDbCircle
 10
1585.164406
 20
2022.403674
 30
0.0
 40
15.065629
100
AcDbArc
 50
147.622609
 51
211.646269
  0
ARC
  5
456
100
AcDbEntity
  8
LAY-1
  6
CONTINUOUS
 62
     2
100
AcDbCircle
 10
1585.164406
 20
2003.836326
 30
0.0
 40
15.065629
100
AcDbArc
 50
148.353731
 51
212.377391
  0
ARC
  5
457
100
AcDbEntity
  8
LAY-1
  6
CONTINUOUS
 62
     2
100
AcDbCircle
 10
1523.479842
 20
2013.12
 30
0.0
 40
36.25
100
AcDbArc
 50
350.472717
 51
9.527283
  0
ARC
  5
458
100
AcDbEntity
  8
LAY-1
  6
CONTINUOUS
 62
     2
100
AcDbCircle
 10
1551.917342
 20
2021.87
 30
0.0
 40
7.8125
100
AcDbArc
 50
339.390307
 51
20.609693
  0
LINE
  5
459
100
AcDbEntity
  8
LAY-1
  6
CONTINUOUS
 62
     2
100
AcDbLine
 10
1559.229842
 20
2007.12
 30
0.0
 11
1553.729842
 21
2007.12
 31
0.0
  0
LINE
  5
45A
100
AcDbEntity
  8
LAY-1
  6
CONTINUOUS
 62
     2
100
AcDbLine
 10
1559.229842
 20
2019.12
 30
0.0
 11
1553.729842
 21
2019.12
 31
0.0
  0
LINE
  5
45B
100
AcDbEntity
  8
LAY-1
  6
CONTINUOUS
 62
     2
100
AcDbLine
 10
1559.229842
 20
2024.62
 30
0.0
 11
1553.729842
 21
2024.62
 31
0.0
  0
LINE
  5
45C
100
AcDbEntity
  8
LAY-1
  6
CONTINUOUS
 62
     2
100
AcDbLine
 10
1559.729842
 20
2004.37
 30
0.0
 11
1559.729842
 21
2021.87
 31
0.0
  0
LINE
  5
45D
100
AcDbEntity
  8
LAY-1
  6
CONTINUOUS
 62
     2
100
AcDbLine
 10
1562.729842
 20
2016.12
 30
0.0
 11
1559.729842
 21
2016.12
 31
0.0
  0
LINE
  5
45E
100
AcDbEntity
  8
LAY-1
  6
CONTINUOUS
 62
     2
100
AcDbLine
 10
1562.729842
 20
2010.12
 30
0.0
 11
1559.729842
 21
2010.12
 31
0.0
  0
LINE
  5
45F
100
AcDbEntity
  8
LAY-1
  6
CONTINUOUS
 62
     2
100
AcDbLine
 10
1553.729842
 20
2021.62
 30
0.0
 11
1552.729842
 21
2021.62
 31
0.0
  0
LINE
  5
460
100
AcDbEntity
  8
LAY-1
  6
CONTINUOUS
 62
     2
100
AcDbLine
 10
1552.729842
 20
2026.12
 30
0.0
 11
1538.729842
 21
2026.12
 31
0.0
  0
LINE
  5
461
100
AcDbEntity
  8
LAY-1
  6
CONTINUOUS
 62
     2
100
AcDbLine
 10
1538.729842
 20
2026.12
 30
0.0
 11
1536.229842
 21
2022.62
 31
0.0
  0
LINE
  5
462
100
AcDbEntity
  8
LAY-1
  6
CONTINUOUS
 62
     2
100
AcDbLine
 10
1570.101279
 20
2010.491438
 30
0.0
 11
1562.729842
 21
2010.491438
 31
0.0
  0
LINE
  5
463
100
AcDbEntity
  8
LAY-1
  6
CONTINUOUS
 62
     2
100
AcDbLine
 10
1570.101279
 20
2015.748562
 30
0.0
 11
1562.729842
 21
2015.748562
 31
0.0
  0
ARC
  5
464
100
AcDbEntity
  8
LAY-1
  6
CONTINUOUS
 62
     2
100
AcDbCircle
 10
1570.101279
 20
2013.12
 30
0.0
 40
2.628562
100
AcDbArc
 50
270.0
 51
90.0
  0
LINE
  5
465
100
AcDbEntity
  8
LAY-1
  6
CONTINUOUS
 62
     2
100
AcDbLine
 10
1571.175753
 20
2040.62
 30
0.0
 11
1563.229842
 21
2040.62
 31
0.0
  0
ARC
  5
466
100
AcDbEntity
  8
LAY-1
  6
CONTINUOUS
 62
     2
100
AcDbCircle
 10
1571.175753
 20
2039.065911
 30
0.0
 40
1.554089
100
AcDbArc
 50
0.0
 51
90.0
  0
LINE
  5
467
100
AcDbEntity
  8
LAY-1
  6
CONTINUOUS
 62
     2
100
AcDbLine
 10
1572.729842
 20
2039.065911
 30
0.0
 11
1562.729842
 21
2039.065911
 31
0.0
  0
LINE
  5
468
100
AcDbEntity
  8
LAY-1
  6
CONTINUOUS
 62
     2
100
AcDbLine
 10
1570.871167
 20
2029.607855
 30
0.0
 11
1562.729842
 21
2029.607855
 31
0.0
  0
LINE
  5
469
100
AcDbEntity
  8
LAY-1
  6
CONTINUOUS
 62
     2
100
AcDbLine
 10
1570.871167
 20
2033.325204
 30
0.0
 11
1562.729842
 21
2033.325204
 31
0.0
  0
ARC
  5
46A
100
AcDbEntity
  8
LAY-1
  6
CONTINUOUS
 62
     2
100
AcDbCircle
 10
1570.871167
 20
2031.46653
 30
0.0
 40
1.858674
100
AcDbArc
 50
270.0
 51
90.0
  0
ARC
  5
46B
100
AcDbEntity
  8
LAY-1
  6
CONTINUOUS
 62
     2
100
AcDbCircle
 10
1563.229842
 20
2040.12
 30
0.0
 40
0.5
100
AcDbArc
 50
90.0
 51
180.0
  0
ARC
  5
46C
100
AcDbEntity
  8
LAY-1
  6
CONTINUOUS
 62
     2
100
AcDbCircle
 10
1570.871167
 20
1994.77347
 30
0.0
 40
1.858674
100
AcDbArc
 50
270.0
 51
90.0
  0
ARC
  5
46D
100
AcDbEntity
  8
LAY-1
  6
CONTINUOUS
 62
     2
100
AcDbCircle
 10
1551.917342
 20
2004.37
 30
0.0
 40
7.8125
100
AcDbArc
 50
339.390307
 51
20.609693
  0
LINE
  5
46E
100
AcDbEntity
  8
LAY-1
  6
CONTINUOUS
 62
     2
100
AcDbLine
 10
1536.229842
 20
2030.12
 30
0.0
 11
1536.229842
 21
2011.024585
 31
0.0
  0
LINE
  5
46F
100
AcDbEntity
  8
LAY-1
  6
CONTINUOUS
 62
     2
100
AcDbLine
 10
1509.229842
 20
2030.12
 30
0.0
 11
1509.229842
 21
2011.024585
 31
0.0
  0
LINE
  5
470
100
AcDbEntity
  8
LAY-1
  6
CONTINUOUS
 62
     2
100
AcDbLine
 10
1536.229842
 20
2030.12
 30
0.0
 11
1509.229842
 21
2030.12
 31
0.0
  0
LINE
  5
471
100
AcDbEntity
  8
LAY-1
  6
CONTINUOUS
 62
     1
100
AcDbLine
 10
1531.379842
 20
2040.921447
 30
0.0
 11
1529.879842
 21
2038.921447
 31
0.0
  0
LINE
  5
472
100
AcDbEntity
  8
LAY-1
  6
CONTINUOUS
 62
     1
100
AcDbLine
 10
1514.079842
 20
2040.921447
 30
0.0
 11
1515.579842
 21
2038.921447
 31
0.0
  0
ARC
  5
473
100
AcDbEntity
  8
LAY-1
  6
CONTINUOUS
 62
     2
100
AcDbCircle
 10
1535.479842
 20
2050.452697
 30
0.0
 40
9.53125
100
AcDbArc
 50
243.51896
 51
296.48104
  0
ARC
  5
474
100
AcDbEntity
  8
LAY-1
  6
CONTINUOUS
 62
     2
100
AcDbCircle
 10
1522.729842
 20
2077.546447
 30
0.0
 40
36.625
100
AcDbArc
 50
256.580326
 51
283.419674
  0
ARC
  5
475
100
AcDbEntity
  8
LAY-1
  6
CONTINUOUS
 62
     2
100
AcDbCircle
 10
1509.979842
 20
2050.452697
 30
0.0
 40
9.53125
100
AcDbArc
 50
243.51896
 51
296.48104
  0
ARC
  5
476
100
AcDbEntity
  8
LAY-1
  6
CONTINUOUS
 62
     2
100
AcDbCircle
 10
1535.479842
 20
2076.390197
 30
0.0
 40
9.53125
100
AcDbArc
 50
63.51896
 51
116.48104
  0
ARC
  5
477
100
AcDbEntity
  8
LAY-1
  6
CONTINUOUS
 62
     2
100
AcDbCircle
 10
1522.729842
 20
2049.296447
 30
0.0
 40
36.625
100
AcDbArc
 50
76.580326
 51
103.419674
  0
ARC
  5
478
100
AcDbEntity
  8
LAY-1
  6
CONTINUOUS
 62
     2
100
AcDbCircle
 10
1509.979842
 20
2076.390197
 30
0.0
 40
9.53125
100
AcDbArc
 50
63.51896
 51
116.48104
  0
LINE
  5
479
100
AcDbEntity
  8
LAY-1
  6
CONTINUOUS
 62
     2
100
AcDbLine
 10
1539.729842
 20
2086.921447
 30
0.0
 11
1539.729842
 21
2109.921447
 31
0.0
  0
LINE
  5
47A
100
AcDbEntity
  8
LAY-1
  6
CONTINUOUS
 62
     2
100
AcDbLine
 10
1539.729842
 20
2041.921447
 30
0.0
 11
1539.729842
 21
2084.921447
 31
0.0
  0
LINE
  5
47B
100
AcDbEntity
  8
LAY-1
  6
CONTINUOUS
 62
     2
100
AcDbLine
 10
1505.729842
 20
2041.921447
 30
0.0
 11
1505.729842
 21
2084.921447
 31
0.0
  0
LINE
  5
47C
100
AcDbEntity
  8
LAY-1
  6
CONTINUOUS
 62
     2
100
AcDbLine
 10
1514.229842
 20
2041.921447
 30
0.0
 11
1514.229842
 21
2084.921447
 31
0.0
  0
LINE
  5
47D
100
AcDbEntity
  8
LAY-1
  6
CONTINUOUS
 62
     2
100
AcDbLine
 10
1531.229842
 20
2041.921447
 30
0.0
 11
1531.229842
 21
2084.921447
 31
0.0
  0
ARC
  5
47E
100
AcDbEntity
  8
LAY-1
  6
CONTINUOUS
 62
     2
100
AcDbCircle
 10
1535.479842
 20
2095.452697
 30
0.0
 40
9.53125
100
AcDbArc
 50
243.51896
 51
296.48104
  0
ARC
  5
47F
100
AcDbEntity
  8
LAY-1
  6
CONTINUOUS
 62
     2
100
AcDbCircle
 10
1522.729842
 20
2122.546447
 30
0.0
 40
36.625
100
AcDbArc
 50
256.580326
 51
283.419674
  0
ARC
  5
480
100
AcDbEntity
  8
LAY-1
  6
CONTINUOUS
 62
     2
100
AcDbCircle
 10
1509.979842
 20
2095.452697
 30
0.0
 40
9.53125
100
AcDbArc
 50
243.51896
 51
296.48104
  0
LINE
  5
481
100
AcDbEntity
  8
LAY-1
  6
CONTINUOUS
 62
     2
100
AcDbLine
 10
1509.979842
 20
2085.921447
 30
0.0
 11
1535.479842
 21
2085.921447
 31
0.0
  0
ARC
  5
482
100
AcDbEntity
  8
LAY-1
  6
CONTINUOUS
 62
     2
100
AcDbCircle
 10
1535.479842
 20
2101.390197
 30
0.0
 40
9.53125
100
AcDbArc
 50
63.51896
 51
116.48104
  0
ARC
  5
483
100
AcDbEntity
  8
LAY-1
  6
CONTINUOUS
 62
     2
100
AcDbCircle
 10
1522.729842
 20
2074.296447
 30
0.0
 40
36.625
100
AcDbArc
 50
76.580326
 51
103.419674
  0
ARC
  5
484
100
AcDbEntity
  8
LAY-1
  6
CONTINUOUS
 62
     2
100
AcDbCircle
 10
1509.979842
 20
2101.390197
 30
0.0
 40
9.53125
100
AcDbArc
 50
63.51896
 51
116.48104
  0
LINE
  5
485
100
AcDbEntity
  8
LAY-1
  6
CONTINUOUS
 62
     2
100
AcDbLine
 10
1505.729842
 20
2109.921447
 30
0.0
 11
1505.729842
 21
2086.921447
 31
0.0
  0
LINE
  5
486
100
AcDbEntity
  8
LAY-1
  6
CONTINUOUS
 62
     2
100
AcDbLine
 10
1514.229842
 20
2109.921447
 30
0.0
 11
1514.229842
 21
2086.921447
 31
0.0
  0
LINE
  5
487
100
AcDbEntity
  8
LAY-1
  6
CONTINUOUS
 62
     2
100
AcDbLine
 10
1531.229842
 20
2109.921447
 30
0.0
 11
1531.229842
 21
2086.921447
 31
0.0
  0
LINE
  5
488
100
AcDbEntity
  8
LAY-1
  6
CONTINUOUS
 62
     2
100
AcDbLine
 10
1509.979842
 20
2040.921447
 30
0.0
 11
1535.479842
 21
2040.921447
 31
0.0
  0
LINE
  5
489
100
AcDbEntity
  8
LAY-1
  6
CONTINUOUS
 62
     2
100
AcDbLine
 10
1509.979842
 20
2110.921447
 30
0.0
 11
1535.479842
 21
2110.921447
 31
0.0
  0
LINE
  5
48A
100
AcDbEntity
  8
LAY-1
  6
CONTINUOUS
 62
     2
100
AcDbLine
 10
1531.379842
 20
2040.921447
 30
0.0
 11
1531.379842
 21
2030.12
 31
0.0
  0
LINE
  5
48B
100
AcDbEntity
  8
LAY-1
  6
CONTINUOUS
 62
     1
100
AcDbLine
 10
1529.879842
 20
2038.921447
 30
0.0
 11
1529.879842
 21
2030.12
 31
0.0
  0
LINE
  5
48C
100
AcDbEntity
  8
LAY-1
  6
CONTINUOUS
 62
     1
100
AcDbLine
 10
1515.579842
 20
2038.921447
 30
0.0
 11
1515.579842
 21
2030.12
 31
0.0
  0
LINE
  5
48D
100
AcDbEntity
  8
LAY-1
  6
CONTINUOUS
 62
     2
100
AcDbLine
 10
1514.079842
 20
2040.921447
 30
0.0
 11
1514.079842
 21
2030.12
 31
0.0
  0
LINE
  5
48E
100
AcDbEntity
  8
LAY-1
  6
CONTINUOUS
 62
     2
100
AcDbLine
 10
1514.079842
 20
2038.921447
 30
0.0
 11
1522.729842
 21
2038.921447
 31
0.0
  0
LINE
  5
48F
100
AcDbEntity
  8
LAY-1
  6
CONTINUOUS
 62
     2
100
AcDbLine
 10
1522.729842
 20
2038.921447
 30
0.0
 11
1531.379842
 21
2038.921447
 31
0.0
  0
LINE
  5
490
100
AcDbEntity
  8
LAY-1
  6
CONTINUOUS
 62
     2
100
AcDbLine
 10
1533.579842
 20
2375.921447
 30
0.0
 11
1533.579842
 21
2110.921447
 31
0.0
  0
LINE
  5
491
100
AcDbEntity
  8
LAY-1
  6
CONTINUOUS
 62
     2
100
AcDbLine
 10
1511.879842
 20
2375.921447
 30
0.0
 11
1511.879842
 21
2110.921447
 31
0.0
  0
LINE
  5
492
100
AcDbEntity
  8
LAY-1
  6
CONTINUOUS
 62
     2
100
AcDbLine
 10
1533.579842
 20
2130.0
 30
0.0
 11
1631.729842
 21
2130.0
 31
0.0
  0
LINE
  5
493
100
AcDbEntity
  8
LAY-1
  6
CONTINUOUS
 62
     2
100
AcDbLine
 10
1133.729842
 20
2130.0
 30
0.0
 11
1511.879842
 21
2130.0
 31
0.0
  0
LINE
  5
494
100
AcDbEntity
  8
LAY-1
  6
CONTINUOUS
 62
     2
100
AcDbLine
 10
1553.729842
 20
2004.270158
 30
0.0
 11
1553.729842
 21
2024.62
 31
0.0
  0
LINE
  5
495
100
AcDbEntity
  8
LAY-1
  6
CONTINUOUS
 62
     2
100
AcDbLine
 10
1538.729842
 20
2010.417299
 30
0.0
 11
1538.729842
 21
2026.12
 31
0.0
  0
LINE
  5
496
100
AcDbEntity
  8
LAY-1
  6
CONTINUOUS
 62
     2
100
AcDbLine
 10
1559.229842
 20
2001.62
 30
0.0
 11
1557.96655
 21
2001.62
 31
0.0
  0
LINE
  5
497
100
AcDbEntity
  8
LAY-1
  6
CONTINUOUS
 62
     2
100
AcDbLine
 10
1552.729842
 20
2004.82928
 30
0.0
 11
1552.729842
 21
2026.12
 31
0.0
  0
LINE
  5
498
100
AcDbEntity
  8
LAY-1
  6
CONTINUOUS
 62
     2
100
AcDbLine
 10
1553.729842
 20
2004.62
 30
0.0
 11
1553.109203
 21
2004.62
 31
0.0
  0
ARC
  5
499
100
AcDbEntity
  8
LAY-1
  6
CONTINUOUS
 62
     2
100
AcDbCircle
 10
1574.739342
 20
1990.512286
 30
0.0
 40
3.896364
100
AcDbArc
 50
132.232219
 51
190.288561
  0
LINE
  5
49A
100
AcDbEntity
  8
LAY-1
  6
CONTINUOUS
 62
     2
100
AcDbLine
 10
1572.729842
 20
1987.5
 30
0.0
 11
1572.729842
 21
2039.065911
 31
0.0
  0
LINE
  5
49B
100
AcDbEntity
  8
LAY-1
  6
CONTINUOUS
 62
     2
100
AcDbLine
 10
1570.871167
 20
1992.914796
 30
0.0
 11
1568.167385
 21
1992.914796
 31
0.0
  0
LINE
  5
49C
100
AcDbEntity
  8
LAY-1
  6
CONTINUOUS
 62
     2
100
AcDbLine
 10
1562.729842
 20
1998.023432
 30
0.0
 11
1562.729842
 21
2040.12
 31
0.0
  0
LINE
  5
49D
100
AcDbEntity
  8
LAY-1
  6
CONTINUOUS
 62
     2
100
AcDbLine
 10
1570.871167
 20
1996.632145
 30
0.0
 11
1564.343458
 21
1996.632145
 31
0.0
  0
LINE
  5
49E
100
AcDbEntity
  8
LAY-1
  6
EXLTYPE3
 62
     1
100
AcDbLine
 10
1237.729842
 20
1954.35
 30
0.0
 11
1237.729842
 21
2077.1
 31
0.0
  0
LINE
  5
49F
100
AcDbEntity
  8
LAY-1
  6
EXLTYPE3
 62
     1
100
AcDbLine
 10
1170.6
 20
2015.0
 30
0.0
 11
1303.0
 21
2015.0
 31
0.0
  0
CIRCLE
  5
4A0
100
AcDbEntity
  8
LAY-1
  6
CONTINUOUS
 62
     2
100
AcDbCircle
 10
1264.246346
 20
1988.483496
 30
0.0
 40
7.5
  0
CIRCLE
  5
4A1
100
AcDbEntity
  8
LAY-1
  6
CONTINUOUS
 62
     2
100
AcDbCircle
 10
1211.213337
 20
1988.483496
 30
0.0
 40
7.5
  0
CIRCLE
  5
4A2
100
AcDbEntity
  8
LAY-1
  6
CONTINUOUS
 62
     2
100
AcDbCircle
 10
1237.729842
 20
2015.0
 30
0.0
 40
10.7
  0
CIRCLE
  5
4A3
100
AcDbEntity
  8
LAY-1
  6
CONTINUOUS
 62
     2
100
AcDbCircle
 10
1264.246346
 20
2041.516504
 30
0.0
 40
7.5
  0
CIRCLE
  5
4A4
100
AcDbEntity
  8
LAY-1
  6
CONTINUOUS
 62
     2
100
AcDbCircle
 10
1211.213337
 20
2041.516504
 30
0.0
 40
7.5
  0
CIRCLE
  5
4A5
100
AcDbEntity
  8
LAY-1
  6
CONTINUOUS
 62
     2
100
AcDbCircle
 10
1554.549647
 20
1918.180195
 30
0.0
 40
9.5
  0
CIRCLE
  5
4A6
100
AcDbEntity
  8
LAY-1
  6
CONTINUOUS
 62
     2
100
AcDbCircle
 10
1490.910037
 20
1918.180195
 30
0.0
 40
9.5
  0
CIRCLE
  5
4A7
100
AcDbEntity
  8
LAY-1
  6
CONTINUOUS
 62
     2
100
AcDbCircle
 10
1522.729842
 20
1950.0
 30
0.0
 40
13.6
  0
CIRCLE
  5
4A8
100
AcDbEntity
  8
LAY-1
  6
CONTINUOUS
 62
     2
100
AcDbCircle
 10
1554.549647
 20
1981.819805
 30
0.0
 40
9.5
  0
CIRCLE
  5
4A9
100
AcDbEntity
  8
LAY-1
  6
CONTINUOUS
 62
     2
100
AcDbCircle
 10
1490.910037
 20
1981.819805
 30
0.0
 40
9.5
  0
CIRCLE
  5
4AA
100
AcDbEntity
  8
LAY-1
  6
CONTINUOUS
 62
     2
100
AcDbCircle
 10
1522.729842
 20
1950.0
 30
0.0
 40
33.5
  0
CIRCLE
  5
4AB
100
AcDbEntity
  8
LAY-1
  6
CONTINUOUS
 62
     2
100
AcDbCircle
 10
1237.729842
 20
2015.0
 30
0.0
 40
28.0
  0
TEXT
  5
4AC
100
AcDbEntity
  8
LAY-1
  6
CONTINUOUS
 62
     3
100
AcDbText
 10
4754.808
 20
729.66
 30
0.0
 40
60.0
  1
ＶＨ－１５０Ｆ
 41
0.84
  7
EXCADSTD
 72
     5
 11
5174.808
 21
729.66
 31
0.0
100
AcDbText
  0
TEXT
  5
4AD
100
AcDbEntity
  8
LAY-1
  6
CONTINUOUS
 62
     3
100
AcDbText
 10
4786.44
 20
812.46
 30
0.0
 40
60.0
  1
２０１８年　５月３０日
 41
0.84
  7
EXCADSTD
 72
     5
 11
5446.44
 21
812.46
 31
0.0
100
AcDbText
  0
LINE
  5
4AE
100
AcDbEntity
  8
LAY-1
  6
CONTINUOUS
 62
     2
100
AcDbLine
 10
3501.5
 20
3261.5
 30
0.0
 11
3501.5
 21
2781.5
 31
0.0
  0
LINE
  5
4AF
100
AcDbEntity
  8
LAY-1
  6
CONTINUOUS
 62
     2
100
AcDbLine
 10
3967.5
 20
3358.0
 30
0.0
 11
3967.5
 21
3340.0
 31
0.0
  0
LINE
  5
4B0
100
AcDbEntity
  8
LAY-1
  6
CONTINUOUS
 62
     2
100
AcDbLine
 10
3936.5
 20
3317.25
 30
0.0
 11
3936.5
 21
3329.5
 31
0.0
  0
LINE
  5
4B1
100
AcDbEntity
  8
LAY-1
  6
CONTINUOUS
 62
     2
100
AcDbLine
 10
3966.5
 20
3317.25
 30
0.0
 11
3966.5
 21
3329.5
 31
0.0
  0
LINE
  5
4B2
100
AcDbEntity
  8
LAY-1
  6
CONTINUOUS
 62
     2
100
AcDbLine
 10
3935.5
 20
3329.5
 30
0.0
 11
3935.5
 21
3335.5
 31
0.0
  0
LINE
  5
4B3
100
AcDbEntity
  8
LAY-1
  6
CONTINUOUS
 62
     2
100
AcDbLine
 10
3967.5
 20
3329.5
 30
0.0
 11
3967.5
 21
3335.5
 31
0.0
  0
LINE
  5
4B4
100
AcDbEntity
  8
LAY-1
  6
CONTINUOUS
 62
     2
100
AcDbLine
 10
3936.5
 20
3369.25
 30
0.0
 11
3936.5
 21
3380.75
 31
0.0
  0
LINE
  5
4B5
100
AcDbEntity
  8
LAY-1
  6
CONTINUOUS
 62
     2
100
AcDbLine
 10
3966.5
 20
3369.25
 30
0.0
 11
3966.5
 21
3380.75
 31
0.0
  0
LINE
  5
4B6
100
AcDbEntity
  8
LAY-1
  6
CONTINUOUS
 62
     2
100
AcDbLine
 10
3936.5
 20
3297.5
 30
0.0
 11
3936.5
 21
3275.5
 31
0.0
  0
LINE
  5
4B7
100
AcDbEntity
  8
LAY-1
  6
CONTINUOUS
 62
     2
100
AcDbLine
 10
3966.5
 20
3297.5
 30
0.0
 11
3966.5
 21
3275.5
 31
0.0
  0
LINE
  5
4B8
100
AcDbEntity
  8
LAY-1
  6
CONTINUOUS
 62
     2
100
AcDbLine
 10
4024.286604
 20
3355.493678
 30
0.0
 11
3967.5
 21
3358.0
 31
0.0
  0
LINE
  5
4B9
100
AcDbEntity
  8
LAY-1
  6
CONTINUOUS
 62
     2
100
AcDbLine
 10
4024.286604
 20
3342.506322
 30
0.0
 11
3967.5
 21
3340.0
 31
0.0
  0
ARC
  5
4BA
100
AcDbEntity
  8
LAY-1
  6
CONTINUOUS
 62
     2
100
AcDbCircle
 10
4024.0
 20
3349.0
 30
0.0
 40
6.5
100
AcDbArc
 50
272.527154
 51
87.472846
  0
LINE
  5
4BB
100
AcDbEntity
  8
LAY-1
  6
CONTINUOUS
 62
     2
100
AcDbLine
 10
3937.9
 20
3297.5
 30
0.0
 11
3936.5
 21
3297.5
 31
0.0
  0
LINE
  5
4BC
100
AcDbEntity
  8
LAY-1
  6
CONTINUOUS
 62
     2
100
AcDbLine
 10
3966.5
 20
3297.5
 30
0.0
 11
3965.1
 21
3297.5
 31
0.0
  0
ARC
  5
4BD
100
AcDbEntity
  8
LAY-1
  6
CONTINUOUS
 62
     2
100
AcDbCircle
 10
3939.0
 20
3321.041667
 30
0.0
 40
4.541667
100
AcDbArc
 50
236.601512
 51
255.983469
  0
ARC
  5
4BE
100
AcDbEntity
  8
LAY-1
  6
CONTINUOUS
 62
     2
100
AcDbCircle
 10
3964.0
 20
3321.041667
 30
0.0
 40
4.541667
100
AcDbArc
 50
284.016531
 51
303.398488
  0
LINE
  5
4BF
100
AcDbEntity
  8
LAY-1
  6
CONTINUOUS
 62
     2
100
AcDbLine
 10
3935.5
 20
3329.5
 30
0.0
 11
3937.9
 21
3329.5
 31
0.0
  0
LINE
  5
4C0
100
AcDbEntity
  8
LAY-1
  6
CONTINUOUS
 62
     2
100
AcDbLine
 10
3965.1
 20
3329.5
 30
0.0
 11
3967.5
 21
3329.5
 31
0.0
  0
LINE
  5
4C1
100
AcDbEntity
  8
LAY-1
  6
CONTINUOUS
 62
     2
100
AcDbLine
 10
3935.5
 20
3332.5
 30
0.0
 11
3937.9
 21
3332.5
 31
0.0
  0
LINE
  5
4C2
100
AcDbEntity
  8
LAY-1
  6
CONTINUOUS
 62
     2
100
AcDbLine
 10
3965.1
 20
3332.5
 30
0.0
 11
3967.5
 21
3332.5
 31
0.0
  0
LINE
  5
4C3
100
AcDbEntity
  8
LAY-1
  6
CONTINUOUS
 62
     2
100
AcDbLine
 10
3935.5
 20
3335.5
 30
0.0
 11
3937.9
 21
3335.5
 31
0.0
  0
LINE
  5
4C4
100
AcDbEntity
  8
LAY-1
  6
CONTINUOUS
 62
     2
100
AcDbLine
 10
3965.1
 20
3335.5
 30
0.0
 11
3967.5
 21
3335.5
 31
0.0
  0
LINE
  5
4C5
100
AcDbEntity
  8
LAY-1
  6
CONTINUOUS
 62
     2
100
AcDbLine
 10
3965.1
 20
3340.0
 30
0.0
 11
3967.5
 21
3340.0
 31
0.0
  0
LINE
  5
4C6
100
AcDbEntity
  8
LAY-1
  6
CONTINUOUS
 62
     2
100
AcDbLine
 10
3937.5
 20
3335.5
 30
0.0
 11
3937.9
 21
3344.7
 31
0.0
  0
LINE
  5
4C7
100
AcDbEntity
  8
LAY-1
  6
CONTINUOUS
 62
     2
100
AcDbLine
 10
3965.1
 20
3358.0
 30
0.0
 11
3967.5
 21
3358.0
 31
0.0
  0
LINE
  5
4C8
100
AcDbEntity
  8
LAY-1
  6
CONTINUOUS
 62
     2
100
AcDbLine
 10
3965.5
 20
3335.5
 30
0.0
 11
3965.1
 21
3344.7
 31
0.0
  0
ARC
  5
4C9
100
AcDbEntity
  8
LAY-1
  6
CONTINUOUS
 62
     2
100
AcDbCircle
 10
3939.0
 20
3376.958333
 30
0.0
 40
4.541667
100
AcDbArc
 50
104.016531
 51
123.398488
  0
ARC
  5
4CA
100
AcDbEntity
  8
LAY-1
  6
CONTINUOUS
 62
     2
100
AcDbCircle
 10
3939.0
 20
3373.041667
 30
0.0
 40
4.541667
100
AcDbArc
 50
236.601512
 51
255.983469
  0
ARC
  5
4CB
100
AcDbEntity
  8
LAY-1
  6
CONTINUOUS
 62
     2
100
AcDbCircle
 10
3964.0
 20
3373.041667
 30
0.0
 40
4.541667
100
AcDbArc
 50
284.016531
 51
303.398488
  0
ARC
  5
4CC
100
AcDbEntity
  8
LAY-1
  6
CONTINUOUS
 62
     2
100
AcDbCircle
 10
3964.0
 20
3376.958333
 30
0.0
 40
4.541667
100
AcDbArc
 50
56.601512
 51
75.983469
  0
LINE
  5
4CD
100
AcDbEntity
  8
LAY-1
  6
CONTINUOUS
 62
     2
100
AcDbLine
 10
2482.5
 20
1258.0
 30
0.0
 11
2982.5
 21
1258.0
 31
0.0
  0
ARC
  5
4CE
100
AcDbEntity
  8
LAY-1
  6
CONTINUOUS
 62
     2
100
AcDbCircle
 10
1247.729842
 20
1281.400855
 30
0.0
 40
2.0
100
AcDbArc
 50
289.983107
 51
0.0
  0
LINE
  5
4CF
100
AcDbEntity
  8
LAY-1
  6
CONTINUOUS
 62
     2
100
AcDbLine
 10
1248.413328
 20
1279.521268
 30
0.0
 11
1244.229842
 21
1278.0
 31
0.0
  0
LINE
  5
4D0
100
AcDbEntity
  8
LAY-1
  6
CONTINUOUS
 62
     2
100
AcDbLine
 10
1246.729842
 20
1286.3
 30
0.0
 11
1249.729842
 21
1286.3
 31
0.0
  0
LINE
  5
4D1
100
AcDbEntity
  8
LAY-1
  6
CONTINUOUS
 62
     2
100
AcDbLine
 10
1246.729842
 20
1286.3
 30
0.0
 11
1246.729842
 21
1283.0
 31
0.0
  0
LINE
  5
4D2
100
AcDbEntity
  8
LAY-1
  6
CONTINUOUS
 62
     2
100
AcDbLine
 10
1249.729842
 20
1286.3
 30
0.0
 11
1249.729842
 21
1281.400855
 31
0.0
  0
LINE
  5
4D3
100
AcDbEntity
  8
LAY-1
  6
CONTINUOUS
 62
     2
100
AcDbLine
 10
1245.729842
 20
1284.0
 30
0.0
 11
1229.729842
 21
1284.0
 31
0.0
  0
LINE
  5
4D4
100
AcDbEntity
  8
LAY-1
  6
CONTINUOUS
 62
     2
100
AcDbLine
 10
1245.729842
 20
1286.3
 30
0.0
 11
1229.729842
 21
1286.3
 31
0.0
  0
LINE
  5
4D5
100
AcDbEntity
  8
LAY-1
  6
CONTINUOUS
 62
     2
100
AcDbLine
 10
1231.229842
 20
1276.5
 30
0.0
 11
1230.478804
 21
1272.434602
 31
0.0
  0
LINE
  5
4D6
100
AcDbEntity
  8
LAY-1
  6
CONTINUOUS
 62
     2
100
AcDbLine
 10
1244.229842
 20
1276.5
 30
0.0
 11
1245.096033
 21
1272.376178
 31
0.0
  0
LINE
  5
4D7
100
AcDbEntity
  8
LAY-1
  6
CONTINUOUS
 62
     2
100
AcDbLine
 10
1244.229842
 20
1283.0
 30
0.0
 11
1244.229842
 21
1276.5
 31
0.0
  0
LINE
  5
4D8
100
AcDbEntity
  8
LAY-1
  6
CONTINUOUS
 62
     2
100
AcDbLine
 10
1231.229842
 20
1283.0
 30
0.0
 11
1231.229842
 21
1276.5
 31
0.0
  0
ARC
  5
4D9
100
AcDbEntity
  8
LAY-1
  6
CONTINUOUS
 62
     2
100
AcDbCircle
 10
1233.229842
 20
1289.8
 30
0.0
 40
2.5
100
AcDbArc
 50
233.130102
 51
306.869898
  0
ARC
  5
4DA
100
AcDbEntity
  8
LAY-1
  6
CONTINUOUS
 62
     2
100
AcDbCircle
 10
1233.229842
 20
1288.8
 30
0.0
 40
2.5
100
AcDbArc
 50
53.130102
 51
126.869898
  0
LINE
  5
4DB
100
AcDbEntity
  8
LAY-1
  6
CONTINUOUS
 62
     2
100
AcDbLine
 10
1246.729842
 20
1283.0
 30
0.0
 11
1231.229842
 21
1283.0
 31
0.0
  0
LINE
  5
4DC
100
AcDbEntity
  8
LAY-1
  6
CONTINUOUS
 62
     2
100
AcDbLine
 10
1234.729842
 20
1291.3
 30
0.0
 11
1234.729842
 21
1292.8
 31
0.0
  0
LINE
  5
4DD
100
AcDbEntity
  8
LAY-1
  6
CONTINUOUS
 62
     2
100
AcDbLine
 10
1240.729842
 20
1291.3
 30
0.0
 11
1240.729842
 21
1292.8
 31
0.0
  0
LINE
  5
4DE
100
AcDbEntity
  8
LAY-1
  6
CONTINUOUS
 62
     2
100
AcDbLine
 10
1235.229842
 20
1293.3
 30
0.0
 11
1234.729842
 21
1292.8
 31
0.0
  0
LINE
  5
4DF
100
AcDbEntity
  8
LAY-1
  6
CONTINUOUS
 62
     2
100
AcDbLine
 10
1240.229842
 20
1293.3
 30
0.0
 11
1235.229842
 21
1293.3
 31
0.0
  0
LINE
  5
4E0
100
AcDbEntity
  8
LAY-1
  6
CONTINUOUS
 62
     2
100
AcDbLine
 10
1240.729842
 20
1292.8
 30
0.0
 11
1240.229842
 21
1293.3
 31
0.0
  0
LINE
  5
4E1
100
AcDbEntity
  8
LAY-1
  6
CONTINUOUS
 62
     2
100
AcDbLine
 10
1243.729842
 20
1290.8
 30
0.0
 11
1243.729842
 21
1287.8
 31
0.0
  0
LINE
  5
4E2
100
AcDbEntity
  8
LAY-1
  6
CONTINUOUS
 62
     2
100
AcDbLine
 10
1242.229842
 20
1291.3
 30
0.0
 11
1233.229842
 21
1291.3
 31
0.0
  0
LINE
  5
4E3
100
AcDbEntity
  8
LAY-1
  6
CONTINUOUS
 62
     2
100
AcDbLine
 10
1240.729842
 20
1290.8
 30
0.0
 11
1240.729842
 21
1287.8
 31
0.0
  0
LINE
  5
4E4
100
AcDbEntity
  8
LAY-1
  6
CONTINUOUS
 62
     2
100
AcDbLine
 10
1234.729842
 20
1290.8
 30
0.0
 11
1234.729842
 21
1287.8
 31
0.0
  0
ARC
  5
4E5
100
AcDbEntity
  8
LAY-1
  6
CONTINUOUS
 62
     2
100
AcDbCircle
 10
1237.729842
 20
1296.55
 30
0.0
 40
9.25
100
AcDbArc
 50
251.075356
 51
288.924644
  0
ARC
  5
4E6
100
AcDbEntity
  8
LAY-1
  6
CONTINUOUS
 62
     2
100
AcDbCircle
 10
1242.229842
 20
1289.8
 30
0.0
 40
2.5
100
AcDbArc
 50
233.130102
 51
306.869898
  0
ARC
  5
4E7
100
AcDbEntity
  8
LAY-1
  6
CONTINUOUS
 62
     2
100
AcDbCircle
 10
1237.729842
 20
1282.05
 30
0.0
 40
9.25
100
AcDbArc
 50
71.075356
 51
108.924644
  0
ARC
  5
4E8
100
AcDbEntity
  8
LAY-1
  6
CONTINUOUS
 62
     2
100
AcDbCircle
 10
1242.229842
 20
1288.8
 30
0.0
 40
2.5
100
AcDbArc
 50
53.130102
 51
126.869898
  0
LINE
  5
4E9
100
AcDbEntity
  8
LAY-1
  6
CONTINUOUS
 62
     2
100
AcDbLine
 10
1240.729842
 20
1284.0
 30
0.0
 11
1240.729842
 21
1283.0
 31
0.0
  0
LINE
  5
4EA
100
AcDbEntity
  8
LAY-1
  6
CONTINUOUS
 62
     2
100
AcDbLine
 10
1234.729842
 20
1284.0
 30
0.0
 11
1234.729842
 21
1283.0
 31
0.0
  0
LINE
  5
4EB
100
AcDbEntity
  8
LAY-1
  6
CONTINUOUS
 62
     2
100
AcDbLine
 10
1231.729842
 20
1290.8
 30
0.0
 11
1231.729842
 21
1287.8
 31
0.0
  0
LINE
  5
4EC
100
AcDbEntity
  8
LAY-1
  6
CONTINUOUS
 62
     2
100
AcDbLine
 10
1229.729842
 20
1284.0
 30
0.0
 11
1221.729842
 21
1284.0
 31
0.0
  0
LINE
  5
4ED
100
AcDbEntity
  8
LAY-1
  6
CONTINUOUS
 62
     2
100
AcDbLine
 10
1229.729842
 20
1286.3
 30
0.0
 11
1223.525627
 21
1286.3
 31
0.0
  0
LINE
  5
4EE
100
AcDbEntity
  8
LAY-1
  6
CONTINUOUS
 62
     2
100
AcDbLine
 10
1245.729842
 20
1287.3
 30
0.0
 11
1229.729842
 21
1287.3
 31
0.0
  0
LINE
  5
4EF
100
AcDbEntity
  8
LAY-1
  6
CONTINUOUS
 62
     2
100
AcDbLine
 10
1245.729842
 20
1287.3
 30
0.0
 11
1245.729842
 21
1284.0
 31
0.0
  0
LINE
  5
4F0
100
AcDbEntity
  8
LAY-1
  6
CONTINUOUS
 62
     2
100
AcDbLine
 10
1240.229842
 20
1293.3
 30
0.0
 11
1240.229842
 21
1291.3
 31
0.0
  0
LINE
  5
4F1
100
AcDbEntity
  8
LAY-1
  6
CONTINUOUS
 62
     2
100
AcDbLine
 10
1235.229842
 20
1293.3
 30
0.0
 11
1235.229842
 21
1291.3
 31
0.0
  0
LINE
  5
4F2
100
AcDbEntity
  8
LAY-1
  6
CONTINUOUS
 62
     2
100
AcDbLine
 10
1240.729842
 20
1292.8
 30
0.0
 11
1234.729842
 21
1292.8
 31
0.0
  0
LINE
  5
4F3
100
AcDbEntity
  8
LAY-1
  6
CONTINUOUS
 62
     2
100
AcDbLine
 10
1229.729842
 20
1287.3
 30
0.0
 11
1229.729842
 21
1284.0
 31
0.0
  0
LINE
  5
4F4
100
AcDbEntity
  8
LAY-1
  6
CONTINUOUS
 62
     2
100
AcDbLine
 10
1216.729842
 20
1304.0
 30
0.0
 11
1221.729842
 21
1284.0
 31
0.0
  0
LINE
  5
4F5
100
AcDbEntity
  8
LAY-1
  6
CONTINUOUS
 62
     2
100
AcDbLine
 10
1218.525627
 20
1306.3
 30
0.0
 11
1223.525627
 21
1286.3
 31
0.0
  0
LINE
  5
4F6
100
AcDbEntity
  8
LAY-1
  6
CONTINUOUS
 62
     2
100
AcDbLine
 10
1218.525627
 20
1306.3
 30
0.0
 11
1158.729842
 21
1306.3
 31
0.0
  0
LINE
  5
4F7
100
AcDbEntity
  8
LAY-1
  6
CONTINUOUS
 62
     2
100
AcDbLine
 10
1216.729842
 20
1304.0
 30
0.0
 11
1158.729842
 21
1304.0
 31
0.0
  0
LINE
  5
4F8
100
AcDbEntity
  8
LAY-1
  6
CONTINUOUS
 62
     2
100
AcDbLine
 10
1158.729842
 20
1306.3
 30
0.0
 11
1158.729842
 21
1304.0
 31
0.0
  0
CIRCLE
  5
4F9
100
AcDbEntity
  8
LAY-1
  6
CONTINUOUS
 62
     2
100
AcDbCircle
 10
1237.729842
 20
1258.0
 30
0.0
 40
16.153491
  0
CIRCLE
  5
4FA
100
AcDbEntity
  8
LAY-1
  6
CONTINUOUS
 62
     2
100
AcDbCircle
 10
1237.729842
 20
1258.0
 30
0.0
 40
15.0
  0
LINE
  5
4FB
100
AcDbEntity
  8
LAY-1
  6
CONTINUOUS
 62
     2
100
AcDbLine
 10
1137.729842
 20
1258.0
 30
0.0
 11
1222.729842
 21
1258.0
 31
0.0
  0
LINE
  5
4FC
100
AcDbEntity
  8
LAY-1
  6
CONTINUOUS
 62
     2
100
AcDbLine
 10
1252.729842
 20
1258.0
 30
0.0
 11
1627.729842
 21
1258.0
 31
0.0
  0
LINE
  5
4FD
100
AcDbEntity
  8
LAY-1
  6
CONTINUOUS
 62
     2
100
AcDbLine
 10
2460.5
 20
1275.0
 30
0.0
 11
2482.5
 21
1275.0
 31
0.0
  0
LINE
  5
4FE
100
AcDbEntity
  8
LAY-1
  6
CONTINUOUS
 62
     2
100
AcDbLine
 10
2460.5
 20
1245.0
 30
0.0
 11
2512.5
 21
1245.0
 31
0.0
  0
LINE
  5
4FF
100
AcDbEntity
  8
LAY-1
  6
CONTINUOUS
 62
     2
100
AcDbLine
 10
2460.5
 20
1275.0
 30
0.0
 11
2460.5
 21
1245.0
 31
0.0
  0
LINE
  5
500
100
AcDbEntity
  8
LAY-1
  6
CONTINUOUS
 62
     2
100
AcDbLine
 10
2402.5
 20
1295.3
 30
0.0
 11
2402.0
 21
1294.8
 31
0.0
  0
LINE
  5
501
100
AcDbEntity
  8
LAY-1
  6
CONTINUOUS
 62
     2
100
AcDbLine
 10
2408.0
 20
1294.8
 30
0.0
 11
2407.5
 21
1295.3
 31
0.0
  0
LINE
  5
502
100
AcDbEntity
  8
LAY-1
  6
CONTINUOUS
 62
     2
100
AcDbLine
 10
2402.0
 20
1293.3
 30
0.0
 11
2402.0
 21
1294.8
 31
0.0
  0
LINE
  5
503
100
AcDbEntity
  8
LAY-1
  6
CONTINUOUS
 62
     2
100
AcDbLine
 10
2408.0
 20
1293.3
 30
0.0
 11
2408.0
 21
1294.8
 31
0.0
  0
LINE
  5
504
100
AcDbEntity
  8
LAY-1
  6
CONTINUOUS
 62
     2
100
AcDbLine
 10
2407.5
 20
1295.3
 30
0.0
 11
2402.5
 21
1295.3
 31
0.0
  0
LINE
  5
505
100
AcDbEntity
  8
LAY-1
  6
CONTINUOUS
 62
     2
100
AcDbLine
 10
2411.0
 20
1292.8
 30
0.0
 11
2411.0
 21
1289.8
 31
0.0
  0
LINE
  5
506
100
AcDbEntity
  8
LAY-1
  6
CONTINUOUS
 62
     2
100
AcDbLine
 10
2409.5
 20
1293.3
 30
0.0
 11
2400.5
 21
1293.3
 31
0.0
  0
LINE
  5
507
100
AcDbEntity
  8
LAY-1
  6
CONTINUOUS
 62
     2
100
AcDbLine
 10
2399.0
 20
1292.8
 30
0.0
 11
2399.0
 21
1289.8
 31
0.0
  0
ARC
  5
508
100
AcDbEntity
  8
LAY-1
  6
CONTINUOUS
 62
     2
100
AcDbCircle
 10
2400.5
 20
1291.8
 30
0.0
 40
2.5
100
AcDbArc
 50
233.130102
 51
306.869898
  0
ARC
  5
509
100
AcDbEntity
  8
LAY-1
  6
CONTINUOUS
 62
     2
100
AcDbCircle
 10
2405.0
 20
1298.55
 30
0.0
 40
9.25
100
AcDbArc
 50
251.075356
 51
288.924644
  0
ARC
  5
50A
100
AcDbEntity
  8
LAY-1
  6
CONTINUOUS
 62
     2
100
AcDbCircle
 10
2409.5
 20
1291.8
 30
0.0
 40
2.5
100
AcDbArc
 50
233.130102
 51
306.869898
  0
ARC
  5
50B
100
AcDbEntity
  8
LAY-1
  6
CONTINUOUS
 62
     2
100
AcDbCircle
 10
2400.5
 20
1290.8
 30
0.0
 40
2.5
100
AcDbArc
 50
53.130102
 51
126.869898
  0
ARC
  5
50C
100
AcDbEntity
  8
LAY-1
  6
CONTINUOUS
 62
     2
100
AcDbCircle
 10
2405.0
 20
1284.05
 30
0.0
 40
9.25
100
AcDbArc
 50
71.075356
 51
108.924644
  0
ARC
  5
50D
100
AcDbEntity
  8
LAY-1
  6
CONTINUOUS
 62
     2
100
AcDbCircle
 10
2409.5
 20
1290.8
 30
0.0
 40
2.5
100
AcDbArc
 50
53.130102
 51
126.869898
  0
LINE
  5
50E
100
AcDbEntity
  8
LAY-1
  6
CONTINUOUS
 62
     2
100
AcDbLine
 10
2402.0
 20
1286.0
 30
0.0
 11
2402.0
 21
1285.0
 31
0.0
  0
LINE
  5
50F
100
AcDbEntity
  8
LAY-1
  6
CONTINUOUS
 62
     2
100
AcDbLine
 10
2408.0
 20
1286.0
 30
0.0
 11
2408.0
 21
1285.0
 31
0.0
  0
LINE
  5
510
100
AcDbEntity
  8
LAY-1
  6
CONTINUOUS
 62
     2
100
AcDbLine
 10
2408.0
 20
1292.8
 30
0.0
 11
2408.0
 21
1289.8
 31
0.0
  0
LINE
  5
511
100
AcDbEntity
  8
LAY-1
  6
CONTINUOUS
 62
     2
100
AcDbLine
 10
2402.0
 20
1292.8
 30
0.0
 11
2402.0
 21
1289.8
 31
0.0
  0
LINE
  5
512
100
AcDbEntity
  8
LAY-1
  6
CONTINUOUS
 62
     2
100
AcDbLine
 10
2398.5
 20
1278.5
 30
0.0
 11
2397.5
 21
1273.086957
 31
0.0
  0
LINE
  5
513
100
AcDbEntity
  8
LAY-1
  6
CONTINUOUS
 62
     2
100
AcDbLine
 10
2411.5
 20
1278.5
 30
0.0
 11
2412.5
 21
1273.73913
 31
0.0
  0
LINE
  5
514
100
AcDbEntity
  8
LAY-1
  6
CONTINUOUS
 62
     2
100
AcDbLine
 10
2411.5
 20
1285.0
 30
0.0
 11
2411.5
 21
1278.5
 31
0.0
  0
LINE
  5
515
100
AcDbEntity
  8
LAY-1
  6
CONTINUOUS
 62
     2
100
AcDbLine
 10
2398.5
 20
1285.0
 30
0.0
 11
2398.5
 21
1278.5
 31
0.0
  0
LINE
  5
516
100
AcDbEntity
  8
LAY-1
  6
CONTINUOUS
 62
     2
100
AcDbLine
 10
2411.5
 20
1285.0
 30
0.0
 11
2398.5
 21
1285.0
 31
0.0
  0
LINE
  5
517
100
AcDbEntity
  8
LAY-1
  6
CONTINUOUS
 62
     2
100
AcDbLine
 10
2397.5
 20
1273.086957
 30
0.0
 11
2395.5
 21
1273.0
 31
0.0
  0
ARC
  5
518
100
AcDbEntity
  8
LAY-1
  6
CONTINUOUS
 62
     2
100
AcDbCircle
 10
2404.657285
 20
1281.295483
 30
0.0
 40
10.890668
100
AcDbArc
 50
228.913753
 51
316.065353
  0
LINE
  5
519
100
AcDbEntity
  8
LAY-1
  6
CONTINUOUS
 62
     2
100
AcDbLine
 10
2395.5
 20
1273.0
 30
0.0
 11
2385.5
 21
1273.0
 31
0.0
  0
ARC
  5
51A
100
AcDbEntity
  8
LAY-1
  6
CONTINUOUS
 62
     2
100
AcDbCircle
 10
2389.541667
 20
1265.0
 30
0.0
 40
17.041667
100
AcDbArc
 50
162.938469
 51
197.061531
  0
ARC
  5
51B
100
AcDbEntity
  8
LAY-1
  6
CONTINUOUS
 62
     2
100
AcDbCircle
 10
2377.041667
 20
1272.5
 30
0.0
 40
4.541667
100
AcDbArc
 50
146.601512
 51
213.398488
  0
ARC
  5
51C
100
AcDbEntity
  8
LAY-1
  6
CONTINUOUS
 62
     2
100
AcDbCircle
 10
2380.958333
 20
1272.5
 30
0.0
 40
4.541667
100
AcDbArc
 50
326.601512
 51
33.398488
  0
ARC
  5
51D
100
AcDbEntity
  8
LAY-1
  6
CONTINUOUS
 62
     2
100
AcDbCircle
 10
2368.458333
 20
1265.0
 30
0.0
 40
17.041667
100
AcDbArc
 50
342.938469
 51
17.061531
  0
LINE
  5
51E
100
AcDbEntity
  8
LAY-1
  6
CONTINUOUS
 62
     2
100
AcDbLine
 10
2373.25
 20
1270.0
 30
0.0
 11
2384.75
 21
1270.0
 31
0.0
  0
LINE
  5
51F
100
AcDbEntity
  8
LAY-1
  6
CONTINUOUS
 62
     2
100
AcDbLine
 10
2384.75
 20
1275.0
 30
0.0
 11
2373.25
 21
1275.0
 31
0.0
  0
LINE
  5
520
100
AcDbEntity
  8
LAY-1
  6
CONTINUOUS
 62
     2
100
AcDbLine
 10
2424.5
 20
1276.0
 30
0.0
 11
2418.5
 21
1276.0
 31
0.0
  0
ARC
  5
521
100
AcDbEntity
  8
LAY-1
  6
CONTINUOUS
 62
     2
100
AcDbCircle
 10
2432.958333
 20
1272.5
 30
0.0
 40
4.541667
100
AcDbArc
 50
326.601512
 51
33.398488
  0
ARC
  5
522
100
AcDbEntity
  8
LAY-1
  6
CONTINUOUS
 62
     2
100
AcDbCircle
 10
2420.458333
 20
1265.0
 30
0.0
 40
17.041667
100
AcDbArc
 50
342.938469
 51
17.061531
  0
LINE
  5
523
100
AcDbEntity
  8
LAY-1
  6
CONTINUOUS
 62
     2
100
AcDbLine
 10
2436.75
 20
1275.0
 30
0.0
 11
2424.5
 21
1275.0
 31
0.0
  0
LINE
  5
524
100
AcDbEntity
  8
LAY-1
  6
CONTINUOUS
 62
     2
100
AcDbLine
 10
2436.75
 20
1270.0
 30
0.0
 11
2424.5
 21
1270.0
 31
0.0
  0
LINE
  5
525
100
AcDbEntity
  8
LAY-1
  6
CONTINUOUS
 62
     2
100
AcDbLine
 10
2418.5
 20
1274.0
 30
0.0
 11
2412.5
 21
1273.73913
 31
0.0
  0
LINE
  5
526
100
AcDbEntity
  8
LAY-1
  6
CONTINUOUS
 62
     2
100
AcDbLine
 10
2395.5
 20
1247.0
 30
0.0
 11
2385.5
 21
1247.0
 31
0.0
  0
ARC
  5
527
100
AcDbEntity
  8
LAY-1
  6
CONTINUOUS
 62
     2
100
AcDbCircle
 10
2377.041667
 20
1247.5
 30
0.0
 40
4.541667
100
AcDbArc
 50
146.601512
 51
213.398488
  0
ARC
  5
528
100
AcDbEntity
  8
LAY-1
  6
CONTINUOUS
 62
     2
100
AcDbCircle
 10
2380.958333
 20
1247.5
 30
0.0
 40
4.541667
100
AcDbArc
 50
326.601512
 51
33.398488
  0
LINE
  5
529
100
AcDbEntity
  8
LAY-1
  6
CONTINUOUS
 62
     2
100
AcDbLine
 10
2384.75
 20
1245.0
 30
0.0
 11
2373.25
 21
1245.0
 31
0.0
  0
LINE
  5
52A
100
AcDbEntity
  8
LAY-1
  6
CONTINUOUS
 62
     2
100
AcDbLine
 10
2373.25
 20
1250.0
 30
0.0
 11
2384.75
 21
1250.0
 31
0.0
  0
LINE
  5
52B
100
AcDbEntity
  8
LAY-1
  6
CONTINUOUS
 62
     2
100
AcDbLine
 10
2424.5
 20
1244.0
 30
0.0
 11
2418.5
 21
1244.0
 31
0.0
  0
ARC
  5
52C
100
AcDbEntity
  8
LAY-1
  6
CONTINUOUS
 62
     2
100
AcDbCircle
 10
2432.958333
 20
1247.5
 30
0.0
 40
4.541667
100
AcDbArc
 50
326.601512
 51
33.398488
  0
LINE
  5
52D
100
AcDbEntity
  8
LAY-1
  6
CONTINUOUS
 62
     2
100
AcDbLine
 10
2436.75
 20
1245.0
 30
0.0
 11
2424.5
 21
1245.0
 31
0.0
  0
LINE
  5
52E
100
AcDbEntity
  8
LAY-1
  6
CONTINUOUS
 62
     2
100
AcDbLine
 10
2436.75
 20
1250.0
 30
0.0
 11
2424.5
 21
1250.0
 31
0.0
  0
LINE
  5
52F
100
AcDbEntity
  8
LAY-1
  6
CONTINUOUS
 62
     2
100
AcDbLine
 10
2418.5
 20
1246.0
 30
0.0
 11
2395.5
 21
1247.0
 31
0.0
  0
LINE
  5
530
100
AcDbEntity
  8
LAY-1
  6
CONTINUOUS
 62
     2
100
AcDbLine
 10
2424.5
 20
1276.0
 30
0.0
 11
2424.5
 21
1244.0
 31
0.0
  0
LINE
  5
531
100
AcDbEntity
  8
LAY-1
  6
CONTINUOUS
 62
     2
100
AcDbLine
 10
2421.5
 20
1276.0
 30
0.0
 11
2421.5
 21
1244.0
 31
0.0
  0
LINE
  5
532
100
AcDbEntity
  8
LAY-1
  6
CONTINUOUS
 62
     2
100
AcDbLine
 10
2418.5
 20
1276.0
 30
0.0
 11
2418.5
 21
1244.0
 31
0.0
  0
ARC
  5
533
100
AcDbEntity
  8
LAY-1
  6
CONTINUOUS
 62
     2
100
AcDbCircle
 10
2420.458333
 20
1255.0
 30
0.0
 40
17.041667
100
AcDbArc
 50
342.938469
 51
17.061531
  0
LINE
  5
534
100
AcDbEntity
  8
LAY-1
  6
CONTINUOUS
 62
     2
100
AcDbLine
 10
2437.5
 20
1272.5
 30
0.0
 11
2437.5
 21
1247.5
 31
0.0
  0
ARC
  5
535
100
AcDbEntity
  8
LAY-1
  6
CONTINUOUS
 62
     2
100
AcDbCircle
 10
2389.541667
 20
1255.0
 30
0.0
 40
17.041667
100
AcDbArc
 50
162.938469
 51
197.061531
  0
ARC
  5
536
100
AcDbEntity
  8
LAY-1
  6
CONTINUOUS
 62
     2
100
AcDbCircle
 10
2368.458333
 20
1255.0
 30
0.0
 40
17.041667
100
AcDbArc
 50
342.938469
 51
17.061531
  0
LINE
  5
537
100
AcDbEntity
  8
LAY-1
  6
CONTINUOUS
 62
     2
100
AcDbLine
 10
2385.5
 20
1272.5
 30
0.0
 11
2385.5
 21
1247.5
 31
0.0
  0
LINE
  5
538
100
AcDbEntity
  8
LAY-1
  6
CONTINUOUS
 62
     2
100
AcDbLine
 10
2372.5
 20
1272.5
 30
0.0
 11
2372.5
 21
1247.5
 31
0.0
  0
LINE
  5
539
100
AcDbEntity
  8
LAY-1
  6
CONTINUOUS
 62
     2
100
AcDbLine
 10
2395.5
 20
1270.0
 30
0.0
 11
2395.5
 21
1250.0
 31
0.0
  0
LINE
  5
53A
100
AcDbEntity
  8
LAY-1
  6
CONTINUOUS
 62
     2
100
AcDbLine
 10
2460.5
 20
1249.15
 30
0.0
 11
2437.5
 21
1249.15
 31
0.0
  0
LINE
  5
53B
100
AcDbEntity
  8
LAY-1
  6
CONTINUOUS
 62
     2
100
AcDbLine
 10
2460.5
 20
1270.85
 30
0.0
 11
2437.5
 21
1270.85
 31
0.0
  0
LINE
  5
53C
100
AcDbEntity
  8
LAY-1
  6
CONTINUOUS
 62
     2
100
AcDbLine
 10
2454.5
 20
1249.15
 30
0.0
 11
2454.5
 21
1270.85
 31
0.0
  0
LINE
  5
53D
100
AcDbEntity
  8
LAY-1
  6
CONTINUOUS
 62
     2
100
AcDbLine
 10
2456.5
 20
1249.15
 30
0.0
 11
2456.5
 21
1270.85
 31
0.0
  0
LINE
  5
53E
100
AcDbEntity
  8
LAY-1
  6
CONTINUOUS
 62
     2
100
AcDbLine
 10
2458.5
 20
1249.15
 30
0.0
 11
2458.5
 21
1270.85
 31
0.0
  0
LINE
  5
53F
100
AcDbEntity
  8
LAY-1
  6
CONTINUOUS
 62
     2
100
AcDbLine
 10
2411.0
 20
1306.0
 30
0.0
 11
2413.0
 21
1289.3
 31
0.0
  0
LINE
  5
540
100
AcDbEntity
  8
LAY-1
  6
CONTINUOUS
 62
     2
100
AcDbLine
 10
2399.0
 20
1306.0
 30
0.0
 11
2397.0
 21
1289.3
 31
0.0
  0
LINE
  5
541
100
AcDbEntity
  8
LAY-1
  6
CONTINUOUS
 62
     2
100
AcDbLine
 10
2411.0
 20
1308.3
 30
0.0
 11
2411.0
 21
1306.0
 31
0.0
  0
LINE
  5
542
100
AcDbEntity
  8
LAY-1
  6
CONTINUOUS
 62
     2
100
AcDbLine
 10
2399.0
 20
1308.3
 30
0.0
 11
2399.0
 21
1306.0
 31
0.0
  0
LINE
  5
543
100
AcDbEntity
  8
LAY-1
  6
CONTINUOUS
 62
     2
100
AcDbLine
 10
2411.0
 20
1308.3
 30
0.0
 11
2399.0
 21
1308.3
 31
0.0
  0
LINE
  5
544
100
AcDbEntity
  8
LAY-1
  6
CONTINUOUS
 62
     2
100
AcDbLine
 10
2407.5
 20
1295.3
 30
0.0
 11
2407.5
 21
1293.3
 31
0.0
  0
LINE
  5
545
100
AcDbEntity
  8
LAY-1
  6
CONTINUOUS
 62
     2
100
AcDbLine
 10
2402.5
 20
1295.3
 30
0.0
 11
2402.5
 21
1293.3
 31
0.0
  0
LINE
  5
546
100
AcDbEntity
  8
LAY-1
  6
CONTINUOUS
 62
     2
100
AcDbLine
 10
2408.0
 20
1294.8
 30
0.0
 11
2402.0
 21
1294.8
 31
0.0
  0
LINE
  5
547
100
AcDbEntity
  8
LAY-1
  6
CONTINUOUS
 62
     2
100
AcDbLine
 10
2397.0
 20
1289.3
 30
0.0
 11
2397.0
 21
1286.0
 31
0.0
  0
LINE
  5
548
100
AcDbEntity
  8
LAY-1
  6
CONTINUOUS
 62
     2
100
AcDbLine
 10
2413.0
 20
1289.3
 30
0.0
 11
2413.0
 21
1286.0
 31
0.0
  0
LINE
  5
549
100
AcDbEntity
  8
LAY-1
  6
CONTINUOUS
 62
     2
100
AcDbLine
 10
2413.0
 20
1289.3
 30
0.0
 11
2397.0
 21
1289.3
 31
0.0
  0
LINE
  5
54A
100
AcDbEntity
  8
LAY-1
  6
CONTINUOUS
 62
     2
100
AcDbLine
 10
2413.0
 20
1288.3
 30
0.0
 11
2397.0
 21
1288.3
 31
0.0
  0
LINE
  5
54B
100
AcDbEntity
  8
LAY-1
  6
CONTINUOUS
 62
     2
100
AcDbLine
 10
2413.0
 20
1286.0
 30
0.0
 11
2397.0
 21
1286.0
 31
0.0
  0
LINE
  5
54C
100
AcDbEntity
  8
LAY-1
  6
CONTINUOUS
 62
     2
100
AcDbLine
 10
2443.5
 20
1249.15
 30
0.0
 11
2443.5
 21
1270.85
 31
0.0
  0
LINE
  5
54D
100
AcDbEntity
  8
LAY-1
  6
CONTINUOUS
 62
     2
100
AcDbLine
 10
2441.5
 20
1249.15
 30
0.0
 11
2441.5
 21
1270.85
 31
0.0
  0
LINE
  5
54E
100
AcDbEntity
  8
LAY-1
  6
CONTINUOUS
 62
     2
100
AcDbLine
 10
2439.5
 20
1249.15
 30
0.0
 11
2439.5
 21
1270.85
 31
0.0
  0
LINE
  5
54F
100
AcDbEntity
  8
LAY-1
  6
CONTINUOUS
 62
     2
100
AcDbLine
 10
2356.5
 20
1266.859343
 30
0.0
 11
2366.5
 21
1266.859343
 31
0.0
  0
LINE
  5
550
100
AcDbEntity
  8
LAY-1
  6
CONTINUOUS
 62
     2
100
AcDbLine
 10
2356.5
 20
1252.859343
 30
0.0
 11
2366.5
 21
1252.859343
 31
0.0
  0
LINE
  5
551
100
AcDbEntity
  8
LAY-1
  6
CONTINUOUS
 62
     2
100
AcDbLine
 10
2366.5
 20
1249.009343
 30
0.0
 11
2372.5
 21
1249.009343
 31
0.0
  0
LINE
  5
552
100
AcDbEntity
  8
LAY-1
  6
CONTINUOUS
 62
     2
100
AcDbLine
 10
2366.5
 20
1270.709343
 30
0.0
 11
2372.5
 21
1270.709343
 31
0.0
  0
LINE
  5
553
100
AcDbEntity
  8
LAY-1
  6
CONTINUOUS
 62
     2
100
AcDbLine
 10
2370.5
 20
1270.709343
 30
0.0
 11
2370.5
 21
1249.009343
 31
0.0
  0
LINE
  5
554
100
AcDbEntity
  8
LAY-1
  6
CONTINUOUS
 62
     2
100
AcDbLine
 10
2368.5
 20
1270.709343
 30
0.0
 11
2368.5
 21
1249.009343
 31
0.0
  0
LINE
  5
555
100
AcDbEntity
  8
LAY-1
  6
CONTINUOUS
 62
     2
100
AcDbLine
 10
2366.5
 20
1270.709343
 30
0.0
 11
2366.5
 21
1249.009343
 31
0.0
  0
LINE
  5
556
100
AcDbEntity
  8
LAY-1
  6
CONTINUOUS
 62
     2
100
AcDbLine
 10
2356.5
 20
1266.859343
 30
0.0
 11
2356.5
 21
1252.859343
 31
0.0
  0
LINE
  5
557
100
AcDbEntity
  8
LAY-1
  6
EXLTYPE3
 62
     1
100
AcDbLine
 10
5205.0
 20
1294.8
 30
0.0
 11
5211.0
 21
1294.8
 31
0.0
  0
LINE
  5
558
100
AcDbEntity
  8
LAY-1
  6
EXLTYPE3
 62
     1
100
AcDbLine
 10
5210.5
 20
1295.3
 30
0.0
 11
5210.5
 21
1293.3
 31
0.0
  0
LINE
  5
559
100
AcDbEntity
  8
LAY-1
  6
EXLTYPE3
 62
     1
100
AcDbLine
 10
5205.5
 20
1295.3
 30
0.0
 11
5205.5
 21
1293.3
 31
0.0
  0
LINE
  5
55A
100
AcDbEntity
  8
LAY-1
  6
CONTINUOUS
 62
     2
100
AcDbLine
 10
5152.5
 20
1270.85
 30
0.0
 11
5175.5
 21
1270.85
 31
0.0
  0
LINE
  5
55B
100
AcDbEntity
  8
LAY-1
  6
CONTINUOUS
 62
     2
100
AcDbLine
 10
5152.5
 20
1249.15
 30
0.0
 11
5175.5
 21
1249.15
 31
0.0
  0
LINE
  5
55C
100
AcDbEntity
  8
LAY-1
  6
CONTINUOUS
 62
     2
100
AcDbLine
 10
5217.5
 20
1270.0
 30
0.0
 11
5217.5
 21
1250.0
 31
0.0
  0
LINE
  5
55D
100
AcDbEntity
  8
LAY-1
  6
CONTINUOUS
 62
     2
100
AcDbLine
 10
5240.5
 20
1272.5
 30
0.0
 11
5240.5
 21
1247.5
 31
0.0
  0
LINE
  5
55E
100
AcDbEntity
  8
LAY-1
  6
CONTINUOUS
 62
     2
100
AcDbLine
 10
5227.5
 20
1272.5
 30
0.0
 11
5227.5
 21
1247.5
 31
0.0
  0
ARC
  5
55F
100
AcDbEntity
  8
LAY-1
  6
CONTINUOUS
 62
     2
100
AcDbCircle
 10
5244.541667
 20
1255.0
 30
0.0
 40
17.041667
100
AcDbArc
 50
162.938469
 51
197.061531
  0
ARC
  5
560
100
AcDbEntity
  8
LAY-1
  6
CONTINUOUS
 62
     2
100
AcDbCircle
 10
5223.458333
 20
1255.0
 30
0.0
 40
17.041667
100
AcDbArc
 50
342.938469
 51
17.061531
  0
LINE
  5
561
100
AcDbEntity
  8
LAY-1
  6
CONTINUOUS
 62
     2
100
AcDbLine
 10
5175.5
 20
1272.5
 30
0.0
 11
5175.5
 21
1247.5
 31
0.0
  0
ARC
  5
562
100
AcDbEntity
  8
LAY-1
  6
CONTINUOUS
 62
     2
100
AcDbCircle
 10
5192.541667
 20
1255.0
 30
0.0
 40
17.041667
100
AcDbArc
 50
162.938469
 51
197.061531
  0
LINE
  5
563
100
AcDbEntity
  8
LAY-1
  6
CONTINUOUS
 62
     2
100
AcDbLine
 10
5194.5
 20
1276.0
 30
0.0
 11
5194.5
 21
1244.0
 31
0.0
  0
LINE
  5
564
100
AcDbEntity
  8
LAY-1
  6
CONTINUOUS
 62
     2
100
AcDbLine
 10
5191.5
 20
1276.0
 30
0.0
 11
5191.5
 21
1244.0
 31
0.0
  0
LINE
  5
565
100
AcDbEntity
  8
LAY-1
  6
CONTINUOUS
 62
     2
100
AcDbLine
 10
5188.5
 20
1276.0
 30
0.0
 11
5188.5
 21
1244.0
 31
0.0
  0
LINE
  5
566
100
AcDbEntity
  8
LAY-1
  6
CONTINUOUS
 62
     2
100
AcDbLine
 10
5194.5
 20
1246.0
 30
0.0
 11
5217.5
 21
1247.0
 31
0.0
  0
LINE
  5
567
100
AcDbEntity
  8
LAY-1
  6
CONTINUOUS
 62
     2
100
AcDbLine
 10
5176.25
 20
1250.0
 30
0.0
 11
5188.5
 21
1250.0
 31
0.0
  0
LINE
  5
568
100
AcDbEntity
  8
LAY-1
  6
CONTINUOUS
 62
     2
100
AcDbLine
 10
5176.25
 20
1245.0
 30
0.0
 11
5188.5
 21
1245.0
 31
0.0
  0
ARC
  5
569
100
AcDbEntity
  8
LAY-1
  6
CONTINUOUS
 62
     2
100
AcDbCircle
 10
5180.041667
 20
1247.5
 30
0.0
 40
4.541667
100
AcDbArc
 50
146.601512
 51
213.398488
  0
LINE
  5
56A
100
AcDbEntity
  8
LAY-1
  6
CONTINUOUS
 62
     2
100
AcDbLine
 10
5188.5
 20
1244.0
 30
0.0
 11
5194.5
 21
1244.0
 31
0.0
  0
LINE
  5
56B
100
AcDbEntity
  8
LAY-1
  6
CONTINUOUS
 62
     2
100
AcDbLine
 10
5239.75
 20
1250.0
 30
0.0
 11
5228.25
 21
1250.0
 31
0.0
  0
LINE
  5
56C
100
AcDbEntity
  8
LAY-1
  6
CONTINUOUS
 62
     2
100
AcDbLine
 10
5228.25
 20
1245.0
 30
0.0
 11
5239.75
 21
1245.0
 31
0.0
  0
ARC
  5
56D
100
AcDbEntity
  8
LAY-1
  6
CONTINUOUS
 62
     2
100
AcDbCircle
 10
5232.041667
 20
1247.5
 30
0.0
 40
4.541667
100
AcDbArc
 50
146.601512
 51
213.398488
  0
ARC
  5
56E
100
AcDbEntity
  8
LAY-1
  6
CONTINUOUS
 62
     2
100
AcDbCircle
 10
5235.958333
 20
1247.5
 30
0.0
 40
4.541667
100
AcDbArc
 50
326.601512
 51
33.398488
  0
LINE
  5
56F
100
AcDbEntity
  8
LAY-1
  6
CONTINUOUS
 62
     2
100
AcDbLine
 10
5217.5
 20
1247.0
 30
0.0
 11
5227.5
 21
1247.0
 31
0.0
  0
LINE
  5
570
100
AcDbEntity
  8
LAY-1
  6
CONTINUOUS
 62
     2
100
AcDbLine
 10
5194.5
 20
1274.0
 30
0.0
 11
5200.5
 21
1273.73913
 31
0.0
  0
LINE
  5
571
100
AcDbEntity
  8
LAY-1
  6
CONTINUOUS
 62
     2
100
AcDbLine
 10
5176.25
 20
1270.0
 30
0.0
 11
5188.5
 21
1270.0
 31
0.0
  0
LINE
  5
572
100
AcDbEntity
  8
LAY-1
  6
CONTINUOUS
 62
     2
100
AcDbLine
 10
5176.25
 20
1275.0
 30
0.0
 11
5188.5
 21
1275.0
 31
0.0
  0
ARC
  5
573
100
AcDbEntity
  8
LAY-1
  6
CONTINUOUS
 62
     2
100
AcDbCircle
 10
5192.541667
 20
1265.0
 30
0.0
 40
17.041667
100
AcDbArc
 50
162.938469
 51
197.061531
  0
ARC
  5
574
100
AcDbEntity
  8
LAY-1
  6
CONTINUOUS
 62
     2
100
AcDbCircle
 10
5180.041667
 20
1272.5
 30
0.0
 40
4.541667
100
AcDbArc
 50
146.601512
 51
213.398488
  0
LINE
  5
575
100
AcDbEntity
  8
LAY-1
  6
CONTINUOUS
 62
     2
100
AcDbLine
 10
5188.5
 20
1276.0
 30
0.0
 11
5194.5
 21
1276.0
 31
0.0
  0
LINE
  5
576
100
AcDbEntity
  8
LAY-1
  6
CONTINUOUS
 62
     2
100
AcDbLine
 10
5228.25
 20
1275.0
 30
0.0
 11
5239.75
 21
1275.0
 31
0.0
  0
LINE
  5
577
100
AcDbEntity
  8
LAY-1
  6
CONTINUOUS
 62
     2
100
AcDbLine
 10
5239.75
 20
1270.0
 30
0.0
 11
5228.25
 21
1270.0
 31
0.0
  0
ARC
  5
578
100
AcDbEntity
  8
LAY-1
  6
CONTINUOUS
 62
     2
100
AcDbCircle
 10
5244.541667
 20
1265.0
 30
0.0
 40
17.041667
100
AcDbArc
 50
162.938469
 51
197.061531
  0
ARC
  5
579
100
AcDbEntity
  8
LAY-1
  6
CONTINUOUS
 62
     2
100
AcDbCircle
 10
5232.041667
 20
1272.5
 30
0.0
 40
4.541667
100
AcDbArc
 50
146.601512
 51
213.398488
  0
ARC
  5
57A
100
AcDbEntity
  8
LAY-1
  6
CONTINUOUS
 62
     2
100
AcDbCircle
 10
5235.958333
 20
1272.5
 30
0.0
 40
4.541667
100
AcDbArc
 50
326.601512
 51
33.398488
  0
ARC
  5
57B
100
AcDbEntity
  8
LAY-1
  6
CONTINUOUS
 62
     2
100
AcDbCircle
 10
5223.458333
 20
1265.0
 30
0.0
 40
17.041667
100
AcDbArc
 50
342.938469
 51
17.061531
  0
LINE
  5
57C
100
AcDbEntity
  8
LAY-1
  6
CONTINUOUS
 62
     2
100
AcDbLine
 10
5217.5
 20
1273.0
 30
0.0
 11
5227.5
 21
1273.0
 31
0.0
  0
ARC
  5
57D
100
AcDbEntity
  8
LAY-1
  6
CONTINUOUS
 62
     2
100
AcDbCircle
 10
5208.342715
 20
1281.295483
 30
0.0
 40
10.890668
100
AcDbArc
 50
223.934647
 51
311.086247
  0
LINE
  5
57E
100
AcDbEntity
  8
LAY-1
  6
CONTINUOUS
 62
     2
100
AcDbLine
 10
5215.5
 20
1273.086957
 30
0.0
 11
5217.5
 21
1273.0
 31
0.0
  0
LINE
  5
57F
100
AcDbEntity
  8
LAY-1
  6
CONTINUOUS
 62
     2
100
AcDbLine
 10
5201.5
 20
1285.0
 30
0.0
 11
5214.5
 21
1285.0
 31
0.0
  0
LINE
  5
580
100
AcDbEntity
  8
LAY-1
  6
CONTINUOUS
 62
     2
100
AcDbLine
 10
5214.5
 20
1285.0
 30
0.0
 11
5214.5
 21
1278.5
 31
0.0
  0
LINE
  5
581
100
AcDbEntity
  8
LAY-1
  6
CONTINUOUS
 62
     2
100
AcDbLine
 10
5201.5
 20
1285.0
 30
0.0
 11
5201.5
 21
1278.5
 31
0.0
  0
LINE
  5
582
100
AcDbEntity
  8
LAY-1
  6
CONTINUOUS
 62
     2
100
AcDbLine
 10
5201.5
 20
1278.5
 30
0.0
 11
5200.5
 21
1273.73913
 31
0.0
  0
LINE
  5
583
100
AcDbEntity
  8
LAY-1
  6
CONTINUOUS
 62
     2
100
AcDbLine
 10
5214.5
 20
1278.5
 30
0.0
 11
5215.5
 21
1273.086957
 31
0.0
  0
LINE
  5
584
100
AcDbEntity
  8
LAY-1
  6
CONTINUOUS
 62
     2
100
AcDbLine
 10
5211.0
 20
1292.8
 30
0.0
 11
5211.0
 21
1289.8
 31
0.0
  0
LINE
  5
585
100
AcDbEntity
  8
LAY-1
  6
CONTINUOUS
 62
     2
100
AcDbLine
 10
5205.0
 20
1292.8
 30
0.0
 11
5205.0
 21
1289.8
 31
0.0
  0
LINE
  5
586
100
AcDbEntity
  8
LAY-1
  6
CONTINUOUS
 62
     2
100
AcDbLine
 10
5205.0
 20
1286.0
 30
0.0
 11
5205.0
 21
1285.0
 31
0.0
  0
LINE
  5
587
100
AcDbEntity
  8
LAY-1
  6
CONTINUOUS
 62
     2
100
AcDbLine
 10
5211.0
 20
1286.0
 30
0.0
 11
5211.0
 21
1285.0
 31
0.0
  0
ARC
  5
588
100
AcDbEntity
  8
LAY-1
  6
CONTINUOUS
 62
     2
100
AcDbCircle
 10
5203.5
 20
1290.8
 30
0.0
 40
2.5
100
AcDbArc
 50
53.130102
 51
126.869898
  0
ARC
  5
589
100
AcDbEntity
  8
LAY-1
  6
CONTINUOUS
 62
     2
100
AcDbCircle
 10
5208.0
 20
1284.05
 30
0.0
 40
9.25
100
AcDbArc
 50
71.075356
 51
108.924644
  0
ARC
  5
58A
100
AcDbEntity
  8
LAY-1
  6
CONTINUOUS
 62
     2
100
AcDbCircle
 10
5212.5
 20
1290.8
 30
0.0
 40
2.5
100
AcDbArc
 50
53.130102
 51
126.869898
  0
ARC
  5
58B
100
AcDbEntity
  8
LAY-1
  6
CONTINUOUS
 62
     2
100
AcDbCircle
 10
5203.5
 20
1291.8
 30
0.0
 40
2.5
100
AcDbArc
 50
233.130102
 51
306.869898
  0
ARC
  5
58C
100
AcDbEntity
  8
LAY-1
  6
CONTINUOUS
 62
     2
100
AcDbCircle
 10
5208.0
 20
1298.55
 30
0.0
 40
9.25
100
AcDbArc
 50
251.075356
 51
288.924644
  0
ARC
  5
58D
100
AcDbEntity
  8
LAY-1
  6
CONTINUOUS
 62
     2
100
AcDbCircle
 10
5212.5
 20
1291.8
 30
0.0
 40
2.5
100
AcDbArc
 50
233.130102
 51
306.869898
  0
LINE
  5
58E
100
AcDbEntity
  8
LAY-1
  6
CONTINUOUS
 62
     2
100
AcDbLine
 10
5214.0
 20
1292.8
 30
0.0
 11
5214.0
 21
1289.8
 31
0.0
  0
LINE
  5
58F
100
AcDbEntity
  8
LAY-1
  6
CONTINUOUS
 62
     2
100
AcDbLine
 10
5203.5
 20
1293.3
 30
0.0
 11
5212.5
 21
1293.3
 31
0.0
  0
LINE
  5
590
100
AcDbEntity
  8
LAY-1
  6
CONTINUOUS
 62
     2
100
AcDbLine
 10
5202.0
 20
1292.8
 30
0.0
 11
5202.0
 21
1289.8
 31
0.0
  0
LINE
  5
591
100
AcDbEntity
  8
LAY-1
  6
CONTINUOUS
 62
     2
100
AcDbLine
 10
5205.5
 20
1295.3
 30
0.0
 11
5210.5
 21
1295.3
 31
0.0
  0
LINE
  5
592
100
AcDbEntity
  8
LAY-1
  6
CONTINUOUS
 62
     2
100
AcDbLine
 10
5205.0
 20
1293.3
 30
0.0
 11
5205.0
 21
1294.8
 31
0.0
  0
LINE
  5
593
100
AcDbEntity
  8
LAY-1
  6
CONTINUOUS
 62
     2
100
AcDbLine
 10
5211.0
 20
1293.3
 30
0.0
 11
5211.0
 21
1294.8
 31
0.0
  0
LINE
  5
594
100
AcDbEntity
  8
LAY-1
  6
CONTINUOUS
 62
     2
100
AcDbLine
 10
5205.0
 20
1294.8
 30
0.0
 11
5205.5
 21
1295.3
 31
0.0
  0
LINE
  5
595
100
AcDbEntity
  8
LAY-1
  6
CONTINUOUS
 62
     2
100
AcDbLine
 10
5210.5
 20
1295.3
 30
0.0
 11
5211.0
 21
1294.8
 31
0.0
  0
LINE
  5
596
100
AcDbEntity
  8
LAY-1
  6
CONTINUOUS
 62
     2
100
AcDbLine
 10
5152.5
 20
1275.0
 30
0.0
 11
5152.5
 21
1245.0
 31
0.0
  0
LINE
  5
597
100
AcDbEntity
  8
LAY-1
  6
CONTINUOUS
 62
     2
100
AcDbLine
 10
5152.5
 20
1245.0
 30
0.0
 11
5100.5
 21
1245.0
 31
0.0
  0
LINE
  5
598
100
AcDbEntity
  8
LAY-1
  6
CONTINUOUS
 62
     2
100
AcDbLine
 10
5152.5
 20
1275.0
 30
0.0
 11
5130.5
 21
1275.0
 31
0.0
  0
LINE
  5
599
100
AcDbEntity
  8
LAY-1
  6
CONTINUOUS
 62
     2
100
AcDbLine
 10
5173.5
 20
1249.15
 30
0.0
 11
5173.5
 21
1270.85
 31
0.0
  0
LINE
  5
59A
100
AcDbEntity
  8
LAY-1
  6
CONTINUOUS
 62
     2
100
AcDbLine
 10
5171.5
 20
1249.15
 30
0.0
 11
5171.5
 21
1270.85
 31
0.0
  0
LINE
  5
59B
100
AcDbEntity
  8
LAY-1
  6
CONTINUOUS
 62
     2
100
AcDbLine
 10
5169.5
 20
1249.15
 30
0.0
 11
5169.5
 21
1270.85
 31
0.0
  0
LINE
  5
59C
100
AcDbEntity
  8
LAY-1
  6
CONTINUOUS
 62
     2
100
AcDbLine
 10
5200.0
 20
1286.0
 30
0.0
 11
5216.0
 21
1286.0
 31
0.0
  0
LINE
  5
59D
100
AcDbEntity
  8
LAY-1
  6
CONTINUOUS
 62
     2
100
AcDbLine
 10
5200.0
 20
1288.3
 30
0.0
 11
5216.0
 21
1288.3
 31
0.0
  0
LINE
  5
59E
100
AcDbEntity
  8
LAY-1
  6
CONTINUOUS
 62
     2
100
AcDbLine
 10
5200.0
 20
1289.3
 30
0.0
 11
5216.0
 21
1289.3
 31
0.0
  0
LINE
  5
59F
100
AcDbEntity
  8
LAY-1
  6
CONTINUOUS
 62
     2
100
AcDbLine
 10
5200.0
 20
1289.3
 30
0.0
 11
5200.0
 21
1286.0
 31
0.0
  0
LINE
  5
5A0
100
AcDbEntity
  8
LAY-1
  6
CONTINUOUS
 62
     2
100
AcDbLine
 10
5216.0
 20
1289.3
 30
0.0
 11
5216.0
 21
1286.0
 31
0.0
  0
LINE
  5
5A1
100
AcDbEntity
  8
LAY-1
  6
CONTINUOUS
 62
     2
100
AcDbLine
 10
5202.0
 20
1308.3
 30
0.0
 11
5214.0
 21
1308.3
 31
0.0
  0
LINE
  5
5A2
100
AcDbEntity
  8
LAY-1
  6
CONTINUOUS
 62
     2
100
AcDbLine
 10
5214.0
 20
1308.3
 30
0.0
 11
5214.0
 21
1306.0
 31
0.0
  0
LINE
  5
5A3
100
AcDbEntity
  8
LAY-1
  6
CONTINUOUS
 62
     2
100
AcDbLine
 10
5202.0
 20
1308.3
 30
0.0
 11
5202.0
 21
1306.0
 31
0.0
  0
LINE
  5
5A4
100
AcDbEntity
  8
LAY-1
  6
CONTINUOUS
 62
     2
100
AcDbLine
 10
5214.0
 20
1306.0
 30
0.0
 11
5216.0
 21
1289.3
 31
0.0
  0
LINE
  5
5A5
100
AcDbEntity
  8
LAY-1
  6
CONTINUOUS
 62
     2
100
AcDbLine
 10
5202.0
 20
1306.0
 30
0.0
 11
5200.0
 21
1289.3
 31
0.0
  0
LINE
  5
5A6
100
AcDbEntity
  8
LAY-1
  6
CONTINUOUS
 62
     2
100
AcDbLine
 10
5154.5
 20
1249.15
 30
0.0
 11
5154.5
 21
1270.85
 31
0.0
  0
LINE
  5
5A7
100
AcDbEntity
  8
LAY-1
  6
CONTINUOUS
 62
     2
100
AcDbLine
 10
5156.5
 20
1249.15
 30
0.0
 11
5156.5
 21
1270.85
 31
0.0
  0
LINE
  5
5A8
100
AcDbEntity
  8
LAY-1
  6
CONTINUOUS
 62
     2
100
AcDbLine
 10
5158.5
 20
1249.15
 30
0.0
 11
5158.5
 21
1270.85
 31
0.0
  0
LINE
  5
5A9
100
AcDbEntity
  8
LAY-1
  6
CONTINUOUS
 62
     2
100
AcDbLine
 10
5256.5
 20
1253.140657
 30
0.0
 11
5246.5
 21
1253.140657
 31
0.0
  0
LINE
  5
5AA
100
AcDbEntity
  8
LAY-1
  6
CONTINUOUS
 62
     2
100
AcDbLine
 10
5256.5
 20
1267.140657
 30
0.0
 11
5246.5
 21
1267.140657
 31
0.0
  0
LINE
  5
5AB
100
AcDbEntity
  8
LAY-1
  6
CONTINUOUS
 62
     2
100
AcDbLine
 10
5246.5
 20
1270.990657
 30
0.0
 11
5240.5
 21
1270.990657
 31
0.0
  0
LINE
  5
5AC
100
AcDbEntity
  8
LAY-1
  6
CONTINUOUS
 62
     2
100
AcDbLine
 10
5246.5
 20
1249.290657
 30
0.0
 11
5240.5
 21
1249.290657
 31
0.0
  0
LINE
  5
5AD
100
AcDbEntity
  8
LAY-1
  6
CONTINUOUS
 62
     2
100
AcDbLine
 10
5242.5
 20
1249.290657
 30
0.0
 11
5242.5
 21
1270.990657
 31
0.0
  0
LINE
  5
5AE
100
AcDbEntity
  8
LAY-1
  6
CONTINUOUS
 62
     2
100
AcDbLine
 10
5244.5
 20
1249.290657
 30
0.0
 11
5244.5
 21
1270.990657
 31
0.0
  0
LINE
  5
5AF
100
AcDbEntity
  8
LAY-1
  6
CONTINUOUS
 62
     2
100
AcDbLine
 10
5246.5
 20
1249.290657
 30
0.0
 11
5246.5
 21
1270.990657
 31
0.0
  0
LINE
  5
5B0
100
AcDbEntity
  8
LAY-1
  6
CONTINUOUS
 62
     2
100
AcDbLine
 10
5256.5
 20
1253.140657
 30
0.0
 11
5256.5
 21
1267.140657
 31
0.0
  0
TEXT
  5
5B1
100
AcDbEntity
  8
LAY-5
  6
CONTINUOUS
 62
     3
100
AcDbText
 10
954.0
 20
1495.0
 30
0.0
 40
75.0
  1
８１５
 50
90.0
 41
0.84
  7
EXCADSTD
 72
     5
 11
954.0
 21
1720.0
 31
0.0
100
AcDbText
  0
LINE
  5
5B2
100
AcDbEntity
  8
LAY-5
  6
CONTINUOUS
 62
     1
100
AcDbLine
 10
1077.729842
 20
1200.0
 30
0.0
 11
954.5
 21
1200.0
 31
0.0
  0
LINE
  5
5B3
100
AcDbEntity
  8
LAY-5
  6
CONTINUOUS
 62
     1
100
AcDbLine
 10
1170.6
 20
2015.0
 30
0.0
 11
954.5
 21
2015.0
 31
0.0
  0
LINE
  5
5B4
100
AcDbEntity
  8
LAY-5
  6
CONTINUOUS
 62
     1
100
AcDbLine
 10
955.0
 20
1200.0
 30
0.0
 11
955.0
 21
2015.0
 31
0.0
  0
LINE
  5
5B5
100
AcDbEntity
  8
LAY-5
  6
CONTINUOUS
 62
     1
100
AcDbLine
 10
942.5
 20
1275.0
 30
0.0
 11
955.0
 21
1200.0
 31
0.0
  0
LINE
  5
5B6
100
AcDbEntity
  8
LAY-5
  6
CONTINUOUS
 62
     1
100
AcDbLine
 10
955.0
 20
1200.0
 30
0.0
 11
967.5
 21
1275.0
 31
0.0
  0
LINE
  5
5B7
100
AcDbEntity
  8
LAY-5
  6
CONTINUOUS
 62
     1
100
AcDbLine
 10
967.5
 20
1940.0
 30
0.0
 11
955.0
 21
2015.0
 31
0.0
  0
LINE
  5
5B8
100
AcDbEntity
  8
LAY-5
  6
CONTINUOUS
 62
     1
100
AcDbLine
 10
955.0
 20
2015.0
 30
0.0
 11
942.5
 21
1940.0
 31
0.0
  0
TEXT
  5
5B9
100
AcDbEntity
  8
LAY-5
  6
CONTINUOUS
 62
     3
100
AcDbText
 10
824.0
 20
1552.5
 30
0.0
 40
75.0
  1
９３０
 50
90.0
 41
0.84
  7
EXCADSTD
 72
     5
 11
824.0
 21
1777.5
 31
0.0
100
AcDbText
  0
LINE
  5
5BA
100
AcDbEntity
  8
LAY-5
  6
CONTINUOUS
 62
     1
100
AcDbLine
 10
1077.729842
 20
1200.0
 30
0.0
 11
824.5
 21
1200.0
 31
0.0
  0
LINE
  5
5BB
100
AcDbEntity
  8
LAY-5
  6
CONTINUOUS
 62
     1
100
AcDbLine
 10
1133.729842
 20
2130.0
 30
0.0
 11
824.5
 21
2130.0
 31
0.0
  0
LINE
  5
5BC
100
AcDbEntity
  8
LAY-5
  6
CONTINUOUS
 62
     1
100
AcDbLine
 10
825.0
 20
1200.0
 30
0.0
 11
825.0
 21
2130.0
 31
0.0
  0
LINE
  5
5BD
100
AcDbEntity
  8
LAY-5
  6
CONTINUOUS
 62
     1
100
AcDbLine
 10
812.5
 20
1275.0
 30
0.0
 11
825.0
 21
1200.0
 31
0.0
  0
LINE
  5
5BE
100
AcDbEntity
  8
LAY-5
  6
CONTINUOUS
 62
     1
100
AcDbLine
 10
825.0
 20
1200.0
 30
0.0
 11
837.5
 21
1275.0
 31
0.0
  0
LINE
  5
5BF
100
AcDbEntity
  8
LAY-5
  6
CONTINUOUS
 62
     1
100
AcDbLine
 10
837.5
 20
2055.0
 30
0.0
 11
825.0
 21
2130.0
 31
0.0
  0
LINE
  5
5C0
100
AcDbEntity
  8
LAY-5
  6
CONTINUOUS
 62
     1
100
AcDbLine
 10
825.0
 20
2130.0
 30
0.0
 11
812.5
 21
2055.0
 31
0.0
  0
TEXT
  5
5C1
100
AcDbEntity
  8
LAY-5
  6
CONTINUOUS
 62
     3
100
AcDbText
 10
1937.0
 20
1462.5
 30
0.0
 40
75.0
  1
７５０
 50
90.0
 41
0.84
  7
EXCADSTD
 72
     5
 11
1937.0
 21
1687.5
 31
0.0
100
AcDbText
  0
LINE
  5
5C2
100
AcDbEntity
  8
LAY-5
  6
CONTINUOUS
 62
     1
100
AcDbLine
 10
1602.0
 20
1950.0
 30
0.0
 11
1938.5
 21
1950.0
 31
0.0
  0
LINE
  5
5C3
100
AcDbEntity
  8
LAY-5
  6
CONTINUOUS
 62
     1
100
AcDbLine
 10
1687.729842
 20
1200.0
 30
0.0
 11
1938.5
 21
1200.0
 31
0.0
  0
LINE
  5
5C4
100
AcDbEntity
  8
LAY-5
  6
CONTINUOUS
 62
     1
100
AcDbLine
 10
1938.0
 20
1950.0
 30
0.0
 11
1938.0
 21
1200.0
 31
0.0
  0
LINE
  5
5C5
100
AcDbEntity
  8
LAY-5
  6
CONTINUOUS
 62
     1
100
AcDbLine
 10
1950.5
 20
1875.0
 30
0.0
 11
1938.0
 21
1950.0
 31
0.0
  0
LINE
  5
5C6
100
AcDbEntity
  8
LAY-5
  6
CONTINUOUS
 62
     1
100
AcDbLine
 10
1938.0
 20
1950.0
 30
0.0
 11
1925.5
 21
1875.0
 31
0.0
  0
LINE
  5
5C7
100
AcDbEntity
  8
LAY-5
  6
CONTINUOUS
 62
     1
100
AcDbLine
 10
1925.5
 20
1275.0
 30
0.0
 11
1938.0
 21
1200.0
 31
0.0
  0
LINE
  5
5C8
100
AcDbEntity
  8
LAY-5
  6
CONTINUOUS
 62
     1
100
AcDbLine
 10
1938.0
 20
1200.0
 30
0.0
 11
1950.5
 21
1275.0
 31
0.0
  0
LINE
  5
5C9
100
AcDbEntity
  8
LAY-5
  6
CONTINUOUS
 62
     1
100
AcDbLine
 10
3521.5
 20
2599.0
 30
0.0
 11
4091.5
 21
2599.0
 31
0.0
  0
LINE
  5
5CA
100
AcDbEntity
  8
LAY-5
  6
CONTINUOUS
 62
     1
100
AcDbLine
 10
3596.5
 20
2611.5
 30
0.0
 11
3521.5
 21
2599.0
 31
0.0
  0
LINE
  5
5CB
100
AcDbEntity
  8
LAY-5
  6
CONTINUOUS
 62
     1
100
AcDbLine
 10
3521.5
 20
2599.0
 30
0.0
 11
3596.5
 21
2586.5
 31
0.0
  0
LINE
  5
5CC
100
AcDbEntity
  8
LAY-5
  6
CONTINUOUS
 62
     1
100
AcDbLine
 10
4016.5
 20
2586.5
 30
0.0
 11
4091.5
 21
2599.0
 31
0.0
  0
LINE
  5
5CD
100
AcDbEntity
  8
LAY-5
  6
CONTINUOUS
 62
     1
100
AcDbLine
 10
4091.5
 20
2599.0
 30
0.0
 11
4016.5
 21
2611.5
 31
0.0
  0
TEXT
  5
5CE
100
AcDbEntity
  8
LAY-5
  6
CONTINUOUS
 62
     3
100
AcDbText
 10
3694.0
 20
2600.0
 30
0.0
 40
75.0
  1
５７０
 41
0.84
  7
EXCADSTD
 72
     5
 11
3919.0
 21
2600.0
 31
0.0
100
AcDbText
  0
LINE
  5
5CF
100
AcDbEntity
  8
LAY-5
  6
CONTINUOUS
 62
     1
100
AcDbLine
 10
3521.5
 20
2844.3
 30
0.0
 11
3521.5
 21
2598.5
 31
0.0
  0
LINE
  5
5D0
100
AcDbEntity
  8
LAY-5
  6
CONTINUOUS
 62
     1
100
AcDbLine
 10
4091.5
 20
2844.3
 30
0.0
 11
4091.5
 21
2598.5
 31
0.0
  0
LINE
  5
5D1
100
AcDbEntity
  8
LAY-5
  6
CONTINUOUS
 62
     1
100
AcDbLine
 10
3501.5
 20
2479.0
 30
0.0
 11
4111.5
 21
2479.0
 31
0.0
  0
LINE
  5
5D2
100
AcDbEntity
  8
LAY-5
  6
CONTINUOUS
 62
     1
100
AcDbLine
 10
3576.5
 20
2491.5
 30
0.0
 11
3501.5
 21
2479.0
 31
0.0
  0
LINE
  5
5D3
100
AcDbEntity
  8
LAY-5
  6
CONTINUOUS
 62
     1
100
AcDbLine
 10
3501.5
 20
2479.0
 30
0.0
 11
3576.5
 21
2466.5
 31
0.0
  0
LINE
  5
5D4
100
AcDbEntity
  8
LAY-5
  6
CONTINUOUS
 62
     1
100
AcDbLine
 10
4036.5
 20
2466.5
 30
0.0
 11
4111.5
 21
2479.0
 31
0.0
  0
LINE
  5
5D5
100
AcDbEntity
  8
LAY-5
  6
CONTINUOUS
 62
     1
100
AcDbLine
 10
4111.5
 20
2479.0
 30
0.0
 11
4036.5
 21
2491.5
 31
0.0
  0
TEXT
  5
5D6
100
AcDbEntity
  8
LAY-5
  6
CONTINUOUS
 62
     3
100
AcDbText
 10
3694.0
 20
2480.0
 30
0.0
 40
75.0
  1
６１０
 41
0.84
  7
EXCADSTD
 72
     5
 11
3919.0
 21
2480.0
 31
0.0
100
AcDbText
  0
LINE
  5
5D7
100
AcDbEntity
  8
LAY-5
  6
CONTINUOUS
 62
     1
100
AcDbLine
 10
3501.5
 20
2781.5
 30
0.0
 11
3501.5
 21
2478.5
 31
0.0
  0
LINE
  5
5D8
100
AcDbEntity
  8
LAY-5
  6
CONTINUOUS
 62
     1
100
AcDbLine
 10
4111.5
 20
2781.5
 30
0.0
 11
4111.5
 21
2478.5
 31
0.0
  0
LINE
  5
5D9
100
AcDbEntity
  8
LAY-5
  6
CONTINUOUS
 62
     1
100
AcDbLine
 10
4344.0
 20
2856.5
 30
0.0
 11
4344.0
 21
3186.5
 31
0.0
  0
LINE
  5
5DA
100
AcDbEntity
  8
LAY-5
  6
CONTINUOUS
 62
     1
100
AcDbLine
 10
4331.5
 20
2931.5
 30
0.0
 11
4344.0
 21
2856.5
 31
0.0
  0
LINE
  5
5DB
100
AcDbEntity
  8
LAY-5
  6
CONTINUOUS
 62
     1
100
AcDbLine
 10
4344.0
 20
2856.5
 30
0.0
 11
4356.5
 21
2931.5
 31
0.0
  0
LINE
  5
5DC
100
AcDbEntity
  8
LAY-5
  6
CONTINUOUS
 62
     1
100
AcDbLine
 10
4356.5
 20
3111.5
 30
0.0
 11
4344.0
 21
3186.5
 31
0.0
  0
LINE
  5
5DD
100
AcDbEntity
  8
LAY-5
  6
CONTINUOUS
 62
     1
100
AcDbLine
 10
4344.0
 20
3186.5
 30
0.0
 11
4331.5
 21
3111.5
 31
0.0
  0
TEXT
  5
5DE
100
AcDbEntity
  8
LAY-5
  6
CONTINUOUS
 62
     3
100
AcDbText
 10
4343.0
 20
2909.0
 30
0.0
 40
75.0
  1
３３０
 50
90.0
 41
0.84
  7
EXCADSTD
 72
     5
 11
4343.0
 21
3134.0
 31
0.0
100
AcDbText
  0
LINE
  5
5DF
100
AcDbEntity
  8
LAY-5
  6
CONTINUOUS
 62
     1
100
AcDbLine
 10
4104.5
 20
2856.5
 30
0.0
 11
4344.5
 21
2856.5
 31
0.0
  0
LINE
  5
5E0
100
AcDbEntity
  8
LAY-5
  6
CONTINUOUS
 62
     1
100
AcDbLine
 10
4104.5
 20
3186.5
 30
0.0
 11
4344.5
 21
3186.5
 31
0.0
  0
LINE
  5
5E1
100
AcDbEntity
  8
LAY-5
  6
CONTINUOUS
 62
     1
100
AcDbLine
 10
4481.0
 20
2761.5
 30
0.0
 11
4481.0
 21
3281.5
 31
0.0
  0
LINE
  5
5E2
100
AcDbEntity
  8
LAY-5
  6
CONTINUOUS
 62
     1
100
AcDbLine
 10
4468.5
 20
2836.5
 30
0.0
 11
4481.0
 21
2761.5
 31
0.0
  0
LINE
  5
5E3
100
AcDbEntity
  8
LAY-5
  6
CONTINUOUS
 62
     1
100
AcDbLine
 10
4481.0
 20
2761.5
 30
0.0
 11
4493.5
 21
2836.5
 31
0.0
  0
LINE
  5
5E4
100
AcDbEntity
  8
LAY-5
  6
CONTINUOUS
 62
     1
100
AcDbLine
 10
4493.5
 20
3206.5
 30
0.0
 11
4481.0
 21
3281.5
 31
0.0
  0
LINE
  5
5E5
100
AcDbEntity
  8
LAY-5
  6
CONTINUOUS
 62
     1
100
AcDbLine
 10
4481.0
 20
3281.5
 30
0.0
 11
4468.5
 21
3206.5
 31
0.0
  0
TEXT
  5
5E6
100
AcDbEntity
  8
LAY-5
  6
CONTINUOUS
 62
     3
100
AcDbText
 10
4480.0
 20
2909.0
 30
0.0
 40
75.0
  1
５２０
 50
90.0
 41
0.84
  7
EXCADSTD
 72
     5
 11
4480.0
 21
3134.0
 31
0.0
100
AcDbText
  0
LINE
  5
5E7
100
AcDbEntity
  8
LAY-5
  6
CONTINUOUS
 62
     1
100
AcDbLine
 10
4091.5
 20
2761.5
 30
0.0
 11
4481.5
 21
2761.5
 31
0.0
  0
LINE
  5
5E8
100
AcDbEntity
  8
LAY-5
  6
CONTINUOUS
 62
     1
100
AcDbLine
 10
4091.5
 20
3281.5
 30
0.0
 11
4481.5
 21
3281.5
 31
0.0
  0
POLYLINE
  5
5E9
100
AcDbEntity
  8
LAY-5
  6
CONTINUOUS
 62
     1
100
AcDb2dPolyline
 66
     1
 10
0.0
 20
0.0
 30
0.0
 70
   128
  0
VERTEX
  5
5EA
100
AcDbEntity
  8
LAY-5
  6
CONTINUOUS
 62
     1
100
AcDbVertex
100
AcDb2dVertex
 10
1220.717575
 20
2062.016835
 30
0.0
  0
VERTEX
  5
5EB
100
AcDbEntity
  8
LAY-5
  6
CONTINUOUS
 62
     1
100
AcDbVertex
100
AcDb2dVertex
 10
1060.0
 20
2773.0
 30
0.0
  0
VERTEX
  5
5EC
100
AcDbEntity
  8
LAY-5
  6
CONTINUOUS
 62
     1
100
AcDbVertex
100
AcDb2dVertex
 10
2242.0
 20
2773.0
 30
0.0
  0
SEQEND
  5
5ED
100
AcDbEntity
  8
LAY-5
  6
CONTINUOUS
 62
     1
  0
LINE
  5
5EE
100
AcDbEntity
  8
LAY-5
  6
CONTINUOUS
 62
     1
100
AcDbLine
 10
1191.9887
 20
2132.415001
 30
0.0
 11
1220.717575
 21
2062.016835
 31
0.0
  0
LINE
  5
5EF
100
AcDbEntity
  8
LAY-5
  6
CONTINUOUS
 62
     1
100
AcDbLine
 10
1220.717575
 20
2062.016835
 30
0.0
 11
1216.37345
 21
2137.927168
 31
0.0
  0
TEXT
  5
5F0
100
AcDbEntity
  8
LAY-5
  6
CONTINUOUS
 62
     3
100
AcDbText
 10
1126.0
 20
2773.3
 30
0.0
 40
75.0
  1
ＪＩＳ ２０Ｋ ２０Ａフランジ
 41
0.803911
  7
EXCADSTD
 72
     5
 11
2176.0
 21
2773.3
 31
0.0
100
AcDbText
  0
POLYLINE
  5
5F1
100
AcDbEntity
  8
LAY-5
  6
CONTINUOUS
 62
     1
100
AcDb2dPolyline
 66
     1
 10
0.0
 20
0.0
 30
0.0
 70
   128
  0
VERTEX
  5
5F2
100
AcDbEntity
  8
LAY-5
  6
CONTINUOUS
 62
     1
100
AcDbVertex
100
AcDb2dVertex
 10
1485.966504
 20
2000.544109
 30
0.0
  0
VERTEX
  5
5F3
100
AcDbEntity
  8
LAY-5
  6
CONTINUOUS
 62
     1
100
AcDbVertex
100
AcDb2dVertex
 10
1343.0
 20
2633.0
 30
0.0
  0
VERTEX
  5
5F4
100
AcDbEntity
  8
LAY-5
  6
CONTINUOUS
 62
     1
100
AcDbVertex
100
AcDb2dVertex
 10
2525.0
 20
2633.0
 30
0.0
  0
SEQEND
  5
5F5
100
AcDbEntity
  8
LAY-5
  6
CONTINUOUS
 62
     1
  0
LINE
  5
5F6
100
AcDbEntity
  8
LAY-5
  6
CONTINUOUS
 62
     1
100
AcDbLine
 10
1457.237628
 20
2070.942275
 30
0.0
 11
1485.966504
 21
2000.544109
 31
0.0
  0
LINE
  5
5F7
100
AcDbEntity
  8
LAY-5
  6
CONTINUOUS
 62
     1
100
AcDbLine
 10
1485.966504
 20
2000.544109
 30
0.0
 11
1481.622378
 21
2076.454442
 31
0.0
  0
TEXT
  5
5F8
100
AcDbEntity
  8
LAY-5
  6
CONTINUOUS
 62
     3
100
AcDbText
 10
1409.0
 20
2633.3
 30
0.0
 40
75.0
  1
ＪＩＳ ２０Ｋ ２５Ａフランジ
 41
0.803911
  7
EXCADSTD
 72
     5
 11
2459.0
 21
2633.3
 31
0.0
100
AcDbText
  0
TEXT
  5
5F9
100
AcDbEntity
  8
LAY-5
  6
CONTINUOUS
 62
     3
100
AcDbText
 10
2896.5
 20
2671.3
 30
0.0
 40
75.0
  1
４－φ１５
 41
0.84
  7
EXCADSTD
 72
     5
 11
3271.5
 21
2671.3
 31
0.0
100
AcDbText
  0
POLYLINE
  5
5FA
100
AcDbEntity
  8
LAY-5
  6
CONTINUOUS
 62
     1
100
AcDb2dPolyline
 66
     1
 10
0.0
 20
0.0
 30
0.0
 70
   128
  0
VERTEX
  5
5FB
100
AcDbEntity
  8
LAY-5
  6
CONTINUOUS
 62
     1
100
AcDbVertex
100
AcDb2dVertex
 10
3516.927169
 20
2850.55532
 30
0.0
  0
VERTEX
  5
5FC
100
AcDbEntity
  8
LAY-5
  6
CONTINUOUS
 62
     1
100
AcDbVertex
100
AcDb2dVertex
 10
3286.0
 20
2671.0
 30
0.0
  0
VERTEX
  5
5FD
100
AcDbEntity
  8
LAY-5
  6
CONTINUOUS
 62
     1
100
AcDbVertex
100
AcDb2dVertex
 10
2888.0
 20
2671.0
 30
0.0
  0
SEQEND
  5
5FE
100
AcDbEntity
  8
LAY-5
  6
CONTINUOUS
 62
     1
  0
LINE
  5
5FF
100
AcDbEntity
  8
LAY-5
  6
CONTINUOUS
 62
     1
100
AcDbLine
 10
3465.391758
 20
2794.650478
 30
0.0
 11
3516.927169
 21
2850.55532
 31
0.0
  0
LINE
  5
600
100
AcDbEntity
  8
LAY-5
  6
CONTINUOUS
 62
     1
100
AcDbLine
 10
3516.927169
 20
2850.55532
 30
0.0
 11
3450.046156
 21
2814.386549
 31
0.0
  0
ENDSEC
  0
SECTION
  2
OBJECTS
  0
DICTIONARY
  5
19
100
AcDbDictionary
  3
ACAD_GROUP
350
1A
  3
ACAD_MLINESTYLE
350
1B
  0
DICTIONARY
  5
1A
102
{ACAD_REACTORS
330
19
102
}
100
AcDbDictionary
  0
DICTIONARY
  5
1B
102
{ACAD_REACTORS
330
19
102
}
100
AcDbDictionary
  3
STANDARD
350
1C
  0
MLINESTYLE
  5
1C
102
{ACAD_REACTORS
330
1B
102
}
100
AcDbMlineStyle
  2
Standard
 70
     0
  3

 62
     0
 51
90.0
 52
90.0
 71
     2
 49
0.5
 62
   256
  6
ByLayer
 49
-0.5
 62
   256
  6
ByLayer
  0
ENDSEC
  0
EOF
