  0
SECTION
  2
HEADER
  9
$ACADVER
  1
AC1014
  9
$ACADMAINTVER
 70
     0
  9
$DWGCODEPAGE
  3
ANSI_932
  9
$INSBASE
 10
0.0
 20
0.0
 30
0.0
  9
$EXTMIN
 10
587.0
 20
487.5
 30
0.0
  9
$EXTMAX
 10
5634.5
 20
4080.45
 30
0.0
  9
$LIMMIN
 10
0.0
 20
0.0
  9
$LIMMAX
 10
420.0
 20
297.0
  9
$ORTHOMODE
 70
     0
  9
$REGENMODE
 70
     1
  9
$FILLMODE
 70
     1
  9
$QTEXTMODE
 70
     0
  9
$MIRRTEXT
 70
     1
  9
$DRAGMODE
 70
     2
  9
$LTSCALE
 40
1.0
  9
$OSMODE
 70
     0
  9
$ATTMODE
 70
     1
  9
$TEXTSIZE
 40
0.2
  9
$TRACEWID
 40
0.05
  9
$TEXTSTYLE
  7
STANDARD
  9
$CLAYER
  8
LAY-1
  9
$CELTYPE
  6
CONTINUOUS
  9
$CECOLOR
 62
   256
  9
$CELTSCALE
 40
1.0
  9
$DELOBJ
 70
     1
  9
$DISPSILH
 70
     0
  9
$DIMSCALE
 40
1.0
  9
$DIMASZ
 40
0.18
  9
$DIMEXO
 40
0.0625
  9
$DIMDLI
 40
0.38
  9
$DIMRND
 40
0.0
  9
$DIMDLE
 40
0.0
  9
$DIMEXE
 40
0.18
  9
$DIMTP
 40
0.0
  9
$DIMTM
 40
0.0
  9
$DIMTXT
 40
0.18
  9
$DIMCEN
 40
0.09
  9
$DIMTSZ
 40
0.0
  9
$DIMTOL
 70
     0
  9
$DIMLIM
 70
     0
  9
$DIMTIH
 70
     1
  9
$DIMTOH
 70
     1
  9
$DIMSE1
 70
     0
  9
$DIMSE2
 70
     0
  9
$DIMTAD
 70
     0
  9
$DIMZIN
 70
     0
  9
$DIMBLK
  1

  9
$DIMASO
 70
     1
  9
$DIMSHO
 70
     1
  9
$DIMPOST
  1

  9
$DIMAPOST
  1

  9
$DIMALT
 70
     0
  9
$DIMALTD
 70
     2
  9
$DIMALTF
 40
25.4
  9
$DIMLFAC
 40
1.0
  9
$DIMTOFL
 70
     0
  9
$DIMTVP
 40
0.0
  9
$DIMTIX
 70
     0
  9
$DIMSOXD
 70
     0
  9
$DIMSAH
 70
     0
  9
$DIMBLK1
  1

  9
$DIMBLK2
  1

  9
$DIMSTYLE
  2
STANDARD
  9
$DIMCLRD
 70
     0
  9
$DIMCLRE
 70
     0
  9
$DIMCLRT
 70
     0
  9
$DIMTFAC
 40
1.0
  9
$DIMGAP
 40
0.09
  9
$DIMJUST
 70
     0
  9
$DIMSD1
 70
     0
  9
$DIMSD2
 70
     0
  9
$DIMTOLJ
 70
     1
  9
$DIMTZIN
 70
     0
  9
$DIMALTZ
 70
     0
  9
$DIMALTTZ
 70
     0
  9
$DIMFIT
 70
     3
  9
$DIMUPT
 70
     0
  9
$DIMUNIT
 70
     2
  9
$DIMDEC
 70
     4
  9
$DIMTDEC
 70
     4
  9
$DIMALTU
 70
     2
  9
$DIMALTTD
 70
     2
  9
$DIMTXSTY
  7
STANDARD
  9
$DIMAUNIT
 70
     0
  9
$LUNITS
 70
     2
  9
$LUPREC
 70
     4
  9
$SKETCHINC
 40
0.1
  9
$FILLETRAD
 40
0.0
  9
$AUNITS
 70
     0
  9
$AUPREC
 70
     0
  9
$MENU
  1
acad
  9
$ELEVATION
 40
0.0
  9
$PELEVATION
 40
0.0
  9
$THICKNESS
 40
0.0
  9
$LIMCHECK
 70
     0
  9
$BLIPMODE
 70
     1
  9
$CHAMFERA
 40
0.0
  9
$CHAMFERB
 40
0.0
  9
$CHAMFERC
 40
0.0
  9
$CHAMFERD
 40
0.0
  9
$SKPOLY
 70
     0
  9
$TDCREATE
 40
2458244.144865185
  9
$TDUPDATE
 40
2458244.144865185
  9
$TDINDWG
 40
0.0000000000
  9
$TDUSRTIMER
 40
0.0000000000
  9
$USRTIMER
 70
     1
  9
$ANGBASE
 50
0.0
  9
$ANGDIR
 70
     0
  9
$PDMODE
 70
     0
  9
$PDSIZE
 40
0.0
  9
$PLINEWID
 40
0.0
  9
$COORDS
 70
     1
  9
$SPLFRAME
 70
     0
  9
$SPLINETYPE
 70
     6
  9
$SPLINESEGS
 70
     8
  9
$ATTDIA
 70
     0
  9
$ATTREQ
 70
     1
  9
$HANDLING
 70
     1
  9
$HANDSEED
  5
609
  9
$SURFTAB1
 70
     6
  9
$SURFTAB2
 70
     6
  9
$SURFTYPE
 70
     6
  9
$SURFU
 70
     6
  9
$SURFV
 70
     6
  9
$UCSNAME
  2

  9
$UCSORG
 10
0.0
 20
0.0
 30
0.0
  9
$UCSXDIR
 10
1.0
 20
0.0
 30
0.0
  9
$UCSYDIR
 10
0.0
 20
1.0
 30
0.0
  9
$PUCSNAME
  2

  9
$PUCSORG
 10
0.0
 20
0.0
 30
0.0
  9
$PUCSXDIR
 10
1.0
 20
0.0
 30
0.0
  9
$PUCSYDIR
 10
0.0
 20
1.0
 30
0.0
  9
$USERI1
 70
     0
  9
$USERI2
 70
     0
  9
$USERI3
 70
     0
  9
$USERI4
 70
     0
  9
$USERI5
 70
     0
  9
$USERR1
 40
0.0
  9
$USERR2
 40
0.0
  9
$USERR3
 40
0.0
  9
$USERR4
 40
0.0
  9
$USERR5
 40
0.0
  9
$WORLDVIEW
 70
     1
  9
$SHADEDGE
 70
     3
  9
$SHADEDIF
 70
    70
  9
$TILEMODE
 70
     1
  9
$MAXACTVP
 70
    16
  9
$PINSBASE
 10
0.0
 20
0.0
 30
0.0
  9
$PLIMCHECK
 70
     0
  9
$PEXTMIN
 10
1.000000E+20
 20
1.000000E+20
 30
1.000000E+20
  9
$PEXTMAX
 10
-1.000000E+20
 20
-1.000000E+20
 30
-1.000000E+20
  9
$PLIMMIN
 10
0.0
 20
0.0
  9
$PLIMMAX
 10
12.0
 20
9.0
  9
$UNITMODE
 70
     0
  9
$VISRETAIN
 70
     0
  9
$PLINEGEN
 70
     1
  9
$PSLTSCALE
 70
     0
  9
$TREEDEPTH
 70
  3020
  9
$PICKSTYLE
 70
     1
  9
$CMLSTYLE
  2
Standard
  9
$CMLJUST
 70
     0
  9
$CMLSCALE
 40
1.0
  9
$PROXYGRAPHICS
 70
     0
  9
$MEASUREMENT
 70
     0
  0
ENDSEC
  0
SECTION
  2
CLASSES
  0
CLASS
  1
LWPOLYLINE
  2
AcDbPolyline
  3
"AutoCAD"
 90
        0
280
     0
281
     1
  0
CLASS
  1
IMAGE
  2
AcDbRasterImage
  3
ISM
 90
      127
280
     0
281
     1
  0
CLASS
  1
OLE2FRAME
  2
AcDbOle2Frame
  3
""
 90
        0
280
     0
281
     1
  0
CLASS
  1
HATCH
  2
AcDbHatch
  3
"ACAD_SEDONA"
 90
        0
280
     0
281
     1
  0
CLASS
  1
DICTIONARYVAR
  2
AcDbDictionaryVar
  3
"AutoCAD"
 90
        0
280
     0
281
     0
  0
CLASS
  1
RASTERVARIABLES
  2
AcDbRasterVariables
  3
ISM
 90
        0
280
     0
281
     0
  0
CLASS
  1
IMAGEDEF
  2
AcDbRasterImageDef
  3
ISM
 90
        0
280
     0
281
     0
  0
CLASS
  1
IMAGEDEF_REACTOR
  2
AcDbRasterImageDefReactor
  3
ISM
 90
        1
280
     0
281
     0
  0
CLASS
  1
IDBUFFER
  2
AcDbIdBuffer
  3
"Acad"
 90
        0
280
     0
281
     0
  0
CLASS
  1
SPATIAL_FILTER
  2
AcDbSpatialFilter
  3
"Acad"
 90
        0
280
     0
281
     0
  0
CLASS
  1
XRECORD
  2
AcDbXrecord
  3
"<Built In>"
 90
        0
280
     0
281
     0
  0
CLASS
  1
SORTENTSTABLE
  2
AcDbSortentsTable
  3
"AutoCAD"
 90
        0
280
     0
281
     0
  0
CLASS
  1
LAYER_INDEX
  2
AcDbLayerIndex
  3
"Acad"
 90
        0
280
     0
281
     0
  0
CLASS
  1
SPATIAL_INDEX
  2
AcDbSpatialIndex
  3
"Acad"
 90
        0
280
     0
281
     0
  0
CLASS
  1
OBJECT_PTR
  2
CAseDLPNTableRecord
  3
"ASE-LPNTableRecord"
 90
        1
280
     0
281
     0
  0
CLASS
  1
LAYOUT
  2
AcDbLayout
  3
"AutoCAD 2000"
 90
        0
280
     0
281
     0
  0
CLASS
  1
PLOTSETTINGS
  2
AcDbPlotSettings
  3
"AutoCAD 2000"
 90
        0
280
     0
281
     0
  0
CLASS
  1
ACDBDICTIONARYWDFLT
  2
AcDbDictionaryWithDefault
  3
"AutoCAD 2000"
 90
        0
280
     0
281
     0
  0
CLASS
  1
ACDBPLACEHOLDER
  2
AcDbPlaceHolder
  3
"AutoCAD 2000"
 90
        0
280
     0
281
     0
  0
CLASS
  1
VBA_PROJECT
  2
AcDbVbaProject
  3
"acadvba"
 90
        0
280
     0
281
     0
  0
CLASS
  1
WIPEOUT
  2
AcDbWipeout
  3
WipeOut|AutoCAD Express Tool|expresstools@autodesk.com
 90
      127
280
     0
281
     1
  0
CLASS
  1
WIPEOUTVARIABLES
  2
AcDbWipeoutVariables
  3
WipeOut|AutoCAD Express Tool|expresstools@autodesk.com
 90
        0
280
     0
281
     0
  0
CLASS
  1
RTEXT
  2
RText
  3
RText|AutoCAD Express Tool|expresstools@autodesk.com
 90
        0
280
     0
281
     1
  0
CLASS
  1
ARCALIGNEDTEXT
  2
AcDbArcAlignedText
  3
ATEXT|AutoCAD Express Tool|expresstools@autodesk.com
 90
        0
280
     0
281
     1
  0
ENDSEC
  0
SECTION
  2
TABLES
  0
TABLE
  2
VPORT
  5
7
100
AcDbSymbolTable
 70
     1
  0
VPORT
  5
15
100
AcDbSymbolTableRecord
100
AcDbViewportTableRecord
  2
*ACTIVE
 70
     0
 10
0.0
 20
0.0
 11
1.0
 21
1.0
 12
3110.75
 22
2283.975
 13
0.0
 23
0.0
 14
1.0
 24
1.0
 15
0.0
 25
0.0
 16
0.0
 26
0.0
 36
1.0
 17
0.0
 27
0.0
 37
0.0
 40
3592.95
 41
1.722533
 42
50.0
 43
0.0
 44
0.0
 50
0.0
 51
0.0
 71
     0
 72
  1000
 73
     1
 74
     1
 75
     0
 76
     0
 77
     0
 78
     0
  0
ENDTAB
  0
TABLE
  2
LTYPE
  5
4
100
AcDbSymbolTable
 70
     9
  0
LTYPE
  5
11
100
AcDbSymbolTableRecord
100
AcDbLinetypeTableRecord
  2
BYBLOCK
 70
    64
  3

 72
    65
 73
     0
 40
0.0
  0
LTYPE
  5
12
100
AcDbSymbolTableRecord
100
AcDbLinetypeTableRecord
  2
BYLAYER
 70
    64
  3

 72
    65
 73
     0
 40
0.0
  0
LTYPE
  5
13
100
AcDbSymbolTableRecord
100
AcDbLinetypeTableRecord
  2
CONTINUOUS
 70
    64
  3
実線
 72
    65
 73
     0
 40
0.0
  0
LTYPE
  5
1D
100
AcDbSymbolTableRecord
100
AcDbLinetypeTableRecord
  2
EXLTYPE1
 70
    64
  3
破線
 72
    65
 73
     2
 40
4.0
 49
3.0
 74
     0
 49
-1.0
 74
     0
  0
LTYPE
  5
1E
100
AcDbSymbolTableRecord
100
AcDbLinetypeTableRecord
  2
EXLTYPE2
 70
    64
  3
点線
 72
    65
 73
     2
 40
2.0
 49
1.0
 74
     0
 49
-1.0
 74
     0
  0
LTYPE
  5
1F
100
AcDbSymbolTableRecord
100
AcDbLinetypeTableRecord
  2
EXLTYPE3
 70
    64
  3
一点鎖線
 72
    65
 73
     4
 40
33.0
 49
30.0
 74
     0
 49
-1.0
 74
     0
 49
1.0
 74
     0
 49
-1.0
 74
     0
  0
LTYPE
  5
20
100
AcDbSymbolTableRecord
100
AcDbLinetypeTableRecord
  2
EXLTYPE4
 70
    64
  3
二点鎖線
 72
    65
 73
     6
 40
35.0
 49
30.0
 74
     0
 49
-1.0
 74
     0
 49
1.0
 74
     0
 49
-1.0
 74
     0
 49
1.0
 74
     0
 49
-1.0
 74
     0
  0
LTYPE
  5
21
100
AcDbSymbolTableRecord
100
AcDbLinetypeTableRecord
  2
EXLTYPE5
 70
    64
  3
三点鎖線
 72
    65
 73
     8
 40
37.0
 49
30.0
 74
     0
 49
-1.0
 74
     0
 49
1.0
 74
     0
 49
-1.0
 74
     0
 49
1.0
 74
     0
 49
-1.0
 74
     0
 49
1.0
 74
     0
 49
-1.0
 74
     0
  0
LTYPE
  5
22
100
AcDbSymbolTableRecord
100
AcDbLinetypeTableRecord
  2
EXLTYPE6
 70
    64
  3
四点鎖線
 72
    65
 73
    10
 40
39.0
 49
30.0
 74
     0
 49
-1.0
 74
     0
 49
1.0
 74
     0
 49
-1.0
 74
     0
 49
1.0
 74
     0
 49
-1.0
 74
     0
 49
1.0
 74
     0
 49
-1.0
 74
     0
 49
1.0
 74
     0
 49
-1.0
 74
     0
  0
ENDTAB
  0
TABLE
  2
LAYER
  5
2
100
AcDbSymbolTable
 70
     4
  0
LAYER
  5
14
100
AcDbSymbolTableRecord
100
AcDbLayerTableRecord
  2
0
 70
     0
 62
     7
  6
CONTINUOUS
  0
LAYER
  5
25
100
AcDbSymbolTableRecord
100
AcDbLayerTableRecord
  2
LAY-1
 70
    64
 62
     3
  6
CONTINUOUS
  0
LAYER
  5
26
100
AcDbSymbolTableRecord
100
AcDbLayerTableRecord
  2
LAY-2
 70
    64
 62
     7
  6
CONTINUOUS
  0
LAYER
  5
27
100
AcDbSymbolTableRecord
100
AcDbLayerTableRecord
  2
LAY-5
 70
    64
 62
     1
  6
CONTINUOUS
  0
ENDTAB
  0
TABLE
  2
STYLE
  5
3
100
AcDbSymbolTable
 70
     3
  0
STYLE
  5
17
100
AcDbSymbolTableRecord
100
AcDbTextStyleTableRecord
  2
STANDARD
 70
     0
 40
0.0
 41
1.0
 50
0.0
 71
     0
 42
0.0
  3
monotxt
  4
extfont
  0
STYLE
  5
23
100
AcDbSymbolTableRecord
100
AcDbTextStyleTableRecord
  2
EXCADSTD
 70
    64
 40
0.0
 41
1.0
 50
0.0
 71
     0
 42
0.2
  3
monotxt
  4
extfont
  0
STYLE
  5
24
100
AcDbSymbolTableRecord
100
AcDbTextStyleTableRecord
  2
EXCADVERT
 70
    68
 40
0.0
 41
1.0
 50
0.0
 71
     0
 42
0.286885
  3
monotxt
  4
extfont
  0
ENDTAB
  0
TABLE
  2
VIEW
  5
5
100
AcDbSymbolTable
 70
     0
  0
ENDTAB
  0
TABLE
  2
UCS
  5
6
100
AcDbSymbolTable
 70
     0
  0
ENDTAB
  0
TABLE
  2
APPID
  5
8
100
AcDbSymbolTable
 70
     1
  0
APPID
  5
16
100
AcDbSymbolTableRecord
100
AcDbRegAppTableRecord
  2
ACAD
 70
     0
  0
ENDTAB
  0
TABLE
  2
DIMSTYLE
  5
9
100
AcDbSymbolTable
 70
     1
  0
DIMSTYLE
105
18
100
AcDbSymbolTableRecord
100
AcDbDimStyleTableRecord
  2
STANDARD
 70
     0
  3

  4

  5

  6

  7

 40
1.0
 41
0.18
 42
0.0625
 43
0.38
 44
0.18
 45
0.0
 46
0.0
 47
0.0
 48
0.0
 71
     0
 72
     0
 73
     1
 74
     1
 75
     0
 76
     0
 77
     0
 78
     0
140
0.18
141
0.09
142
0.0
143
25.4
144
1.0
145
0.0
146
1.0
147
0.09
170
     0
171
     2
172
     1
173
     0
174
     0
175
     0
176
     0
177
     0
178
     0
270
     2
271
     4
272
     4
273
     2
274
     2
275
     0
280
     0
281
     0
282
     0
283
     1
284
     0
285
     0
286
     0
287
     3
288
     0
340
17
  0
ENDTAB
  0
TABLE
  2
BLOCK_RECORD
  5
1
100
AcDbSymbolTable
 70
    15
  0
BLOCK_RECORD
  5
A
100
AcDbSymbolTableRecord
100
AcDbBlockTableRecord
  2
*MODEL_SPACE
  0
BLOCK_RECORD
  5
B
100
AcDbSymbolTableRecord
100
AcDbBlockTableRecord
  2
*PAPER_SPACE
  0
BLOCK_RECORD
  5
28
100
AcDbSymbolTableRecord
100
AcDbBlockTableRecord
  2
_EX_NORM
  0
BLOCK_RECORD
  5
29
100
AcDbSymbolTableRecord
100
AcDbBlockTableRecord
  2
_EX_BNORM
  0
BLOCK_RECORD
  5
2A
100
AcDbSymbolTableRecord
100
AcDbBlockTableRecord
  2
_EX_BCIR
  0
BLOCK_RECORD
  5
2B
100
AcDbSymbolTableRecord
100
AcDbBlockTableRecord
  2
_EX_RCIVIL
  0
BLOCK_RECORD
  5
2C
100
AcDbSymbolTableRecord
100
AcDbBlockTableRecord
  2
_EX_SLANT
  0
BLOCK_RECORD
  5
2D
100
AcDbSymbolTableRecord
100
AcDbBlockTableRecord
  2
_EX_NONE
  0
BLOCK_RECORD
  5
2E
100
AcDbSymbolTableRecord
100
AcDbBlockTableRecord
  2
_EX_CIVIL
  0
BLOCK_RECORD
  5
2F
100
AcDbSymbolTableRecord
100
AcDbBlockTableRecord
  2
_EX_WCIR
  0
BLOCK_RECORD
  5
30
100
AcDbSymbolTableRecord
100
AcDbBlockTableRecord
  2
_EX_WCIR2
  0
BLOCK_RECORD
  5
31
100
AcDbSymbolTableRecord
100
AcDbBlockTableRecord
  2
_EX_WNORM
  0
BLOCK_RECORD
  5
32
100
AcDbSymbolTableRecord
100
AcDbBlockTableRecord
  2
_EX_NNORM
  0
BLOCK_RECORD
  5
33
100
AcDbSymbolTableRecord
100
AcDbBlockTableRecord
  2
_EX_BBOX
  0
BLOCK_RECORD
  5
34
100
AcDbSymbolTableRecord
100
AcDbBlockTableRecord
  2
_EX_WBOX
  0
BLOCK_RECORD
  5
35
100
AcDbSymbolTableRecord
100
AcDbBlockTableRecord
  2
_EX_INTEGRAL
  0
BLOCK_RECORD
  5
36
100
AcDbSymbolTableRecord
100
AcDbBlockTableRecord
  2
SYM-1
  0
ENDTAB
  0
ENDSEC
  0
SECTION
  2
BLOCKS
  0
BLOCK
  5
D
100
AcDbEntity
  8
0
100
AcDbBlockBegin
  2
*MODEL_SPACE
 70
     0
 10
0.0
 20
0.0
 30
0.0
  3
*MODEL_SPACE
  1

  0
ENDBLK
  5
E
100
AcDbEntity
  8
0
100
AcDbBlockEnd
  0
BLOCK
  5
F
100
AcDbEntity
 67
     1
  8
0
100
AcDbBlockBegin
  2
*PAPER_SPACE
 70
     0
 10
0.0
 20
0.0
 30
0.0
  3
*PAPER_SPACE
  1

  0
ENDBLK
  5
10
100
AcDbEntity
 67
     1
  8
0
100
AcDbBlockEnd
  0
BLOCK
  5
37
100
AcDbEntity
  8
0
100
AcDbBlockBegin
  2
_EX_NORM
 70
     0
 10
0.0
 20
0.0
 30
0.0
  3
_EX_NORM
  1

  0
LINE
  5
38
100
AcDbEntity
  8
0
  6
CONTINUOUS
 62
     0
100
AcDbLine
 10
0.0
 20
0.0
 30
0.0
 11
-1.0
 21
0.0
 31
0.0
  0
LINE
  5
39
100
AcDbEntity
  8
0
  6
CONTINUOUS
 62
     0
100
AcDbLine
 10
0.0
 20
0.0
 30
0.0
 11
-1.0
 21
0.166667
 31
0.0
  0
LINE
  5
3A
100
AcDbEntity
  8
0
  6
CONTINUOUS
 62
     0
100
AcDbLine
 10
0.0
 20
0.0
 30
0.0
 11
-1.0
 21
-0.166667
 31
0.0
  0
ENDBLK
  5
3B
100
AcDbEntity
  8
0
100
AcDbBlockEnd
  0
BLOCK
  5
3C
100
AcDbEntity
  8
0
100
AcDbBlockBegin
  2
_EX_BNORM
 70
     0
 10
0.0
 20
0.0
 30
0.0
  3
_EX_BNORM
  1

  0
LINE
  5
3D
100
AcDbEntity
  8
0
  6
CONTINUOUS
 62
     0
100
AcDbLine
 10
0.0
 20
0.0
 30
0.0
 11
-1.0
 21
0.0
 31
0.0
  0
LINE
  5
3E
100
AcDbEntity
  8
0
  6
CONTINUOUS
 62
     0
100
AcDbLine
 10
0.0
 20
0.0
 30
0.0
 11
-1.0
 21
0.166667
 31
0.0
  0
LINE
  5
3F
100
AcDbEntity
  8
0
  6
CONTINUOUS
 62
     0
100
AcDbLine
 10
0.0
 20
0.0
 30
0.0
 11
-1.0
 21
-0.166667
 31
0.0
  0
LINE
  5
40
100
AcDbEntity
  8
0
  6
CONTINUOUS
 62
     0
100
AcDbLine
 10
0.0
 20
0.0
 30
0.0
 11
-1.0
 21
0.083333
 31
0.0
  0
LINE
  5
41
100
AcDbEntity
  8
0
  6
CONTINUOUS
 62
     0
100
AcDbLine
 10
0.0
 20
0.0
 30
0.0
 11
-1.0
 21
-0.083333
 31
0.0
  0
LINE
  5
42
100
AcDbEntity
  8
0
  6
CONTINUOUS
 62
     0
100
AcDbLine
 10
-1.0
 20
0.166667
 30
0.0
 11
-1.0
 21
-0.166667
 31
0.0
  0
ENDBLK
  5
43
100
AcDbEntity
  8
0
100
AcDbBlockEnd
  0
BLOCK
  5
44
100
AcDbEntity
  8
0
100
AcDbBlockBegin
  2
_EX_BCIR
 70
     0
 10
0.0
 20
0.0
 30
0.0
  3
_EX_BCIR
  1

  0
LINE
  5
45
100
AcDbEntity
  8
0
  6
CONTINUOUS
 62
     0
100
AcDbLine
 10
0.0
 20
0.0
 30
0.0
 11
-1.0
 21
0.0
 31
0.0
  0
CIRCLE
  5
46
100
AcDbEntity
  8
0
  6
CONTINUOUS
 62
     0
100
AcDbCircle
 10
0.0
 20
0.0
 30
0.0
 40
0.5
  0
CIRCLE
  5
47
100
AcDbEntity
  8
0
  6
CONTINUOUS
 62
     0
100
AcDbCircle
 10
0.0
 20
0.0
 30
0.0
 40
0.25
  0
ENDBLK
  5
48
100
AcDbEntity
  8
0
100
AcDbBlockEnd
  0
BLOCK
  5
49
100
AcDbEntity
  8
0
100
AcDbBlockBegin
  2
_EX_RCIVIL
 70
     0
 10
0.0
 20
0.0
 30
0.0
  3
_EX_RCIVIL
  1

  0
LINE
  5
4A
100
AcDbEntity
  8
0
  6
CONTINUOUS
 62
     0
100
AcDbLine
 10
0.0
 20
0.0
 30
0.0
 11
-1.0
 21
0.0
 31
0.0
  0
LINE
  5
4B
100
AcDbEntity
  8
0
  6
CONTINUOUS
 62
     0
100
AcDbLine
 10
-1.0
 20
-0.25
 30
0.0
 11
0.0
 21
-0.25
 31
0.0
  0
LINE
  5
4C
100
AcDbEntity
  8
0
  6
CONTINUOUS
 62
     0
100
AcDbLine
 10
-1.0
 20
-0.125
 30
0.0
 11
0.0
 21
-0.125
 31
0.0
  0
ENDBLK
  5
4D
100
AcDbEntity
  8
0
100
AcDbBlockEnd
  0
BLOCK
  5
4E
100
AcDbEntity
  8
0
100
AcDbBlockBegin
  2
_EX_SLANT
 70
     0
 10
0.0
 20
0.0
 30
0.0
  3
_EX_SLANT
  1

  0
LINE
  5
4F
100
AcDbEntity
  8
0
  6
CONTINUOUS
 62
     0
100
AcDbLine
 10
0.0
 20
0.0
 30
0.0
 11
-1.0
 21
0.0
 31
0.0
  0
LINE
  5
50
100
AcDbEntity
  8
0
  6
CONTINUOUS
 62
     0
100
AcDbLine
 10
0.707107
 20
0.707107
 30
0.0
 11
-0.707107
 21
-0.707107
 31
0.0
  0
ENDBLK
  5
51
100
AcDbEntity
  8
0
100
AcDbBlockEnd
  0
BLOCK
  5
52
100
AcDbEntity
  8
0
100
AcDbBlockBegin
  2
_EX_NONE
 70
     0
 10
0.0
 20
0.0
 30
0.0
  3
_EX_NONE
  1

  0
LINE
  5
53
100
AcDbEntity
  8
0
  6
CONTINUOUS
 62
     0
100
AcDbLine
 10
0.0
 20
0.0
 30
0.0
 11
-1.0
 21
0.0
 31
0.0
  0
ENDBLK
  5
54
100
AcDbEntity
  8
0
100
AcDbBlockEnd
  0
BLOCK
  5
55
100
AcDbEntity
  8
0
100
AcDbBlockBegin
  2
_EX_CIVIL
 70
     0
 10
0.0
 20
0.0
 30
0.0
  3
_EX_CIVIL
  1

  0
LINE
  5
56
100
AcDbEntity
  8
0
  6
CONTINUOUS
 62
     0
100
AcDbLine
 10
0.0
 20
0.0
 30
0.0
 11
-1.0
 21
0.0
 31
0.0
  0
LINE
  5
57
100
AcDbEntity
  8
0
  6
CONTINUOUS
 62
     0
100
AcDbLine
 10
-1.0
 20
0.25
 30
0.0
 11
0.0
 21
0.25
 31
0.0
  0
LINE
  5
58
100
AcDbEntity
  8
0
  6
CONTINUOUS
 62
     0
100
AcDbLine
 10
-1.0
 20
0.125
 30
0.0
 11
0.0
 21
0.125
 31
0.0
  0
ENDBLK
  5
59
100
AcDbEntity
  8
0
100
AcDbBlockEnd
  0
BLOCK
  5
5A
100
AcDbEntity
  8
0
100
AcDbBlockBegin
  2
_EX_WCIR
 70
     0
 10
0.0
 20
0.0
 30
0.0
  3
_EX_WCIR
  1

  0
LINE
  5
5B
100
AcDbEntity
  8
0
  6
CONTINUOUS
 62
     0
100
AcDbLine
 10
0.0
 20
0.0
 30
0.0
 11
-1.0
 21
0.0
 31
0.0
  0
CIRCLE
  5
5C
100
AcDbEntity
  8
0
  6
CONTINUOUS
 62
     0
100
AcDbCircle
 10
0.0
 20
0.0
 30
0.0
 40
0.5
  0
ENDBLK
  5
5D
100
AcDbEntity
  8
0
100
AcDbBlockEnd
  0
BLOCK
  5
5E
100
AcDbEntity
  8
0
100
AcDbBlockBegin
  2
_EX_WCIR2
 70
     0
 10
0.0
 20
0.0
 30
0.0
  3
_EX_WCIR2
  1

  0
LINE
  5
5F
100
AcDbEntity
  8
0
  6
CONTINUOUS
 62
     0
100
AcDbLine
 10
-0.5
 20
0.0
 30
0.0
 11
-1.0
 21
0.0
 31
0.0
  0
CIRCLE
  5
60
100
AcDbEntity
  8
0
  6
CONTINUOUS
 62
     0
100
AcDbCircle
 10
0.0
 20
0.0
 30
0.0
 40
0.5
  0
ENDBLK
  5
61
100
AcDbEntity
  8
0
100
AcDbBlockEnd
  0
BLOCK
  5
62
100
AcDbEntity
  8
0
100
AcDbBlockBegin
  2
_EX_WNORM
 70
     0
 10
0.0
 20
0.0
 30
0.0
  3
_EX_WNORM
  1

  0
LINE
  5
63
100
AcDbEntity
  8
0
  6
CONTINUOUS
 62
     0
100
AcDbLine
 10
-1.0
 20
0.0
 30
0.0
 11
-1.0
 21
0.0
 31
0.0
  0
LINE
  5
64
100
AcDbEntity
  8
0
  6
CONTINUOUS
 62
     0
100
AcDbLine
 10
0.0
 20
0.0
 30
0.0
 11
-1.0
 21
0.166667
 31
0.0
  0
LINE
  5
65
100
AcDbEntity
  8
0
  6
CONTINUOUS
 62
     0
100
AcDbLine
 10
0.0
 20
0.0
 30
0.0
 11
-1.0
 21
-0.166667
 31
0.0
  0
LINE
  5
66
100
AcDbEntity
  8
0
  6
CONTINUOUS
 62
     0
100
AcDbLine
 10
-1.0
 20
0.166667
 30
0.0
 11
-1.0
 21
-0.166667
 31
0.0
  0
ENDBLK
  5
67
100
AcDbEntity
  8
0
100
AcDbBlockEnd
  0
BLOCK
  5
68
100
AcDbEntity
  8
0
100
AcDbBlockBegin
  2
_EX_NNORM
 70
     0
 10
0.0
 20
0.0
 30
0.0
  3
_EX_NNORM
  1

  0
LINE
  5
69
100
AcDbEntity
  8
0
  6
CONTINUOUS
 62
     0
100
AcDbLine
 10
0.0
 20
0.0
 30
0.0
 11
-1.0
 21
0.0
 31
0.0
  0
LINE
  5
6A
100
AcDbEntity
  8
0
  6
CONTINUOUS
 62
     0
100
AcDbLine
 10
0.0
 20
0.0
 30
0.0
 11
-1.0
 21
0.166667
 31
0.0
  0
LINE
  5
6B
100
AcDbEntity
  8
0
  6
CONTINUOUS
 62
     0
100
AcDbLine
 10
0.0
 20
0.0
 30
0.0
 11
-1.0
 21
-0.166667
 31
0.0
  0
LINE
  5
6C
100
AcDbEntity
  8
0
  6
CONTINUOUS
 62
     0
100
AcDbLine
 10
-1.0
 20
0.166667
 30
0.0
 11
-1.0
 21
-0.166667
 31
0.0
  0
ENDBLK
  5
6D
100
AcDbEntity
  8
0
100
AcDbBlockEnd
  0
BLOCK
  5
6E
100
AcDbEntity
  8
0
100
AcDbBlockBegin
  2
_EX_BBOX
 70
     0
 10
0.0
 20
0.0
 30
0.0
  3
_EX_BBOX
  1

  0
LINE
  5
6F
100
AcDbEntity
  8
0
  6
CONTINUOUS
 62
     0
100
AcDbLine
 10
0.0
 20
0.0
 30
0.0
 11
-1.0
 21
0.0
 31
0.0
  0
LINE
  5
70
100
AcDbEntity
  8
0
  6
CONTINUOUS
 62
     0
100
AcDbLine
 10
-0.5
 20
0.5
 30
0.0
 11
0.5
 21
0.5
 31
0.0
  0
LINE
  5
71
100
AcDbEntity
  8
0
  6
CONTINUOUS
 62
     0
100
AcDbLine
 10
0.5
 20
0.5
 30
0.0
 11
0.5
 21
-0.5
 31
0.0
  0
LINE
  5
72
100
AcDbEntity
  8
0
  6
CONTINUOUS
 62
     0
100
AcDbLine
 10
0.5
 20
-0.5
 30
0.0
 11
-0.5
 21
-0.5
 31
0.0
  0
LINE
  5
73
100
AcDbEntity
  8
0
  6
CONTINUOUS
 62
     0
100
AcDbLine
 10
-0.5
 20
-0.5
 30
0.0
 11
-0.5
 21
0.5
 31
0.0
  0
LINE
  5
74
100
AcDbEntity
  8
0
  6
CONTINUOUS
 62
     0
100
AcDbLine
 10
-0.25
 20
0.25
 30
0.0
 11
0.25
 21
0.25
 31
0.0
  0
LINE
  5
75
100
AcDbEntity
  8
0
  6
CONTINUOUS
 62
     0
100
AcDbLine
 10
0.25
 20
0.25
 30
0.0
 11
0.25
 21
-0.25
 31
0.0
  0
LINE
  5
76
100
AcDbEntity
  8
0
  6
CONTINUOUS
 62
     0
100
AcDbLine
 10
0.25
 20
-0.25
 30
0.0
 11
-0.25
 21
-0.25
 31
0.0
  0
LINE
  5
77
100
AcDbEntity
  8
0
  6
CONTINUOUS
 62
     0
100
AcDbLine
 10
-0.25
 20
-0.25
 30
0.0
 11
-0.25
 21
0.25
 31
0.0
  0
ENDBLK
  5
78
100
AcDbEntity
  8
0
100
AcDbBlockEnd
  0
BLOCK
  5
79
100
AcDbEntity
  8
0
100
AcDbBlockBegin
  2
_EX_WBOX
 70
     0
 10
0.0
 20
0.0
 30
0.0
  3
_EX_WBOX
  1

  0
LINE
  5
7A
100
AcDbEntity
  8
0
  6
CONTINUOUS
 62
     0
100
AcDbLine
 10
-0.5
 20
0.0
 30
0.0
 11
-1.0
 21
0.0
 31
0.0
  0
LINE
  5
7B
100
AcDbEntity
  8
0
  6
CONTINUOUS
 62
     0
100
AcDbLine
 10
-0.5
 20
0.5
 30
0.0
 11
0.5
 21
0.5
 31
0.0
  0
LINE
  5
7C
100
AcDbEntity
  8
0
  6
CONTINUOUS
 62
     0
100
AcDbLine
 10
0.5
 20
0.5
 30
0.0
 11
0.5
 21
-0.5
 31
0.0
  0
LINE
  5
7D
100
AcDbEntity
  8
0
  6
CONTINUOUS
 62
     0
100
AcDbLine
 10
0.5
 20
-0.5
 30
0.0
 11
-0.5
 21
-0.5
 31
0.0
  0
LINE
  5
7E
100
AcDbEntity
  8
0
  6
CONTINUOUS
 62
     0
100
AcDbLine
 10
-0.5
 20
-0.5
 30
0.0
 11
-0.5
 21
0.5
 31
0.0
  0
ENDBLK
  5
7F
100
AcDbEntity
  8
0
100
AcDbBlockEnd
  0
BLOCK
  5
80
100
AcDbEntity
  8
0
100
AcDbBlockBegin
  2
_EX_INTEGRAL
 70
     0
 10
0.0
 20
0.0
 30
0.0
  3
_EX_INTEGRAL
  1

  0
LINE
  5
81
100
AcDbEntity
  8
0
  6
CONTINUOUS
 62
     0
100
AcDbLine
 10
0.0
 20
0.0
 30
0.0
 11
-1.0
 21
0.0
 31
0.0
  0
ARC
  5
82
100
AcDbEntity
  8
0
  6
CONTINUOUS
 62
     0
100
AcDbCircle
 10
0.542115
 20
0.164992
 30
0.0
 40
0.56667
100
AcDbArc
 50
73.07249
 51
196.927513
  0
ARC
  5
83
100
AcDbEntity
  8
0
  6
CONTINUOUS
 62
     0
100
AcDbCircle
 10
-0.542115
 20
-0.164992
 30
0.0
 40
0.56667
100
AcDbArc
 50
253.072487
 51
16.927513
  0
ENDBLK
  5
84
100
AcDbEntity
  8
0
100
AcDbBlockEnd
  0
BLOCK
  5
85
100
AcDbEntity
  8
0
100
AcDbBlockBegin
  2
SYM-1
 70
     0
 10
0.0
 20
0.0
 30
0.0
  3
SYM-1
  1

  0
LINE
  5
86
100
AcDbEntity
  8
0
  6
CONTINUOUS
 62
     2
100
AcDbLine
 10
-5.85
 20
2.15
 30
0.0
 11
-5.85
 21
5.85
 31
0.0
  0
LINE
  5
87
100
AcDbEntity
  8
0
  6
CONTINUOUS
 62
     2
100
AcDbLine
 10
-5.85
 20
5.85
 30
0.0
 11
0.0
 21
0.0
 31
0.0
  0
LINE
  5
88
100
AcDbEntity
  8
0
  6
CONTINUOUS
 62
     2
100
AcDbLine
 10
-5.85
 20
-2.15
 30
0.0
 11
-5.85
 21
-5.85
 31
0.0
  0
LINE
  5
89
100
AcDbEntity
  8
0
  6
CONTINUOUS
 62
     2
100
AcDbLine
 10
-5.85
 20
-5.85
 30
0.0
 11
0.0
 21
0.0
 31
0.0
  0
LINE
  5
8A
100
AcDbEntity
  8
0
  6
CONTINUOUS
 62
     2
100
AcDbLine
 10
-19.85
 20
2.15
 30
0.0
 11
-5.85
 21
2.15
 31
0.0
  0
LINE
  5
8B
100
AcDbEntity
  8
0
  6
CONTINUOUS
 62
     2
100
AcDbLine
 10
-19.85
 20
-2.15
 30
0.0
 11
-5.85
 21
-2.15
 31
0.0
  0
LINE
  5
8C
100
AcDbEntity
  8
0
  6
CONTINUOUS
 62
     2
100
AcDbLine
 10
-19.85
 20
2.15
 30
0.0
 11
-19.85
 21
-2.15
 31
0.0
  0
ENDBLK
  5
8D
100
AcDbEntity
  8
0
100
AcDbBlockEnd
  0
ENDSEC
  0
SECTION
  2
ENTITIES
  0
TEXT
  5
8E
100
AcDbEntity
  8
LAY-1
  6
CONTINUOUS
 62
     3
100
AcDbText
 10
4573.32
 20
730.38
 30
0.0
 40
60.0
  1
型式
 41
0.984714
  7
EXCADSTD
 72
     5
 11
4702.261218
 21
730.38
 31
0.0
100
AcDbText
  0
TEXT
  5
8F
100
AcDbEntity
  8
LAY-1
  6
CONTINUOUS
 62
     3
100
AcDbText
 10
4571.88
 20
645.9
 30
0.0
 40
60.0
  1
品名
 41
0.984714
  7
EXCADSTD
 72
     5
 11
4700.821218
 21
645.9
 31
0.0
100
AcDbText
  0
LINE
  5
90
100
AcDbEntity
  8
LAY-1
  6
CONTINUOUS
 62
     4
100
AcDbLine
 10
4545.0
 20
560.7
 30
0.0
 11
5620.2
 21
560.7
 31
0.0
  0
LINE
  5
91
100
AcDbEntity
  8
LAY-1
  6
CONTINUOUS
 62
     1
100
AcDbLine
 10
4545.0
 20
633.9
 30
0.0
 11
5620.2
 21
633.9
 31
0.0
  0
TEXT
  5
92
100
AcDbEntity
  8
LAY-1
  6
CONTINUOUS
 62
     3
100
AcDbText
 10
4927.08
 20
568.62
 30
0.0
 40
60.0
  1
外観図
 41
1.47392
  7
EXCADSTD
 72
     5
 11
5242.919996
 21
568.62
 31
0.0
100
AcDbText
  0
LINE
  5
93
100
AcDbEntity
  8
LAY-1
  6
CONTINUOUS
 62
     4
100
AcDbLine
 10
4545.0
 20
885.9
 30
0.0
 11
5620.2
 21
885.9
 31
0.0
  0
LINE
  5
94
100
AcDbEntity
  8
LAY-1
  6
CONTINUOUS
 62
     1
100
AcDbLine
 10
4545.0
 20
717.9
 30
0.0
 11
5620.2
 21
717.9
 31
0.0
  0
LINE
  5
95
100
AcDbEntity
  8
LAY-1
  6
CONTINUOUS
 62
     1
100
AcDbLine
 10
4545.0
 20
801.9
 30
0.0
 11
5620.2
 21
801.9
 31
0.0
  0
LINE
  5
96
100
AcDbEntity
  8
LAY-1
  6
CONTINUOUS
 62
     1
100
AcDbLine
 10
4725.0
 20
885.9
 30
0.0
 11
4725.0
 21
633.9
 31
0.0
  0
LINE
  5
97
100
AcDbEntity
  8
LAY-1
  6
CONTINUOUS
 62
     4
100
AcDbLine
 10
4545.0
 20
487.5
 30
0.0
 11
5620.2
 21
487.5
 31
0.0
  0
LINE
  5
98
100
AcDbEntity
  8
LAY-1
  6
CONTINUOUS
 62
     4
100
AcDbLine
 10
5620.2
 20
487.5
 30
0.0
 11
5620.2
 21
885.9
 31
0.0
  0
LINE
  5
99
100
AcDbEntity
  8
LAY-1
  6
CONTINUOUS
 62
     4
100
AcDbLine
 10
4545.0
 20
487.5
 30
0.0
 11
4545.0
 21
885.9
 31
0.0
  0
TEXT
  5
9A
100
AcDbEntity
  8
LAY-1
  6
CONTINUOUS
 62
     3
100
AcDbText
 10
4552.68
 20
812.46
 30
0.0
 40
60.0
  1
作成日
 41
0.84
  7
EXCADSTD
 72
     5
 11
4732.68
 21
812.46
 31
0.0
100
AcDbText
  0
HATCH
  5
9B
100
AcDbEntity
  8
LAY-1
  6
CONTINUOUS
 62
     3
100
AcDbHatch
 10
0.0
 20
0.0
 30
0.0
210
0.0
220
0.0
230
1.0
  2
SOLID
 70
     1
 71
     1
 91
        1
 92
        1
 93
       16
 72
     1
 10
5301.7796980837329
 20
505.78757142856995
 11
5313.1389837980178
 21
505.78757142856995
 72
     1
 10
5313.1389837980178
 20
505.78757142856995
 11
5313.1389837980178
 21
498.45899999999847
 72
     1
 10
5313.1389837980178
 20
498.45899999999847
 11
5282.7254123694465
 21
498.45899999999847
 72
     1
 10
5282.7254123694465
 20
498.45899999999847
 11
5282.7254123694465
 21
505.78757142856995
 72
     1
 10
5282.7254123694465
 20
505.78757142856995
 11
5294.4511266551617
 21
505.78757142856995
 72
     1
 10
5294.4511266551617
 20
505.78757142856995
 11
5294.4511266551617
 21
527.04042857142713
 72
     1
 10
5294.4511266551617
 20
527.04042857142713
 11
5285.290412369447
 21
527.04042857142713
 72
     1
 10
5285.290412369447
 20
527.04042857142713
 11
5285.290412369447
 21
534.36899999999866
 72
     1
 10
5285.290412369447
 20
534.36899999999866
 11
5294.4511266551617
 21
534.36899999999866
 72
     1
 10
5294.4511266551617
 20
534.36899999999866
 11
5294.4511266551617
 21
549.75899999999854
 72
     1
 10
5294.4511266551617
 20
549.75899999999854
 11
5301.7796980837329
 21
549.75899999999854
 72
     1
 10
5301.7796980837329
 20
549.75899999999854
 11
5301.7796980837329
 21
534.36899999999866
 72
     1
 10
5301.7796980837329
 20
534.36899999999866
 11
5312.4061266551616
 21
534.36899999999866
 72
     1
 10
5312.4061266551616
 20
534.36899999999866
 11
5312.4061266551616
 21
527.04042857142713
 72
     1
 10
5312.4061266551616
 20
527.04042857142713
 11
5301.7796980837329
 21
527.04042857142713
 72
     1
 10
5301.7796980837329
 20
527.04042857142713
 11
5301.7796980837329
 21
505.78757142856995
 97
        0
 75
     0
 76
     1
 98
        1
 10
0.0
 20
0.0
  0
HATCH
  5
9C
100
AcDbEntity
  8
LAY-1
  6
CONTINUOUS
 62
     3
100
AcDbHatch
 10
0.0
 20
0.0
 30
0.0
210
0.0
220
0.0
230
1.0
  2
SOLID
 70
     1
 71
     1
 91
        1
 92
        1
 93
       17
 72
     2
 10
5224.785904151604
 20
563.9823803770787
 40
65.957142857143097
 50
44.165469
 51
51.472792
 73
     0
 72
     1
 10
5265.8696980837321
 20
512.38328571428451
 11
5262.1592317364957
 21
518.81000194747287
 72
     2
 10
5224.785904151604
 20
563.9823803770787
 40
58.628571428571625
 50
309.602625
 51
331.307968
 73
     1
 72
     1
 10
5276.2156453658481
 20
535.83471428571295
 11
5264.0375552265896
 21
535.83471428571295
 72
     1
 10
5264.0375552265896
 20
535.83471428571295
 11
5264.0375552265896
 21
542.43042857142711
 72
     1
 10
5264.0375552265896
 20
542.43042857142711
 11
5272.0989837980178
 21
542.43042857142711
 72
     1
 10
5272.0989837980178
 20
542.43042857142711
 11
5272.0989837980178
 21
549.75899999999854
 72
     1
 10
5272.0989837980178
 20
549.75899999999854
 11
5278.6946980837329
 21
549.75899999999854
 72
     1
 10
5278.6946980837329
 20
549.75899999999854
 11
5278.6946980837329
 21
542.43042857142711
 72
     1
 10
5278.6946980837329
 20
542.43042857142711
 11
5287.1225552265896
 21
542.43042857142711
 72
     2
 10
5224.785904151604
 20
563.9823803770787
 40
65.957142857143097
 50
19.072051
 51
32.871988
 73
     0
 72
     1
 10
5280.1823403021099
 20
528.18322458115949
 11
5288.9546980837322
 21
519.71185714285571
 72
     1
 10
5288.9546980837322
 20
519.71185714285571
 11
5283.7718261536802
 21
514.52898521280383
 72
     1
 10
5283.7718261536802
 20
514.52898521280383
 11
5278.6946980837329
 21
519.43191079821065
 72
     1
 10
5278.6946980837329
 20
519.43191079821065
 11
5278.6946980837329
 21
498.45899999999847
 72
     1
 10
5278.6946980837329
 20
498.45899999999847
 11
5272.0989837980178
 21
498.45899999999847
 72
     1
 10
5272.0989837980178
 20
498.45899999999847
 11
5272.0989837980178
 21
518.02786821287839
 97
        0
 75
     0
 76
     1
 98
        1
 10
0.0
 20
0.0
  0
HATCH
  5
9D
100
AcDbEntity
  8
LAY-1
  6
CONTINUOUS
 62
     3
100
AcDbHatch
 10
0.0
 20
0.0
 30
0.0
210
0.0
220
0.0
230
1.0
  2
SOLID
 70
     1
 71
     1
 91
        1
 92
        1
 93
       12
 72
     2
 10
5317.4712199155992
 20
465.0651338396309
 40
103.33285714285749
 50
150.903074
 51
156.790773
 73
     1
 72
     1
 10
5222.5008959079323
 20
505.78757142856938
 11
5245.0638741962211
 21
505.78757142857023
 72
     2
 10
5180.971214902539
 20
487.3569684904146
 40
66.690000000000225
 50
16.043216
 51
21.362935
 73
     1
 72
     1
 10
5243.0790557705986
 20
511.65042857142708
 11
5250.1132695123033
 21
511.65042857142708
 72
     2
 10
5180.971214902539
 20
487.3569684904146
 40
73.285714285714533
 50
340.64078
 51
351.286733
 73
     0
 72
     1
 10
5253.4111266551599
 20
498.45899999999847
 11
5212.7375552265885
 21
498.45899999999847
 72
     2
 10
5317.4712199155992
 20
465.0651338396309
 40
109.92857142857177
 50
197.684652
 51
207.200855
 73
     0
 72
     1
 10
5219.6996980837321
 20
515.31471428571297
 11
5209.4396980837328
 21
515.31471428571297
 72
     1
 10
5209.4396980837328
 20
515.31471428571297
 11
5209.4396980837328
 21
522.64328571428439
 72
     1
 10
5209.4396980837328
 20
522.64328571428439
 11
5256.3425552265899
 21
522.64328571428439
 72
     1
 10
5256.3425552265899
 20
522.64328571428439
 11
5256.3425552265899
 21
515.31471428571297
 72
     1
 10
5256.3425552265899
 20
515.31471428571297
 11
5227.1791436835238
 21
515.31471428571297
 97
        0
 75
     0
 76
     1
 98
        1
 10
0.0
 20
0.0
  0
HATCH
  5
9E
100
AcDbEntity
  8
LAY-1
  6
CONTINUOUS
 62
     3
100
AcDbHatch
 10
0.0
 20
0.0
 30
0.0
210
0.0
220
0.0
230
1.0
  2
SOLID
 70
     1
 71
     1
 91
        1
 92
        1
 93
       10
 72
     2
 10
5317.9107530887068
 20
623.68869195647767
 40
117.25714285714325
 50
129.545698
 51
136.474664
 73
     0
 72
     1
 10
5232.8911266551631
 20
542.93659803860305
 11
5232.8911266551631
 21
549.75899999999854
 72
     1
 10
5232.8911266551631
 20
549.75899999999854
 11
5236.5554123694474
 21
549.75899999999854
 72
     2
 10
5317.9107530887068
 20
623.68869195647767
 40
109.92857142857177
 50
222.262231
 51
237.763996
 73
     1
 72
     1
 10
5259.2739837980189
 20
530.70471428571295
 11
5254.5224445920476
 21
525.04205036664496
 72
     2
 10
5317.9107530887068
 20
623.68869195647767
 40
117.25714285714325
 50
122.723968
 51
128.230009
 73
     0
 72
     1
 10
5245.3496980837326
 20
531.57935015237149
 11
5245.3496980837326
 21
525.94114285714136
 72
     1
 10
5245.3496980837326
 20
525.94114285714136
 11
5232.8911266551631
 21
525.94114285714136
 72
     1
 10
5232.8911266551631
 20
525.94114285714136
 11
5232.8911266551631
 21
533.26971428571289
 72
     1
 10
5232.8911266551631
 20
533.26971428571289
 11
5243.2538978911143
 21
533.26971428571289
 97
        0
 75
     0
 76
     1
 98
        1
 10
0.0
 20
0.0
  0
HATCH
  5
9F
100
AcDbEntity
  8
LAY-1
  6
CONTINUOUS
 62
     3
100
AcDbHatch
 10
0.0
 20
0.0
 30
0.0
210
0.0
220
0.0
230
1.0
  2
SOLID
 70
     1
 71
     1
 91
        1
 92
        1
 93
       10
 72
     2
 10
5147.8715002216159
 20
623.68869195647767
 40
117.25714285714325
 50
51.769991
 51
57.276032
 73
     0
 72
     1
 10
5211.2598087182741
 20
525.04205036664473
 11
5206.5082695123037
 21
530.70471428571284
 72
     2
 10
5147.8715002216159
 20
623.68869195647767
 40
109.92857142857177
 50
302.236004
 51
317.737769
 73
     1
 72
     1
 10
5229.2268409408753
 20
549.75899999999854
 11
5232.8911266551631
 21
549.75899999999854
 72
     1
 10
5232.8911266551631
 20
549.75899999999854
 11
5232.8911266551631
 21
542.93659803860737
 72
     2
 10
5147.8715002216159
 20
623.68869195647767
 40
117.25714285714325
 50
43.525336
 51
50.454302
 73
     0
 72
     1
 10
5222.5283554192083
 20
533.26971428571289
 11
5232.8911266551631
 21
533.26971428571289
 72
     1
 10
5232.8911266551631
 20
533.26971428571289
 11
5232.8911266551631
 21
525.94114285714136
 72
     1
 10
5232.8911266551631
 20
525.94114285714136
 11
5220.43255522659
 21
525.94114285714136
 72
     1
 10
5220.43255522659
 20
525.94114285714136
 11
5220.43255522659
 21
531.57935015237149
 97
        0
 75
     0
 76
     1
 98
        1
 10
0.0
 20
0.0
  0
HATCH
  5
A0
100
AcDbEntity
  8
LAY-1
  6
CONTINUOUS
 62
     3
100
AcDbHatch
 10
0.0
 20
0.0
 30
0.0
210
0.0
220
0.0
230
1.0
  2
SOLID
 70
     1
 71
     1
 91
        1
 92
        1
 93
       18
 72
     2
 10
5093.9340696276204
 20
516.82506236911092
 40
102.60000000000034
 50
14.02954
 51
18.723021
 73
     1
 72
     1
 10
5191.1046194466107
 20
549.75899999999854
 11
5198.8132695123031
 21
549.75899999999854
 72
     2
 10
5093.9340696276204
 20
516.82506236911092
 40
109.92857142857177
 50
342.566782
 51
346.922981
 73
     0
 72
     1
 10
5201.0118409408751
 20
541.69757142857009
 11
5203.9432695123032
 21
541.69757142857009
 72
     1
 10
5203.9432695123032
 20
541.69757142857009
 11
5203.9432695123032
 21
534.36899999999855
 72
     1
 10
5203.9432695123032
 20
534.36899999999855
 11
5190.2421625453544
 21
534.36899999999866
 72
     2
 10
5266.2361266551607
 20
546.46114285714157
 40
76.950000000000259
 50
189.041096
 51
204.65198
 73
     1
 72
     2
 10
5211.6260129926131
 20
521.39872719628954
 40
16.863485764327443
 50
204.65198
 51
242.897449
 73
     1
 72
     1
 10
5203.9432695123032
 20
506.38697830618872
 11
5203.9432695123032
 21
498.45899999999847
 72
     2
 10
5211.6260129926131
 20
521.39872719628954
 40
24.192057192898893
 50
108.516212
 51
155.34802
 73
     0
 72
     2
 10
5266.2361266551607
 20
546.46114285714157
 40
84.278571428571695
 50
155.34802
 51
171.750831
 73
     0
 72
     1
 10
5182.8295460804638
 20
534.36899999999866
 11
5154.841840940875
 21
534.36899999999855
 72
     1
 10
5154.841840940875
 20
534.36899999999855
 11
5154.841840940875
 21
541.69757142857009
 72
     1
 10
5154.841840940875
 20
541.69757142857009
 11
5182.0725312836767
 21
541.69757142857009
 72
     1
 10
5182.0725312836767
 20
541.69757142857009
 11
5181.7910199947592
 21
549.75899999999854
 72
     1
 10
5181.7910199947592
 20
549.75899999999854
 11
5189.1240585122632
 21
549.75899999999854
 72
     1
 10
5189.1240585122632
 20
549.75899999999854
 11
5189.4055698011807
 21
541.69757142857009
 72
     1
 10
5189.4055698011807
 20
541.69757142857009
 11
5193.4736009359758
 21
541.69757142857009
 97
        0
 75
     0
 76
     1
 98
        1
 10
0.0
 20
0.0
  0
HATCH
  5
A1
100
AcDbEntity
  8
LAY-1
  6
CONTINUOUS
 62
     3
100
AcDbHatch
 10
0.0
 20
0.0
 30
0.0
210
0.0
220
0.0
230
1.0
  2
SOLID
 70
     1
 71
     1
 91
        1
 92
        1
 93
       12
 72
     2
 10
5131.7750062109526
 20
866.3593886167364
 40
359.10000000000116
 50
276.500664
 51
278.269357
 73
     1
 72
     1
 10
5183.4232695123037
 20
510.99300458758358
 11
5183.4232695123037
 21
503.58899999999863
 72
     2
 10
5131.7750062109526
 20
866.3593886167364
 40
366.42857142857264
 50
81.897153
 51
86.39082
 73
     0
 72
     1
 10
5154.841840940875
 20
500.65757142856995
 11
5154.841840940875
 21
508.00100496212815
 72
     2
 10
5131.7750062109526
 20
866.3593886167364
 40
359.10000000000116
 50
273.682937
 51
275.325087
 73
     1
 72
     1
 10
5165.1018409408753
 20
508.80920740172792
 11
5165.1018409408753
 21
520.44471428571273
 72
     1
 10
5165.1018409408753
 20
520.44471428571273
 11
5154.841840940875
 21
520.44471428571273
 72
     1
 10
5154.841840940875
 20
520.44471428571273
 11
5154.841840940875
 21
527.77328571428416
 72
     1
 10
5154.841840940875
 20
527.77328571428416
 11
5181.2246980837326
 21
527.77328571428416
 72
     1
 10
5181.2246980837326
 20
527.77328571428416
 11
5181.2246980837326
 21
520.44471428571273
 72
     1
 10
5181.2246980837326
 20
520.44471428571273
 11
5172.4304123694474
 21
520.44471428571273
 72
     1
 10
5172.4304123694474
 20
520.44471428571273
 11
5172.4304123694465
 21
509.56820606020403
 97
        0
 75
     0
 76
     1
 98
        1
 10
0.0
 20
0.0
  0
HATCH
  5
A2
100
AcDbEntity
  8
LAY-1
  6
CONTINUOUS
 62
     3
100
AcDbHatch
 10
0.0
 20
0.0
 30
0.0
210
0.0
220
0.0
230
1.0
  2
SOLID
 70
     1
 71
     1
 91
        1
 92
        1
 93
       30
 72
     2
 10
5065.5379974435828
 20
561.47621735273071
 40
80.247857142857399
 50
37.940537
 51
46.713808
 73
     0
 72
     1
 10
5120.5593748023148
 20
503.06075185284436
 11
5115.6339837980177
 21
507.98614285714166
 72
     2
 10
5065.5379974435828
 20
561.47621735273071
 40
73.285714285714576
 50
313.123325
 51
325.95222
 73
     1
 72
     1
 10
5126.2604123694455
 20
520.44471428571296
 11
5117.4661266551611
 21
520.44471428571296
 72
     1
 10
5117.4661266551611
 20
520.44471428571296
 11
5117.4661266551611
 21
527.77328571428427
 72
     1
 10
5117.4661266551611
 20
527.77328571428427
 11
5128.8254123694469
 21
527.77328571428427
 72
     1
 10
5128.8254123694469
 20
527.77328571428427
 11
5128.8254123694469
 21
535.10185714285569
 72
     1
 10
5128.8254123694469
 20
535.10185714285569
 11
5125.1715408206201
 21
535.10185714285569
 72
     2
 10
5046.8086090656625
 20
550.60326215595285
 40
79.88142857142887
 50
11.189535
 51
14.746058
 73
     0
 72
     1
 10
5124.0590192259569
 20
530.27060958235563
 11
5117.8325552265887
 21
532.53685714285564
 72
     2
 10
5046.8086090656625
 20
550.60326215595285
 40
73.285714285714576
 50
345.728313
 51
357.620387
 73
     1
 72
     1
 10
5120.0311266551616
 20
547.56042857144905
 11
5126.5796781156159
 21
546.40574226441311
 72
     2
 10
5046.8086090656625
 20
550.60326215595285
 40
79.88142857142887
 50
3.012102
 51
6.401006
 73
     0
 72
     1
 10
5126.1920538339546
 20
541.69757142857009
 11
5128.8254123694469
 21
541.69757142857009
 72
     1
 10
5128.8254123694469
 20
541.69757142857009
 11
5128.8254123694469
 21
549.75899999999854
 72
     1
 10
5128.8254123694469
 20
549.75899999999854
 11
5136.1539837980181
 21
549.75899999999854
 72
     1
 10
5136.1539837980181
 20
549.75899999999854
 11
5136.1539837980181
 21
541.69757142857009
 72
     1
 10
5136.1539837980181
 20
541.69757142857009
 11
5146.0475552265898
 21
541.69757142857009
 72
     1
 10
5146.0475552265898
 20
541.69757142857009
 11
5146.0475552265898
 21
535.10185714285569
 72
     1
 10
5146.0475552265898
 20
535.10185714285569
 11
5136.1539837980181
 21
535.10185714285569
 72
     1
 10
5136.1539837980181
 20
535.10185714285569
 11
5136.1539837980181
 21
527.77328571428427
 72
     1
 10
5136.1539837980181
 20
527.77328571428427
 11
5147.5132695123039
 21
527.77328571428427
 72
     1
 10
5147.5132695123039
 20
527.77328571428427
 11
5147.5132695123039
 21
520.44471428571296
 72
     1
 10
5147.5132695123039
 20
520.44471428571296
 11
5138.7189837980177
 21
520.44471428571296
 72
     2
 10
5199.4413987238804
 20
561.4762173527306
 40
73.285714285714576
 50
214.04778
 51
226.876675
 73
     1
 72
     1
 10
5149.3454123694455
 20
507.98614285714166
 11
5144.4200213651475
 21
503.06075185284436
 72
     2
 10
5199.4413987238804
 20
561.4762173527306
 40
80.247857142857399
 50
133.286192
 51
142.059463
 73
     0
 72
     1
 10
5136.1539837980181
 20
512.13635833365618
 11
5136.1539837980181
 21
498.45899999999847
 72
     1
 10
5136.1539837980181
 20
498.45899999999847
 11
5128.8254123694469
 21
498.45899999999847
 72
     1
 10
5128.8254123694469
 20
498.45899999999847
 11
5128.8254123694469
 21
512.13635833365822
 97
        0
 75
     0
 76
     1
 98
        1
 10
0.0
 20
0.0
  0
HATCH
  5
A3
100
AcDbEntity
  8
LAY-1
  6
CONTINUOUS
 62
     3
100
AcDbHatch
 10
0.0
 20
0.0
 30
0.0
210
0.0
220
0.0
230
1.0
  2
SOLID
 70
     1
 71
     1
 91
        1
 92
        1
 93
       19
 72
     2
 10
5035.3695992720313
 20
551.69510757057242
 40
79.881428571428842
 50
27.683433
 51
32.280505
 73
     0
 72
     1
 10
5102.904841761715
 20
509.03325514393862
 11
5097.6789837980177
 21
513.11614285714131
 72
     2
 10
5035.3695992720313
 20
551.69510757057242
 40
73.285714285714533
 50
328.236207
 51
344.845745
 73
     1
 72
     1
 10
5106.1068409408745
 20
532.53685714285575
 11
5099.5111266551612
 21
532.53685714285575
 72
     1
 10
5099.5111266551612
 20
532.53685714285575
 11
5099.5111266551612
 21
539.86542857142717
 72
     1
 10
5099.5111266551612
 20
539.86542857142717
 11
5106.1068409408754
 21
539.86542857142717
 72
     1
 10
5106.1068409408754
 20
539.86542857142717
 11
5106.1068409408754
 21
549.75899999999854
 72
     1
 10
5106.1068409408754
 20
549.75899999999854
 11
5113.4354123694466
 21
549.75899999999854
 72
     1
 10
5113.4354123694466
 20
549.75899999999854
 11
5113.4354123694466
 21
539.86542857142717
 72
     1
 10
5113.4354123694466
 20
539.86542857142717
 11
5116.7332695123041
 21
539.86542857142717
 72
     1
 10
5116.7332695123041
 20
539.86542857142717
 11
5116.7332695123041
 21
532.53685714285575
 72
     1
 10
5116.7332695123041
 20
532.53685714285575
 11
5113.4354123694466
 21
532.53685714285575
 72
     1
 10
5113.4354123694466
 20
532.53685714285575
 11
5117.4661266551611
 21
526.78040056996497
 72
     1
 10
5117.4661266551611
 20
526.78040056996497
 11
5117.4661266551611
 21
522.31886187303689
 72
     1
 10
5117.4661266551611
 20
522.31886187303689
 11
5115.2675552265891
 21
519.69870647446135
 72
     1
 10
5115.2675552265891
 20
519.69870647446135
 11
5113.4354123694466
 21
522.31527764395628
 72
     1
 10
5113.4354123694466
 20
522.31527764395628
 11
5113.4354123694466
 21
498.45899999999847
 72
     1
 10
5113.4354123694466
 20
498.45899999999847
 11
5106.1068409408754
 21
498.45899999999847
 72
     1
 10
5106.1068409408754
 20
498.45899999999847
 11
5106.1068409408754
 21
514.58331333079127
 97
        0
 75
     0
 76
     1
 98
        1
 10
0.0
 20
0.0
  0
HATCH
  5
A4
100
AcDbEntity
  8
LAY-1
  6
CONTINUOUS
 62
     3
100
AcDbHatch
 10
0.0
 20
0.0
 30
0.0
210
0.0
220
0.0
230
1.0
  2
SOLID
 70
     1
 71
     1
 91
        1
 92
        1
 93
        8
 72
     2
 10
5066.1503998357748
 20
520.00499999999749
 40
14.364000000000116
 50
270.0
 51
330.0
 73
     1
 72
     2
 10
5059.0420633215126
 20
524.10899999999754
 40
22.572000000000109
 50
330.0
 51
30.0
 73
     1
 72
     2
 10
5066.1503998357748
 20
528.21299999999746
 40
14.364000000000107
 50
30.0
 51
90.0
 73
     1
 72
     1
 10
5066.1503998357794
 20
542.57699999999761
 11
5066.1503998357794
 21
550.78499999999929
 72
     2
 10
5066.1503998357748
 20
528.21299999999928
 40
22.57200000000007
 50
270.0
 51
330.0
 73
     0
 72
     2
 10
5059.0420633215135
 20
524.1089999999989
 40
30.78000000000014
 50
330.0
 51
30.0
 73
     0
 72
     2
 10
5066.1503998357757
 20
520.00499999999658
 40
22.572000000000045
 50
30.0
 51
90.0
 73
     0
 72
     1
 10
5066.1503998357794
 20
497.43299999999658
 11
5066.1503998357794
 21
505.64099999999735
 97
        0
 75
     0
 76
     1
 98
        1
 10
0.0
 20
0.0
  0
HATCH
  5
A5
100
AcDbEntity
  8
LAY-1
  6
CONTINUOUS
 62
     3
100
AcDbHatch
 10
0.0
 20
0.0
 30
0.0
210
0.0
220
0.0
230
1.0
  2
SOLID
 70
     1
 71
     1
 91
        1
 92
        1
 93
        8
 72
     2
 10
5066.1503998357757
 20
520.00499999999658
 40
22.572000000000045
 50
90.0
 51
150.0
 73
     0
 72
     2
 10
5073.258736350037
 20
524.1089999999972
 40
30.780000000000168
 50
150.0
 51
210.0
 73
     0
 72
     2
 10
5066.1503998357748
 20
528.21299999999928
 40
22.57200000000007
 50
210.0
 51
270.0
 73
     0
 72
     1
 10
5066.1503998357794
 20
550.78499999999929
 11
5066.1503998357794
 21
542.57699999999761
 72
     2
 10
5066.1503998357748
 20
528.21299999999746
 40
14.364000000000107
 50
90.0
 51
150.0
 73
     1
 72
     2
 10
5073.2587363500379
 20
524.10899999999754
 40
22.57200000000012
 50
150.0
 51
210.0
 73
     1
 72
     2
 10
5066.1503998357748
 20
520.00499999999749
 40
14.364000000000116
 50
210.0
 51
270.0
 73
     1
 72
     1
 10
5066.1503998357794
 20
505.64099999999735
 11
5066.1503998357794
 21
497.43299999999658
 97
        0
 75
     0
 76
     1
 98
        1
 10
0.0
 20
0.0
  0
HATCH
  5
A6
100
AcDbEntity
  8
LAY-1
  6
CONTINUOUS
 62
     3
100
AcDbHatch
 10
0.0
 20
0.0
 30
0.0
210
0.0
220
0.0
230
1.0
  2
SOLID
 70
     1
 71
     1
 91
        1
 92
        1
 93
        4
 72
     1
 10
5034.3443998357752
 20
514.8749999999975
 11
5026.1363998357756
 21
514.8749999999975
 72
     1
 10
5026.1363998357756
 20
514.8749999999975
 11
5026.1363998357756
 21
523.08299999999747
 72
     1
 10
5026.1363998357756
 20
523.08299999999747
 11
5034.3443998357752
 21
523.08299999999747
 72
     1
 10
5034.3443998357752
 20
523.08299999999747
 11
5034.3443998357752
 21
514.87499999999693
 97
        0
 75
     0
 76
     1
 98
        1
 10
0.0
 20
0.0
  0
HATCH
  5
A7
100
AcDbEntity
  8
LAY-1
  6
CONTINUOUS
 62
     3
100
AcDbHatch
 10
0.0
 20
0.0
 30
0.0
210
0.0
220
0.0
230
1.0
  2
SOLID
 70
     1
 71
     1
 91
        1
 92
        1
 93
       16
 72
     1
 10
4995.3563998357749
 20
541.55099999999754
 11
4984.0703998357749
 21
541.55099999999754
 72
     1
 10
4984.0703998357749
 20
541.55099999999754
 11
4982.0183998357752
 21
530.26499999999749
 72
     1
 10
4982.0183998357752
 20
530.26499999999749
 11
4975.8623998357752
 21
530.26499999999749
 72
     1
 10
4975.8623998357752
 20
530.26499999999749
 11
4975.8623998357752
 21
549.75899999999763
 72
     1
 10
4975.8623998357752
 20
549.75899999999763
 11
5023.0583998357752
 21
549.75899999999763
 72
     1
 10
5023.0583998357752
 20
549.75899999999763
 11
5023.0583998357752
 21
530.26499999999749
 72
     1
 10
5023.0583998357752
 20
530.26499999999749
 11
5016.9023998357752
 21
530.26499999999749
 72
     1
 10
5016.9023998357752
 20
530.26499999999749
 11
5014.8503998357755
 21
541.55099999999754
 72
     1
 10
5014.8503998357755
 20
541.55099999999754
 11
5003.5643998357746
 21
541.55099999999754
 72
     1
 10
5003.5643998357746
 20
541.55099999999754
 11
5003.5643998357755
 21
506.66699999999742
 72
     1
 10
5003.5643998357755
 20
506.66699999999742
 11
5011.7723998357751
 21
504.61499999999739
 72
     1
 10
5011.7723998357751
 20
504.61499999999739
 11
5011.7723998357751
 21
498.45899999999739
 72
     1
 10
5011.7723998357751
 20
498.45899999999739
 11
4987.1483998357753
 21
498.45899999999739
 72
     1
 10
4987.1483998357753
 20
498.45899999999739
 11
4987.1483998357753
 21
504.61499999999739
 72
     1
 10
4987.1483998357753
 20
504.61499999999739
 11
4995.3563998357749
 21
506.66699999999742
 72
     1
 10
4995.3563998357749
 20
506.66699999999742
 11
4995.3563998357749
 21
541.55099999999754
 97
        0
 75
     0
 76
     1
 98
        1
 10
0.0
 20
0.0
  0
HATCH
  5
A8
100
AcDbEntity
  8
LAY-1
  6
CONTINUOUS
 62
     3
100
AcDbHatch
 10
0.0
 20
0.0
 30
0.0
210
0.0
220
0.0
230
1.0
  2
SOLID
 70
     1
 71
     1
 91
        1
 92
        1
 93
        4
 72
     1
 10
4964.5763998357752
 20
514.8749999999975
 11
4964.5763998357752
 21
523.08299999999792
 72
     1
 10
4964.5763998357752
 20
523.08299999999792
 11
4972.7843998357748
 21
523.08299999999747
 72
     1
 10
4972.7843998357748
 20
523.08299999999747
 11
4972.7843998357748
 21
514.8749999999975
 72
     1
 10
4972.7843998357748
 20
514.8749999999975
 11
4964.5763998357752
 21
514.8749999999975
 97
        0
 75
     0
 76
     1
 98
        1
 10
0.0
 20
0.0
  0
HATCH
  5
A9
100
AcDbEntity
  8
LAY-1
  6
CONTINUOUS
 62
     3
100
AcDbHatch
 10
0.0
 20
0.0
 30
0.0
210
0.0
220
0.0
230
1.0
  2
SOLID
 70
     1
 71
     1
 91
        1
 92
        1
 93
       12
 72
     1
 10
4955.3423998357748
 20
549.75899999999763
 11
4955.3423998357748
 21
543.60299999999756
 72
     1
 10
4955.3423998357748
 20
543.60299999999756
 11
4947.1343998357752
 21
541.55099999999754
 72
     1
 10
4947.1343998357752
 20
541.55099999999754
 11
4947.1343998357752
 21
506.66699999999742
 72
     1
 10
4947.1343998357752
 20
506.66699999999742
 11
4955.3423998357748
 21
504.61499999999739
 72
     1
 10
4955.3423998357748
 20
504.61499999999739
 11
4955.3423998357748
 21
498.45899999999739
 72
     1
 10
4955.3423998357748
 20
498.45899999999739
 11
4930.718399835775
 21
498.45899999999739
 72
     1
 10
4930.718399835775
 20
498.45899999999739
 11
4930.718399835775
 21
504.61499999999739
 72
     1
 10
4930.718399835775
 20
504.61499999999739
 11
4938.9263998357746
 21
506.66699999999742
 72
     1
 10
4938.9263998357746
 20
506.66699999999742
 11
4938.9263998357746
 21
541.55099999999754
 72
     1
 10
4938.9263998357746
 20
541.55099999999754
 11
4930.718399835775
 21
543.60299999999756
 72
     1
 10
4930.718399835775
 20
543.60299999999756
 11
4930.718399835775
 21
549.75899999999763
 72
     1
 10
4930.718399835775
 20
549.75899999999763
 11
4955.3423998357748
 21
549.75899999999763
 97
        0
 75
     0
 76
     1
 98
        1
 10
0.0
 20
0.0
  0
HATCH
  5
AA
100
AcDbEntity
  8
LAY-1
  6
CONTINUOUS
 62
     3
100
AcDbHatch
 10
0.0
 20
0.0
 30
0.0
210
0.0
220
0.0
230
1.0
  2
SOLID
 70
     1
 71
     1
 91
        1
 92
        1
 93
       15
 72
     2
 10
4874.8791500150419
 20
524.10899999999856
 40
22.779477947794813
 50
124.301153
 51
180.0
 73
     0
 72
     1
 10
4852.0996720672465
 20
524.10899999999992
 11
4860.695219569875
 21
524.10899999999992
 72
     2
 10
4882.8590359515129
 20
524.10899999999879
 40
22.163816381638231
 50
180.0
 51
199.464384
 73
     1
 72
     2
 10
4861.6032385923854
 20
526.56760783349523
 40
9.8505850585060877
 50
272.086657
 51
294.619977
 73
     1
 72
     2
 10
4864.4245543217721
 20
520.41099217192891
 40
3.0783078307830967
 50
294.619977
 51
0.0
 73
     1
 72
     1
 10
4867.5028621525562
 20
520.41099217192891
 11
4867.5028621525562
 21
524.10899999999992
 72
     1
 10
4867.5028621525562
 20
524.10899999999992
 11
4874.8908009464349
 21
524.10899999999992
 72
     1
 10
4874.8908009464349
 20
524.10899999999992
 11
4874.8908009464349
 21
520.40446025275048
 72
     2
 10
4877.969108777218
 20
520.40446025275048
 40
3.0783078307829701
 50
180.0
 51
245.380023
 73
     1
 72
     2
 10
4880.7904245066056
 20
526.56107591431794
 40
9.8505850585071713
 50
245.380023
 51
267.913343
 73
     1
 72
     1
 10
4880.4317550418446
 20
516.71702277498889
 11
4880.4317550418446
 21
514.87003807651934
 72
     1
 10
4880.4317550418446
 20
514.87003807651934
 11
4862.7126630974371
 21
514.87003807651922
 72
     2
 10
4882.8590359515138
 20
524.10899999999879
 40
22.163816381638203
 50
204.635803
 51
268.19864
 73
     1
 72
     1
 10
4882.1623279326377
 20
501.95613665154178
 11
4882.1623279326377
 21
498.87344656803924
 72
     2
 10
4882.8590359515129
 20
535.80656975697559
 40
36.939693969397105
 50
91.080702
 51
124.301153
 73
     0
 97
        0
 75
     0
 76
     1
 98
        1
 10
0.0
 20
0.0
  0
HATCH
  5
AB
100
AcDbEntity
  8
LAY-1
  6
CONTINUOUS
 62
     3
100
AcDbHatch
 10
0.0
 20
0.0
 30
0.0
210
0.0
220
0.0
230
1.0
  2
SOLID
 70
     1
 71
     1
 91
        1
 92
        1
 93
       24
 72
     2
 10
4878.5843228349049
 20
527.18730783078183
 40
3.0783078307831229
 50
90.0
 51
157.380135
 73
     1
 72
     2
 10
4885.9722616287836
 20
524.10899999999901
 40
11.081908190819133
 50
157.380135
 51
180.0
 73
     1
 72
     1
 10
4874.8903534379651
 20
524.10899999999992
 11
4867.5028621525562
 21
524.10899999999992
 72
     1
 10
4867.5028621525562
 20
524.10899999999992
 11
4867.5028621525562
 21
540.09094865637917
 72
     2
 10
4882.8590359515129
 20
524.10899999999879
 40
22.163816381638231
 50
133.856042
 51
180.0
 73
     1
 72
     1
 10
4860.695219569875
 20
524.10899999999992
 11
4852.0996720672465
 21
524.10899999999992
 72
     2
 10
4874.8791500150419
 20
524.10899999999856
 40
22.779477947794813
 50
180.0
 51
235.698847
 73
     0
 72
     2
 10
4882.8590359515138
 20
512.41143024302164
 40
36.93969396939719
 50
235.698847
 51
245.436008
 73
     0
 72
     1
 10
4867.5028621525562
 20
546.00799132907503
 11
4867.5028621525562
 21
549.35361770046813
 72
     2
 10
4864.4245543217721
 20
549.35361770046813
 40
3.0783078307830789
 50
0.0
 51
65.380023
 73
     1
 72
     2
 10
4861.6032385923854
 20
543.19700203890193
 40
9.8505850585058656
 50
65.380023
 51
87.913343
 73
     1
 72
     1
 10
4861.9619080571456
 20
553.04105517822961
 11
4861.9619080571456
 21
554.88803987669939
 72
     1
 10
4861.9619080571456
 20
554.88803987669939
 11
4880.4317550418446
 21
554.88803987669939
 72
     1
 10
4880.4317550418446
 20
554.88803987669939
 11
4880.4317550418446
 21
553.04105517822961
 72
     2
 10
4880.7904245066056
 20
543.19700203890193
 40
9.85058505850591
 50
92.086657
 51
114.619977
 73
     1
 72
     2
 10
4877.9691087772189
 20
549.35361770046825
 40
3.0783078307831229
 50
114.619977
 51
180.0
 73
     1
 72
     1
 10
4874.8908009464349
 20
549.35361770046813
 11
4874.8908009464349
 21
548.48147628480774
 72
     2
 10
4882.8590359515129
 20
512.41143024302164
 40
36.939693969397098
 50
257.542857
 51
268.919298
 73
     0
 72
     1
 10
4882.1623279326377
 20
549.34455343195805
 11
4882.1623279326377
 21
546.26186334845579
 72
     2
 10
4882.8590359515138
 20
524.10899999999879
 40
22.163816381638231
 50
91.80136
 51
111.070443
 73
     1
 72
     1
 10
4874.8908009464349
 20
544.79092417312165
 11
4874.8908009464349
 21
533.34392349234793
 72
     1
 10
4874.8908009464349
 20
533.34392349234793
 11
4882.1623279326386
 21
533.34392349234793
 72
     1
 10
4882.1623279326386
 20
533.34392349234793
 11
4882.1623279326377
 21
530.26561566156477
 72
     1
 10
4882.1623279326377
 20
530.26561566156477
 11
4878.5843228349049
 21
530.26561566156477
 97
        0
 75
     0
 76
     1
 98
        1
 10
0.0
 20
0.0
  0
HATCH
  5
AC
100
AcDbEntity
  8
LAY-1
  6
CONTINUOUS
 62
     3
100
AcDbHatch
 10
0.0
 20
0.0
 30
0.0
210
0.0
220
0.0
230
1.0
  2
SOLID
 70
     1
 71
     1
 91
        1
 92
        1
 93
       14
 72
     2
 10
4882.8590359515129
 20
524.10899999999879
 40
22.163816381638274
 50
0.0
 51
9.281799
 73
     1
 72
     2
 10
4901.6946579891228
 20
527.18730783078183
 40
3.0783078307830603
 50
9.281799
 51
90.0
 73
     1
 72
     1
 10
4901.6946579891228
 20
530.26561566156477
 11
4895.1722672746455
 21
530.26561566156477
 72
     1
 10
4895.1722672746455
 20
530.26561566156477
 11
4895.1722672746455
 21
524.10899999999992
 72
     1
 10
4895.1722672746455
 20
524.10899999999992
 11
4887.7843284807659
 21
524.10899999999992
 72
     1
 10
4887.7843284807659
 20
524.10899999999992
 11
4887.7843284807659
 21
530.26561566156477
 72
     1
 10
4887.7843284807659
 20
530.26561566156477
 11
4882.1623279326377
 21
530.26561566156477
 72
     1
 10
4882.1623279326377
 20
530.26561566156477
 11
4882.1623279326377
 21
533.34392349234793
 72
     1
 10
4882.1623279326377
 20
533.34392349234793
 11
4903.0072603072585
 21
533.3439234923477
 72
     2
 10
4882.8590359515138
 20
524.10899999999879
 40
22.163816381638231
 50
24.624318
 51
91.80136
 73
     1
 72
     1
 10
4882.1623279326377
 20
546.26186334845579
 11
4882.1623279326377
 21
549.34455343195805
 72
     2
 10
4882.8590359515129
 20
512.41143024302164
 40
36.939693969397098
 50
268.919298
 51
304.301153
 73
     0
 72
     2
 10
4890.8389218879856
 20
524.10899999999856
 40
22.779477947794835
 50
304.301153
 51
0.0
 73
     0
 72
     1
 10
4913.6183998357801
 20
524.10899999999992
 11
4905.0228523331516
 21
524.10899999999992
 97
        0
 75
     0
 76
     1
 98
        1
 10
0.0
 20
0.0
  0
HATCH
  5
AD
100
AcDbEntity
  8
LAY-1
  6
CONTINUOUS
 62
     3
100
AcDbHatch
 10
0.0
 20
0.0
 30
0.0
210
0.0
220
0.0
230
1.0
  2
SOLID
 70
     1
 71
     1
 91
        1
 92
        1
 93
       19
 72
     2
 10
4882.8590359515129
 20
524.10899999999879
 40
22.163816381638274
 50
303.748989
 51
0.0
 73
     1
 72
     1
 10
4905.0228523331516
 20
524.10899999999992
 11
4913.6183998357801
 21
524.10899999999992
 72
     2
 10
4890.8389218879856
 20
524.10899999999856
 40
22.779477947794835
 50
0.0
 51
55.698847
 73
     0
 72
     2
 10
4882.8590359515138
 20
535.8065697569757
 40
36.939693969397162
 50
55.698847
 51
70.528779
 73
     0
 72
     1
 10
4895.1722672746455
 20
500.9794922893534
 11
4895.1722672746455
 21
498.86034386839907
 72
     2
 10
4898.2505751054287
 20
498.86034386839907
 40
3.0783078307830967
 50
180.0
 51
245.380023
 73
     1
 72
     2
 10
4901.0718908348163
 20
505.01695952996533
 40
9.8505850585058923
 50
245.380023
 51
267.913343
 73
     1
 72
     1
 10
4900.7132213700552
 20
495.17290639063759
 11
4900.7132213700552
 21
493.32592169216775
 72
     1
 10
4900.7132213700552
 20
493.32592169216775
 11
4882.2433743853571
 21
493.32592169216775
 72
     1
 10
4882.2433743853571
 20
493.32592169216775
 11
4882.2433743853571
 21
495.17290639063759
 72
     2
 10
4881.8847049205951
 20
505.01695952996533
 40
9.8505850585058923
 50
272.086657
 51
294.619977
 73
     1
 72
     2
 10
4884.7060206499827
 20
498.86034386839907
 40
3.0783078307830967
 50
294.619977
 51
0.0
 73
     1
 72
     1
 10
4887.7843284807659
 20
498.86034386839907
 11
4887.7843284807659
 21
499.19670108671124
 72
     2
 10
4882.8590359515129
 20
535.80656975697559
 40
36.939693969397105
 50
82.337744
 51
91.080702
 73
     0
 72
     1
 10
4882.1623279326377
 20
498.87344656803924
 11
4882.1623279326377
 21
501.95613665154178
 72
     2
 10
4882.8590359515138
 20
524.10899999999879
 40
22.163816381638203
 50
268.19864
 51
282.839588
 73
     1
 72
     1
 10
4887.7843284807659
 20
502.4993667291572
 11
4887.7843284807659
 21
524.10899999999992
 72
     1
 10
4887.7843284807659
 20
524.10899999999992
 11
4895.1722672746455
 21
524.10899999999992
 72
     1
 10
4895.1722672746455
 20
524.10899999999992
 11
4895.1722672746455
 21
505.68024282589693
 97
        0
 75
     0
 76
     1
 98
        1
 10
0.0
 20
0.0
  0
TEXT
  5
AE
100
AcDbEntity
  8
LAY-1
  6
CONTINUOUS
 62
     3
100
AcDbText
 10
4754.712
 20
645.948
 30
0.0
 40
60.0
  1
電熱式ベーパライザー
 41
0.84
  7
EXCADSTD
 72
     5
 11
5354.712
 21
645.948
 31
0.0
100
AcDbText
  0
LINE
  5
AF
100
AcDbEntity
  8
LAY-1
  6
EXLTYPE3
 62
     1
100
AcDbLine
 10
4468.0
 20
3285.5
 30
0.0
 11
3688.0
 21
3285.5
 31
0.0
  0
LINE
  5
B0
100
AcDbEntity
  8
LAY-1
  6
EXLTYPE3
 62
     1
100
AcDbLine
 10
4068.0
 20
3635.5
 30
0.0
 11
4068.0
 21
2930.5
 31
0.0
  0
LINE
  5
B1
100
AcDbEntity
  8
LAY-1
  6
EXLTYPE3
 62
     1
100
AcDbLine
 10
4068.0
 20
2065.0
 30
0.0
 11
4068.0
 21
985.0
 31
0.0
  0
LINE
  5
B2
100
AcDbEntity
  8
LAY-1
  6
EXLTYPE3
 62
     1
100
AcDbLine
 10
3738.0
 20
1049.5
 30
0.0
 11
3738.0
 21
1025.0
 31
0.0
  0
LINE
  5
B3
100
AcDbEntity
  8
LAY-1
  6
EXLTYPE3
 62
     1
100
AcDbLine
 10
4398.0
 20
1049.5
 30
0.0
 11
4398.0
 21
1025.0
 31
0.0
  0
LINE
  5
B4
100
AcDbEntity
  8
LAY-1
  6
EXLTYPE3
 62
     1
100
AcDbLine
 10
927.6
 20
1049.5
 30
0.0
 11
927.6
 21
1025.0
 31
0.0
  0
LINE
  5
B5
100
AcDbEntity
  8
LAY-1
  6
EXLTYPE3
 62
     1
100
AcDbLine
 10
1587.6
 20
1049.5
 30
0.0
 11
1587.6
 21
1025.0
 31
0.0
  0
LINE
  5
B6
100
AcDbEntity
  8
LAY-1
  6
EXLTYPE3
 62
     1
100
AcDbLine
 10
1257.6
 20
2065.0
 30
0.0
 11
1257.6
 21
985.0
 31
0.0
  0
LINE
  5
B7
100
AcDbEntity
  8
LAY-1
  6
CONTINUOUS
 62
     2
100
AcDbLine
 10
963.6
 20
2015.0
 30
0.0
 11
963.6
 21
1715.0
 31
0.0
  0
LINE
  5
B8
100
AcDbEntity
  8
LAY-1
  6
CONTINUOUS
 62
     2
100
AcDbLine
 10
1551.6
 20
2015.0
 30
0.0
 11
1551.6
 21
1715.0
 31
0.0
  0
LINE
  5
B9
100
AcDbEntity
  8
LAY-1
  6
CONTINUOUS
 62
     2
100
AcDbLine
 10
963.6
 20
1715.0
 30
0.0
 11
1551.6
 21
1715.0
 31
0.0
  0
LINE
  5
BA
100
AcDbEntity
  8
LAY-1
  6
CONTINUOUS
 62
     2
100
AcDbLine
 10
967.6
 20
1715.0
 30
0.0
 11
967.6
 21
1093.0
 31
0.0
  0
LINE
  5
BB
100
AcDbEntity
  8
LAY-1
  6
CONTINUOUS
 62
     2
100
AcDbLine
 10
1547.6
 20
1715.0
 30
0.0
 11
1547.6
 21
1093.0
 31
0.0
  0
LINE
  5
BC
100
AcDbEntity
  8
LAY-1
  6
CONTINUOUS
 62
     2
100
AcDbLine
 10
907.6
 20
1035.0
 30
0.0
 11
1607.6
 21
1035.0
 31
0.0
  0
LINE
  5
BD
100
AcDbEntity
  8
LAY-1
  6
CONTINUOUS
 62
     2
100
AcDbLine
 10
907.6
 20
1039.5
 30
0.0
 11
907.6
 21
1035.0
 31
0.0
  0
LINE
  5
BE
100
AcDbEntity
  8
LAY-1
  6
CONTINUOUS
 62
     2
100
AcDbLine
 10
1607.6
 20
1039.5
 30
0.0
 11
1607.6
 21
1035.0
 31
0.0
  0
LINE
  5
BF
100
AcDbEntity
  8
LAY-1
  6
CONTINUOUS
 62
     2
100
AcDbLine
 10
907.6
 20
1039.5
 30
0.0
 11
1607.6
 21
1039.5
 31
0.0
  0
LINE
  5
C0
100
AcDbEntity
  8
LAY-1
  6
CONTINUOUS
 62
     2
100
AcDbLine
 10
997.6
 20
1093.0
 30
0.0
 11
997.6
 21
1039.5
 31
0.0
  0
LINE
  5
C1
100
AcDbEntity
  8
LAY-1
  6
CONTINUOUS
 62
     2
100
AcDbLine
 10
987.857013
 20
2032.178734
 30
0.0
 11
989.6
 21
2030.0
 31
0.0
  0
LINE
  5
C2
100
AcDbEntity
  8
LAY-1
  6
CONTINUOUS
 62
     2
100
AcDbLine
 10
989.6
 20
2030.0
 30
0.0
 11
991.6
 21
2015.0
 31
0.0
  0
LINE
  5
C3
100
AcDbEntity
  8
LAY-1
  6
CONTINUOUS
 62
     2
100
AcDbLine
 10
975.342987
 20
2032.178734
 30
0.0
 11
973.6
 21
2030.0
 31
0.0
  0
LINE
  5
C4
100
AcDbEntity
  8
LAY-1
  6
CONTINUOUS
 62
     2
100
AcDbLine
 10
973.6
 20
2030.0
 30
0.0
 11
971.6
 21
2015.0
 31
0.0
  0
LINE
  5
C5
100
AcDbEntity
  8
LAY-1
  6
CONTINUOUS
 62
     2
100
AcDbLine
 10
989.6
 20
2030.0
 30
0.0
 11
973.6
 21
2030.0
 31
0.0
  0
ARC
  5
C6
100
AcDbEntity
  8
LAY-1
  6
CONTINUOUS
 62
     2
100
AcDbCircle
 10
981.6
 20
2043.0
 30
0.0
 40
20.5
100
AcDbArc
 50
295.233094
 51
244.766906
  0
ARC
  5
C7
100
AcDbEntity
  8
LAY-1
  6
CONTINUOUS
 62
     2
100
AcDbCircle
 10
981.6
 20
2043.0
 30
0.0
 40
12.5
100
AcDbArc
 50
300.037123
 51
239.962877
  0
LINE
  5
C8
100
AcDbEntity
  8
LAY-1
  6
CONTINUOUS
 62
     2
100
AcDbLine
 10
975.342987
 20
2032.178734
 30
0.0
 11
987.857013
 21
2032.178734
 31
0.0
  0
LINE
  5
C9
100
AcDbEntity
  8
LAY-1
  6
CONTINUOUS
 62
     2
100
AcDbLine
 10
1527.342987
 20
2032.178734
 30
0.0
 11
1525.6
 21
2030.0
 31
0.0
  0
LINE
  5
CA
100
AcDbEntity
  8
LAY-1
  6
CONTINUOUS
 62
     2
100
AcDbLine
 10
1525.6
 20
2030.0
 30
0.0
 11
1523.6
 21
2015.0
 31
0.0
  0
LINE
  5
CB
100
AcDbEntity
  8
LAY-1
  6
CONTINUOUS
 62
     2
100
AcDbLine
 10
1539.857013
 20
2032.178734
 30
0.0
 11
1541.6
 21
2030.0
 31
0.0
  0
LINE
  5
CC
100
AcDbEntity
  8
LAY-1
  6
CONTINUOUS
 62
     2
100
AcDbLine
 10
1541.6
 20
2030.0
 30
0.0
 11
1543.6
 21
2015.0
 31
0.0
  0
LINE
  5
CD
100
AcDbEntity
  8
LAY-1
  6
CONTINUOUS
 62
     2
100
AcDbLine
 10
1525.6
 20
2030.0
 30
0.0
 11
1541.6
 21
2030.0
 31
0.0
  0
ARC
  5
CE
100
AcDbEntity
  8
LAY-1
  6
CONTINUOUS
 62
     2
100
AcDbCircle
 10
1533.6
 20
2043.0
 30
0.0
 40
20.5
100
AcDbArc
 50
295.233094
 51
244.766906
  0
ARC
  5
CF
100
AcDbEntity
  8
LAY-1
  6
CONTINUOUS
 62
     2
100
AcDbCircle
 10
1533.6
 20
2043.0
 30
0.0
 40
12.5
100
AcDbArc
 50
300.037123
 51
239.962877
  0
LINE
  5
D0
100
AcDbEntity
  8
LAY-1
  6
CONTINUOUS
 62
     2
100
AcDbLine
 10
1539.857013
 20
2032.178734
 30
0.0
 11
1527.342987
 21
2032.178734
 31
0.0
  0
LINE
  5
D1
100
AcDbEntity
  8
LAY-1
  6
CONTINUOUS
 62
     2
100
AcDbLine
 10
998.6
 20
2016.6
 30
0.0
 11
998.6
 21
2015.0
 31
0.0
  0
LINE
  5
D2
100
AcDbEntity
  8
LAY-1
  6
CONTINUOUS
 62
     2
100
AcDbLine
 10
1138.6
 20
2016.6
 30
0.0
 11
1138.6
 21
2015.0
 31
0.0
  0
LINE
  5
D3
100
AcDbEntity
  8
LAY-1
  6
CONTINUOUS
 62
     2
100
AcDbLine
 10
998.6
 20
2016.6
 30
0.0
 11
1138.6
 21
2016.6
 31
0.0
  0
LINE
  5
D4
100
AcDbEntity
  8
LAY-1
  6
CONTINUOUS
 62
     2
100
AcDbLine
 10
1055.234971
 20
2031.6
 30
0.0
 11
1055.234971
 21
2018.2
 31
0.0
  0
LINE
  5
D5
100
AcDbEntity
  8
LAY-1
  6
CONTINUOUS
 62
     2
100
AcDbLine
 10
1043.6
 20
2018.2
 30
0.0
 11
1043.6
 21
2016.6
 31
0.0
  0
LINE
  5
D6
100
AcDbEntity
  8
LAY-1
  6
CONTINUOUS
 62
     2
100
AcDbLine
 10
1083.6
 20
2031.6
 30
0.0
 11
1083.6
 21
2018.2
 31
0.0
  0
LINE
  5
D7
100
AcDbEntity
  8
LAY-1
  6
CONTINUOUS
 62
     2
100
AcDbLine
 10
1093.6
 20
2018.2
 30
0.0
 11
1093.6
 21
2016.6
 31
0.0
  0
LINE
  5
D8
100
AcDbEntity
  8
LAY-1
  6
CONTINUOUS
 62
     2
100
AcDbLine
 10
1043.6
 20
2018.2
 30
0.0
 11
1055.234971
 21
2018.2
 31
0.0
  0
LINE
  5
D9
100
AcDbEntity
  8
LAY-1
  6
CONTINUOUS
 62
     2
100
AcDbLine
 10
1055.234971
 20
2031.6
 30
0.0
 11
1083.6
 21
2031.6
 31
0.0
  0
LINE
  5
DA
100
AcDbEntity
  8
LAY-1
  6
CONTINUOUS
 62
     2
100
AcDbLine
 10
1056.834971
 20
2030.0
 30
0.0
 11
1082.0
 21
2030.0
 31
0.0
  0
LINE
  5
DB
100
AcDbEntity
  8
LAY-1
  6
CONTINUOUS
 62
     2
100
AcDbLine
 10
1056.834971
 20
2030.0
 30
0.0
 11
1056.834971
 21
2016.6
 31
0.0
  0
LINE
  5
DC
100
AcDbEntity
  8
LAY-1
  6
CONTINUOUS
 62
     2
100
AcDbLine
 10
1082.0
 20
2030.0
 30
0.0
 11
1082.0
 21
2016.6
 31
0.0
  0
LINE
  5
DD
100
AcDbEntity
  8
LAY-1
  6
CONTINUOUS
 62
     2
100
AcDbLine
 10
1083.6
 20
2018.2
 30
0.0
 11
1093.6
 21
2018.2
 31
0.0
  0
LINE
  5
DE
100
AcDbEntity
  8
LAY-1
  6
CONTINUOUS
 62
     2
100
AcDbLine
 10
1568.6
 20
1768.0
 30
0.0
 11
1568.6
 21
1822.0
 31
0.0
  0
LINE
  5
DF
100
AcDbEntity
  8
LAY-1
  6
CONTINUOUS
 62
     2
100
AcDbLine
 10
1578.6
 20
1769.054089
 30
0.0
 11
1578.6
 21
1820.945911
 31
0.0
  0
LINE
  5
E0
100
AcDbEntity
  8
LAY-1
  6
CONTINUOUS
 62
     2
100
AcDbLine
 10
1558.6
 20
1782.0
 30
0.0
 11
1558.6
 21
1808.0
 31
0.0
  0
ARC
  5
E1
100
AcDbEntity
  8
LAY-1
  6
CONTINUOUS
 62
     2
100
AcDbCircle
 10
1557.7875
 20
1786.25
 30
0.0
 40
7.8125
100
AcDbArc
 50
339.390307
 51
20.609693
  0
LINE
  5
E2
100
AcDbEntity
  8
LAY-1
  6
CONTINUOUS
 62
     2
100
AcDbLine
 10
1559.6
 20
1783.5
 30
0.0
 11
1559.6
 21
1806.5
 31
0.0
  0
ARC
  5
E3
100
AcDbEntity
  8
LAY-1
  6
CONTINUOUS
 62
     2
100
AcDbCircle
 10
1569.1
 20
1768.0
 30
0.0
 40
0.5
100
AcDbArc
 50
180.0
 51
270.0
  0
ARC
  5
E4
100
AcDbEntity
  8
LAY-1
  6
CONTINUOUS
 62
     2
100
AcDbCircle
 10
1577.045911
 20
1769.054089
 30
0.0
 40
1.554089
100
AcDbArc
 50
270.0
 51
0.0
  0
ARC
  5
E5
100
AcDbEntity
  8
LAY-1
  6
CONTINUOUS
 62
     2
100
AcDbCircle
 10
1576.741326
 20
1776.65347
 30
0.0
 40
1.858674
100
AcDbArc
 50
270.0
 51
90.0
  0
LINE
  5
E6
100
AcDbEntity
  8
LAY-1
  6
CONTINUOUS
 62
     2
100
AcDbLine
 10
1578.6
 20
1769.054089
 30
0.0
 11
1568.6
 21
1769.054089
 31
0.0
  0
LINE
  5
E7
100
AcDbEntity
  8
LAY-1
  6
CONTINUOUS
 62
     2
100
AcDbLine
 10
1576.741326
 20
1774.794796
 30
0.0
 11
1568.6
 21
1774.794796
 31
0.0
  0
LINE
  5
E8
100
AcDbEntity
  8
LAY-1
  6
CONTINUOUS
 62
     2
100
AcDbLine
 10
1576.741326
 20
1778.512145
 30
0.0
 11
1568.6
 21
1778.512145
 31
0.0
  0
LINE
  5
E9
100
AcDbEntity
  8
LAY-1
  6
CONTINUOUS
 62
     2
100
AcDbLine
 10
1577.045911
 20
1767.5
 30
0.0
 11
1569.1
 21
1767.5
 31
0.0
  0
LINE
  5
EA
100
AcDbEntity
  8
LAY-1
  6
CONTINUOUS
 62
     2
100
AcDbLine
 10
1558.6
 20
1782.0
 30
0.0
 11
1551.6
 21
1782.0
 31
0.0
  0
LINE
  5
EB
100
AcDbEntity
  8
LAY-1
  6
CONTINUOUS
 62
     2
100
AcDbLine
 10
1565.1
 20
1783.5
 30
0.0
 11
1559.6
 21
1783.5
 31
0.0
  0
ARC
  5
EC
100
AcDbEntity
  8
LAY-1
  6
CONTINUOUS
 62
     2
100
AcDbCircle
 10
1569.1
 20
1822.0
 30
0.0
 40
0.5
100
AcDbArc
 50
90.0
 51
180.0
  0
ARC
  5
ED
100
AcDbEntity
  8
LAY-1
  6
CONTINUOUS
 62
     2
100
AcDbCircle
 10
1576.741326
 20
1813.34653
 30
0.0
 40
1.858674
100
AcDbArc
 50
270.0
 51
90.0
  0
LINE
  5
EE
100
AcDbEntity
  8
LAY-1
  6
CONTINUOUS
 62
     2
100
AcDbLine
 10
1576.741326
 20
1815.205204
 30
0.0
 11
1568.6
 21
1815.205204
 31
0.0
  0
LINE
  5
EF
100
AcDbEntity
  8
LAY-1
  6
CONTINUOUS
 62
     2
100
AcDbLine
 10
1576.741326
 20
1811.487855
 30
0.0
 11
1568.6
 21
1811.487855
 31
0.0
  0
LINE
  5
F0
100
AcDbEntity
  8
LAY-1
  6
CONTINUOUS
 62
     2
100
AcDbLine
 10
1578.6
 20
1820.945911
 30
0.0
 11
1568.6
 21
1820.945911
 31
0.0
  0
ARC
  5
F1
100
AcDbEntity
  8
LAY-1
  6
CONTINUOUS
 62
     2
100
AcDbCircle
 10
1577.045911
 20
1820.945911
 30
0.0
 40
1.554089
100
AcDbArc
 50
0.0
 51
90.0
  0
LINE
  5
F2
100
AcDbEntity
  8
LAY-1
  6
CONTINUOUS
 62
     2
100
AcDbLine
 10
1577.045911
 20
1822.5
 30
0.0
 11
1569.1
 21
1822.5
 31
0.0
  0
ARC
  5
F3
100
AcDbEntity
  8
LAY-1
  6
CONTINUOUS
 62
     2
100
AcDbCircle
 10
1575.971438
 20
1795.0
 30
0.0
 40
2.628562
100
AcDbArc
 50
270.0
 51
90.0
  0
LINE
  5
F4
100
AcDbEntity
  8
LAY-1
  6
CONTINUOUS
 62
     2
100
AcDbLine
 10
1575.971438
 20
1797.628562
 30
0.0
 11
1568.6
 21
1797.628562
 31
0.0
  0
LINE
  5
F5
100
AcDbEntity
  8
LAY-1
  6
CONTINUOUS
 62
     2
100
AcDbLine
 10
1575.971438
 20
1792.371438
 30
0.0
 11
1568.6
 21
1792.371438
 31
0.0
  0
LINE
  5
F6
100
AcDbEntity
  8
LAY-1
  6
CONTINUOUS
 62
     2
100
AcDbLine
 10
1558.6
 20
1808.0
 30
0.0
 11
1551.6
 21
1808.0
 31
0.0
  0
LINE
  5
F7
100
AcDbEntity
  8
LAY-1
  6
CONTINUOUS
 62
     2
100
AcDbLine
 10
1559.6
 20
1803.5
 30
0.0
 11
1558.6
 21
1803.5
 31
0.0
  0
LINE
  5
F8
100
AcDbEntity
  8
LAY-1
  6
CONTINUOUS
 62
     2
100
AcDbLine
 10
1559.6
 20
1786.5
 30
0.0
 11
1558.6
 21
1786.5
 31
0.0
  0
LINE
  5
F9
100
AcDbEntity
  8
LAY-1
  6
CONTINUOUS
 62
     2
100
AcDbLine
 10
1568.6
 20
1792.0
 30
0.0
 11
1565.6
 21
1792.0
 31
0.0
  0
LINE
  5
FA
100
AcDbEntity
  8
LAY-1
  6
CONTINUOUS
 62
     2
100
AcDbLine
 10
1568.6
 20
1798.0
 30
0.0
 11
1565.6
 21
1798.0
 31
0.0
  0
LINE
  5
FB
100
AcDbEntity
  8
LAY-1
  6
CONTINUOUS
 62
     2
100
AcDbLine
 10
1565.6
 20
1786.25
 30
0.0
 11
1565.6
 21
1803.75
 31
0.0
  0
LINE
  5
FC
100
AcDbEntity
  8
LAY-1
  6
CONTINUOUS
 62
     2
100
AcDbLine
 10
1565.1
 20
1806.5
 30
0.0
 11
1559.6
 21
1806.5
 31
0.0
  0
LINE
  5
FD
100
AcDbEntity
  8
LAY-1
  6
CONTINUOUS
 62
     2
100
AcDbLine
 10
1565.1
 20
1801.0
 30
0.0
 11
1559.6
 21
1801.0
 31
0.0
  0
LINE
  5
FE
100
AcDbEntity
  8
LAY-1
  6
CONTINUOUS
 62
     2
100
AcDbLine
 10
1565.1
 20
1789.0
 30
0.0
 11
1559.6
 21
1789.0
 31
0.0
  0
ARC
  5
FF
100
AcDbEntity
  8
LAY-1
  6
CONTINUOUS
 62
     2
100
AcDbCircle
 10
1557.7875
 20
1803.75
 30
0.0
 40
7.8125
100
AcDbArc
 50
339.390307
 51
20.609693
  0
ARC
  5
100
100
AcDbEntity
  8
LAY-1
  6
CONTINUOUS
 62
     2
100
AcDbCircle
 10
1529.35
 20
1795.0
 30
0.0
 40
36.25
100
AcDbArc
 50
350.472717
 51
9.527283
  0
ARC
  5
101
100
AcDbEntity
  8
LAY-1
  6
CONTINUOUS
 62
     2
100
AcDbCircle
 10
1580.6095
 20
1772.392286
 30
0.0
 40
3.896364
100
AcDbArc
 50
132.232219
 51
238.953252
  0
ARC
  5
102
100
AcDbEntity
  8
LAY-1
  6
CONTINUOUS
 62
     2
100
AcDbCircle
 10
1591.034565
 20
1785.716326
 30
0.0
 40
15.065629
100
AcDbArc
 50
148.353731
 51
212.377391
  0
ARC
  5
103
100
AcDbEntity
  8
LAY-1
  6
CONTINUOUS
 62
     2
100
AcDbCircle
 10
1591.034565
 20
1804.283674
 30
0.0
 40
15.065629
100
AcDbArc
 50
147.622609
 51
211.646269
  0
ARC
  5
104
100
AcDbEntity
  8
LAY-1
  6
CONTINUOUS
 62
     2
100
AcDbCircle
 10
1580.6095
 20
1817.607714
 30
0.0
 40
3.896364
100
AcDbArc
 50
121.046748
 51
227.767781
  0
LINE
  5
105
100
AcDbEntity
  8
LAY-1
  6
CONTINUOUS
 62
     2
100
AcDbLine
 10
1413.45
 20
2295.921447
 30
0.0
 11
1413.45
 21
2260.921447
 31
0.0
  0
LINE
  5
106
100
AcDbEntity
  8
LAY-1
  6
CONTINUOUS
 62
     2
100
AcDbLine
 10
1381.75
 20
2295.921447
 30
0.0
 11
1381.75
 21
2260.921447
 31
0.0
  0
LINE
  5
107
100
AcDbEntity
  8
LAY-1
  6
CONTINUOUS
 62
     2
100
AcDbLine
 10
1413.45
 20
2295.921447
 30
0.0
 11
1381.75
 21
2295.921447
 31
0.0
  0
LINE
  5
108
100
AcDbEntity
  8
LAY-1
  6
CONTINUOUS
 62
     2
100
AcDbLine
 10
1413.45
 20
2260.921447
 30
0.0
 11
1381.75
 21
2260.921447
 31
0.0
  0
LINE
  5
109
100
AcDbEntity
  8
LAY-1
  6
CONTINUOUS
 62
     2
100
AcDbLine
 10
1517.6
 20
1093.0
 30
0.0
 11
1517.6
 21
1039.5
 31
0.0
  0
CIRCLE
  5
10A
100
AcDbEntity
  8
LAY-1
  6
CONTINUOUS
 62
     2
100
AcDbCircle
 10
1068.6
 20
1900.0
 30
0.0
 40
50.0
  0
LINE
  5
10B
100
AcDbEntity
  8
LAY-1
  6
EXLTYPE3
 62
     1
100
AcDbLine
 10
5399.5
 20
1049.5
 30
0.0
 11
5399.5
 21
1025.0
 31
0.0
  0
LINE
  5
10C
100
AcDbEntity
  8
LAY-1
  6
EXLTYPE3
 62
     1
100
AcDbLine
 10
4999.5
 20
1049.5
 30
0.0
 11
4999.5
 21
1025.0
 31
0.0
  0
LINE
  5
10D
100
AcDbEntity
  8
LAY-1
  6
EXLTYPE3
 62
     1
100
AcDbLine
 10
5199.5
 20
2083.5
 30
0.0
 11
5199.5
 21
985.0
 31
0.0
  0
LINE
  5
10E
100
AcDbEntity
  8
LAY-1
  6
CONTINUOUS
 62
     1
100
AcDbLine
 10
5537.35
 20
1923.62
 30
0.0
 11
5537.35
 21
1915.12
 31
0.0
  0
LINE
  5
10F
100
AcDbEntity
  8
LAY-1
  6
CONTINUOUS
 62
     1
100
AcDbLine
 10
5551.65
 20
1923.62
 30
0.0
 11
5551.65
 21
1915.12
 31
0.0
  0
LINE
  5
110
100
AcDbEntity
  8
LAY-1
  6
CONTINUOUS
 62
     1
100
AcDbLine
 10
5553.15
 20
1925.62
 30
0.0
 11
5551.65
 21
1923.62
 31
0.0
  0
LINE
  5
111
100
AcDbEntity
  8
LAY-1
  6
CONTINUOUS
 62
     1
100
AcDbLine
 10
5535.85
 20
1925.62
 30
0.0
 11
5537.35
 21
1923.62
 31
0.0
  0
LINE
  5
112
100
AcDbEntity
  8
LAY-1
  6
EXLTYPE3
 62
     1
100
AcDbLine
 10
2636.0
 20
1049.5
 30
0.0
 11
2636.0
 21
1025.0
 31
0.0
  0
LINE
  5
113
100
AcDbEntity
  8
LAY-1
  6
EXLTYPE3
 62
     1
100
AcDbLine
 10
3036.0
 20
1049.5
 30
0.0
 11
3036.0
 21
1025.0
 31
0.0
  0
LINE
  5
114
100
AcDbEntity
  8
LAY-1
  6
EXLTYPE3
 62
     1
100
AcDbLine
 10
2836.0
 20
2083.5
 30
0.0
 11
2836.0
 21
985.0
 31
0.0
  0
LINE
  5
115
100
AcDbEntity
  8
LAY-1
  6
CONTINUOUS
 62
     1
100
AcDbLine
 10
2498.15
 20
1923.62
 30
0.0
 11
2498.15
 21
1919.453105
 31
0.0
  0
LINE
  5
116
100
AcDbEntity
  8
LAY-1
  6
CONTINUOUS
 62
     1
100
AcDbLine
 10
2499.65
 20
1925.62
 30
0.0
 11
2498.15
 21
1923.62
 31
0.0
  0
LINE
  5
117
100
AcDbEntity
  8
LAY-1
  6
CONTINUOUS
 62
     1
100
AcDbLine
 10
2483.85
 20
1923.62
 30
0.0
 11
2483.85
 21
1919.453105
 31
0.0
  0
LINE
  5
118
100
AcDbEntity
  8
LAY-1
  6
CONTINUOUS
 62
     1
100
AcDbLine
 10
2482.35
 20
1925.62
 30
0.0
 11
2483.85
 21
1923.62
 31
0.0
  0
CIRCLE
  5
119
100
AcDbEntity
  8
LAY-1
  6
CONTINUOUS
 62
     2
100
AcDbCircle
 10
4398.0
 20
3085.5
 30
0.0
 40
7.5
  0
LINE
  5
11A
100
AcDbEntity
  8
LAY-1
  6
CONTINUOUS
 62
     2
100
AcDbLine
 10
4342.0
 20
2986.5
 30
0.0
 11
3794.0
 21
2986.5
 31
0.0
  0
LINE
  5
11B
100
AcDbEntity
  8
LAY-1
  6
CONTINUOUS
 62
     2
100
AcDbLine
 10
3774.0
 20
3281.791901
 30
0.0
 11
3774.0
 21
3006.5
 31
0.0
  0
LINE
  5
11C
100
AcDbEntity
  8
LAY-1
  6
CONTINUOUS
 62
     2
100
AcDbLine
 10
4362.0
 20
3281.791901
 30
0.0
 11
4362.0
 21
3006.5
 31
0.0
  0
LINE
  5
11D
100
AcDbEntity
  8
LAY-1
  6
CONTINUOUS
 62
     2
100
AcDbLine
 10
4232.0
 20
3488.5
 30
0.0
 11
4232.0
 21
3470.5
 31
0.0
  0
LINE
  5
11E
100
AcDbEntity
  8
LAY-1
  6
CONTINUOUS
 62
     2
100
AcDbLine
 10
4282.0
 20
3488.5
 30
0.0
 11
4282.0
 21
3470.5
 31
0.0
  0
LINE
  5
11F
100
AcDbEntity
  8
LAY-1
  6
CONTINUOUS
 62
     2
100
AcDbLine
 10
4242.0
 20
3488.5
 30
0.0
 11
4242.0
 21
3470.5
 31
0.0
  0
LINE
  5
120
100
AcDbEntity
  8
LAY-1
  6
CONTINUOUS
 62
     2
100
AcDbLine
 10
4272.0
 20
3488.5
 30
0.0
 11
4272.0
 21
3470.5
 31
0.0
  0
LINE
  5
121
100
AcDbEntity
  8
LAY-1
  6
CONTINUOUS
 62
     2
100
AcDbLine
 10
4282.0
 20
3488.5
 30
0.0
 11
4232.0
 21
3488.5
 31
0.0
  0
LINE
  5
122
100
AcDbEntity
  8
LAY-1
  6
CONTINUOUS
 62
     2
100
AcDbLine
 10
4282.0
 20
3470.5
 30
0.0
 11
4232.0
 21
3470.5
 31
0.0
  0
CIRCLE
  5
123
100
AcDbEntity
  8
LAY-1
  6
CONTINUOUS
 62
     2
100
AcDbCircle
 10
4257.0
 20
3479.5
 30
0.0
 40
70.0
  0
ARC
  5
124
100
AcDbEntity
  8
LAY-1
  6
CONTINUOUS
 62
     2
100
AcDbCircle
 10
3792.0
 20
3285.5
 30
0.0
 40
10.0
100
AcDbArc
 50
203.578178
 51
336.421822
  0
ARC
  5
125
100
AcDbEntity
  8
LAY-1
  6
CONTINUOUS
 62
     2
100
AcDbCircle
 10
3792.0
 20
3285.5
 30
0.0
 40
10.0
100
AcDbArc
 50
23.578178
 51
156.421822
  0
ARC
  5
126
100
AcDbEntity
  8
LAY-1
  6
CONTINUOUS
 62
     2
100
AcDbCircle
 10
3808.5
 20
3285.5
 30
0.0
 40
4.0
100
AcDbArc
 50
270.0
 51
90.0
  0
ARC
  5
127
100
AcDbEntity
  8
LAY-1
  6
CONTINUOUS
 62
     2
100
AcDbCircle
 10
3775.5
 20
3285.5
 30
0.0
 40
4.0
100
AcDbArc
 50
90.0
 51
270.0
  0
LINE
  5
128
100
AcDbEntity
  8
LAY-1
  6
CONTINUOUS
 62
     2
100
AcDbLine
 10
3775.5
 20
3281.5
 30
0.0
 11
3808.5
 21
3281.5
 31
0.0
  0
LINE
  5
129
100
AcDbEntity
  8
LAY-1
  6
CONTINUOUS
 62
     2
100
AcDbLine
 10
3775.5
 20
3289.5
 30
0.0
 11
3808.5
 21
3289.5
 31
0.0
  0
ARC
  5
12A
100
AcDbEntity
  8
LAY-1
  6
CONTINUOUS
 62
     2
100
AcDbCircle
 10
4344.0
 20
3285.5
 30
0.0
 40
10.0
100
AcDbArc
 50
203.578178
 51
336.421822
  0
ARC
  5
12B
100
AcDbEntity
  8
LAY-1
  6
CONTINUOUS
 62
     2
100
AcDbCircle
 10
4344.0
 20
3285.5
 30
0.0
 40
10.0
100
AcDbArc
 50
23.578178
 51
156.421822
  0
ARC
  5
12C
100
AcDbEntity
  8
LAY-1
  6
CONTINUOUS
 62
     2
100
AcDbCircle
 10
4327.5
 20
3285.5
 30
0.0
 40
4.0
100
AcDbArc
 50
90.0
 51
270.0
  0
ARC
  5
12D
100
AcDbEntity
  8
LAY-1
  6
CONTINUOUS
 62
     2
100
AcDbCircle
 10
4360.5
 20
3285.5
 30
0.0
 40
4.0
100
AcDbArc
 50
270.0
 51
90.0
  0
LINE
  5
12E
100
AcDbEntity
  8
LAY-1
  6
CONTINUOUS
 62
     2
100
AcDbLine
 10
4360.5
 20
3289.5
 30
0.0
 11
4327.5
 21
3289.5
 31
0.0
  0
LINE
  5
12F
100
AcDbEntity
  8
LAY-1
  6
CONTINUOUS
 62
     2
100
AcDbLine
 10
4360.5
 20
3281.5
 30
0.0
 11
4327.5
 21
3281.5
 31
0.0
  0
ARC
  5
130
100
AcDbEntity
  8
LAY-1
  6
CONTINUOUS
 62
     2
100
AcDbCircle
 10
4342.0
 20
3006.5
 30
0.0
 40
20.0
100
AcDbArc
 50
270.0
 51
0.0
  0
LINE
  5
131
100
AcDbEntity
  8
LAY-1
  6
CONTINUOUS
 62
     2
100
AcDbLine
 10
4322.0
 20
2986.5
 30
0.0
 11
3814.0
 21
2986.5
 31
0.0
  0
LINE
  5
132
100
AcDbEntity
  8
LAY-1
  6
CONTINUOUS
 62
     2
100
AcDbLine
 10
3774.0
 20
3564.5
 30
0.0
 11
3774.0
 21
3289.208099
 31
0.0
  0
LINE
  5
133
100
AcDbEntity
  8
LAY-1
  6
CONTINUOUS
 62
     2
100
AcDbLine
 10
4362.0
 20
3564.5
 30
0.0
 11
4362.0
 21
3289.208099
 31
0.0
  0
CIRCLE
  5
134
100
AcDbEntity
  8
LAY-1
  6
CONTINUOUS
 62
     2
100
AcDbCircle
 10
4398.0
 20
3485.5
 30
0.0
 40
7.5
  0
ARC
  5
135
100
AcDbEntity
  8
LAY-1
  6
CONTINUOUS
 62
     2
100
AcDbCircle
 10
4398.0
 20
3000.5
 30
0.0
 40
20.0
100
AcDbArc
 50
270.0
 51
0.0
  0
LINE
  5
136
100
AcDbEntity
  8
LAY-1
  6
CONTINUOUS
 62
     2
100
AcDbLine
 10
4418.0
 20
3570.5
 30
0.0
 11
4418.0
 21
3000.5
 31
0.0
  0
LINE
  5
137
100
AcDbEntity
  8
LAY-1
  6
CONTINUOUS
 62
     2
100
AcDbLine
 10
4398.0
 20
2980.5
 30
0.0
 11
4078.5
 21
2980.5
 31
0.0
  0
ARC
  5
138
100
AcDbEntity
  8
LAY-1
  6
CONTINUOUS
 62
     2
100
AcDbCircle
 10
4068.0
 20
3161.5
 30
0.0
 40
197.0
100
AcDbArc
 50
261.828766
 51
278.171234
  0
LINE
  5
139
100
AcDbEntity
  8
LAY-1
  6
CONTINUOUS
 62
     2
100
AcDbLine
 10
4038.0
 20
2976.5
 30
0.0
 11
4038.0
 21
2966.5
 31
0.0
  0
LINE
  5
13A
100
AcDbEntity
  8
LAY-1
  6
CONTINUOUS
 62
     2
100
AcDbLine
 10
4098.0
 20
2976.5
 30
0.0
 11
4098.0
 21
2966.5
 31
0.0
  0
LINE
  5
13B
100
AcDbEntity
  8
LAY-1
  6
CONTINUOUS
 62
     2
100
AcDbLine
 10
4098.0
 20
2966.5
 30
0.0
 11
4038.0
 21
2966.5
 31
0.0
  0
LINE
  5
13C
100
AcDbEntity
  8
LAY-1
  6
CONTINUOUS
 62
     2
100
AcDbLine
 10
4098.0
 20
2976.5
 30
0.0
 11
4038.0
 21
2976.5
 31
0.0
  0
LINE
  5
13D
100
AcDbEntity
  8
LAY-1
  6
CONTINUOUS
 62
     2
100
AcDbLine
 10
4046.5
 20
2978.5
 30
0.0
 11
4046.5
 21
2976.5
 31
0.0
  0
LINE
  5
13E
100
AcDbEntity
  8
LAY-1
  6
CONTINUOUS
 62
     2
100
AcDbLine
 10
4089.5
 20
2978.5
 30
0.0
 11
4089.5
 21
2976.5
 31
0.0
  0
LINE
  5
13F
100
AcDbEntity
  8
LAY-1
  6
CONTINUOUS
 62
     2
100
AcDbLine
 10
4078.5
 20
2981.5
 30
0.0
 11
4078.5
 21
2978.5
 31
0.0
  0
LINE
  5
140
100
AcDbEntity
  8
LAY-1
  6
CONTINUOUS
 62
     2
100
AcDbLine
 10
4057.5
 20
2981.5
 30
0.0
 11
4057.5
 21
2978.5
 31
0.0
  0
LINE
  5
141
100
AcDbEntity
  8
LAY-1
  6
CONTINUOUS
 62
     2
100
AcDbLine
 10
4089.5
 20
2978.5
 30
0.0
 11
4046.5
 21
2978.5
 31
0.0
  0
LINE
  5
142
100
AcDbEntity
  8
LAY-1
  6
CONTINUOUS
 62
     2
100
AcDbLine
 10
4061.0
 20
2986.5
 30
0.0
 11
4061.0
 21
2982.5
 31
0.0
  0
LINE
  5
143
100
AcDbEntity
  8
LAY-1
  6
CONTINUOUS
 62
     2
100
AcDbLine
 10
4075.0
 20
2986.5
 30
0.0
 11
4075.0
 21
2982.5
 31
0.0
  0
ARC
  5
144
100
AcDbEntity
  8
LAY-1
  6
CONTINUOUS
 62
     2
100
AcDbCircle
 10
4068.0
 20
3006.5
 30
0.0
 40
25.0
100
AcDbArc
 50
253.739795
 51
286.260205
  0
ARC
  5
145
100
AcDbEntity
  8
LAY-1
  6
CONTINUOUS
 62
     2
100
AcDbCircle
 10
4057.5
 20
2988.125
 30
0.0
 40
6.625
100
AcDbArc
 50
238.109208
 51
301.890792
  0
ARC
  5
146
100
AcDbEntity
  8
LAY-1
  6
CONTINUOUS
 62
     2
100
AcDbCircle
 10
4078.5
 20
2988.125
 30
0.0
 40
6.625
100
AcDbArc
 50
238.109208
 51
301.890792
  0
LINE
  5
147
100
AcDbEntity
  8
LAY-1
  6
CONTINUOUS
 62
     2
100
AcDbLine
 10
4054.0
 20
2986.5
 30
0.0
 11
4054.0
 21
2982.5
 31
0.0
  0
LINE
  5
148
100
AcDbEntity
  8
LAY-1
  6
CONTINUOUS
 62
     2
100
AcDbLine
 10
4082.0
 20
2986.5
 30
0.0
 11
4082.0
 21
2982.5
 31
0.0
  0
LINE
  5
149
100
AcDbEntity
  8
LAY-1
  6
CONTINUOUS
 62
     2
100
AcDbLine
 10
4078.5
 20
2981.5
 30
0.0
 11
4057.5
 21
2981.5
 31
0.0
  0
ARC
  5
14A
100
AcDbEntity
  8
LAY-1
  6
CONTINUOUS
 62
     2
100
AcDbCircle
 10
3744.9905
 20
3188.107714
 30
0.0
 40
3.896364
100
AcDbArc
 50
312.232219
 51
58.953252
  0
ARC
  5
14B
100
AcDbEntity
  8
LAY-1
  6
CONTINUOUS
 62
     2
100
AcDbCircle
 10
3734.565435
 20
3174.783674
 30
0.0
 40
15.065629
100
AcDbArc
 50
328.353731
 51
32.377391
  0
ARC
  5
14C
100
AcDbEntity
  8
LAY-1
  6
CONTINUOUS
 62
     2
100
AcDbCircle
 10
3734.565435
 20
3156.216326
 30
0.0
 40
15.065629
100
AcDbArc
 50
327.622609
 51
31.646269
  0
ARC
  5
14D
100
AcDbEntity
  8
LAY-1
  6
CONTINUOUS
 62
     2
100
AcDbCircle
 10
3744.9905
 20
3142.892286
 30
0.0
 40
3.896364
100
AcDbArc
 50
301.046748
 51
47.767781
  0
ARC
  5
14E
100
AcDbEntity
  8
LAY-1
  6
CONTINUOUS
 62
     2
100
AcDbCircle
 10
3796.25
 20
3165.5
 30
0.0
 40
36.25
100
AcDbArc
 50
170.472717
 51
189.527283
  0
ARC
  5
14F
100
AcDbEntity
  8
LAY-1
  6
CONTINUOUS
 62
     2
100
AcDbCircle
 10
3767.8125
 20
3174.25
 30
0.0
 40
7.8125
100
AcDbArc
 50
159.390307
 51
200.609693
  0
LINE
  5
150
100
AcDbEntity
  8
LAY-1
  6
CONTINUOUS
 62
     2
100
AcDbLine
 10
3760.5
 20
3159.5
 30
0.0
 11
3766.0
 21
3159.5
 31
0.0
  0
LINE
  5
151
100
AcDbEntity
  8
LAY-1
  6
CONTINUOUS
 62
     2
100
AcDbLine
 10
3760.5
 20
3171.5
 30
0.0
 11
3766.0
 21
3171.5
 31
0.0
  0
LINE
  5
152
100
AcDbEntity
  8
LAY-1
  6
CONTINUOUS
 62
     2
100
AcDbLine
 10
3760.5
 20
3177.0
 30
0.0
 11
3766.0
 21
3177.0
 31
0.0
  0
LINE
  5
153
100
AcDbEntity
  8
LAY-1
  6
CONTINUOUS
 62
     2
100
AcDbLine
 10
3760.0
 20
3156.75
 30
0.0
 11
3760.0
 21
3174.25
 31
0.0
  0
LINE
  5
154
100
AcDbEntity
  8
LAY-1
  6
CONTINUOUS
 62
     2
100
AcDbLine
 10
3757.0
 20
3168.5
 30
0.0
 11
3760.0
 21
3168.5
 31
0.0
  0
LINE
  5
155
100
AcDbEntity
  8
LAY-1
  6
CONTINUOUS
 62
     2
100
AcDbLine
 10
3757.0
 20
3162.5
 30
0.0
 11
3760.0
 21
3162.5
 31
0.0
  0
LINE
  5
156
100
AcDbEntity
  8
LAY-1
  6
CONTINUOUS
 62
     2
100
AcDbLine
 10
3766.0
 20
3157.0
 30
0.0
 11
3767.0
 21
3157.0
 31
0.0
  0
LINE
  5
157
100
AcDbEntity
  8
LAY-1
  6
CONTINUOUS
 62
     2
100
AcDbLine
 10
3766.0
 20
3174.0
 30
0.0
 11
3767.0
 21
3174.0
 31
0.0
  0
LINE
  5
158
100
AcDbEntity
  8
LAY-1
  6
CONTINUOUS
 62
     2
100
AcDbLine
 10
3767.0
 20
3178.5
 30
0.0
 11
3774.0
 21
3178.5
 31
0.0
  0
LINE
  5
159
100
AcDbEntity
  8
LAY-1
  6
CONTINUOUS
 62
     2
100
AcDbLine
 10
3749.628562
 20
3162.871438
 30
0.0
 11
3757.0
 21
3162.871438
 31
0.0
  0
LINE
  5
15A
100
AcDbEntity
  8
LAY-1
  6
CONTINUOUS
 62
     2
100
AcDbLine
 10
3749.628562
 20
3168.128562
 30
0.0
 11
3757.0
 21
3168.128562
 31
0.0
  0
ARC
  5
15B
100
AcDbEntity
  8
LAY-1
  6
CONTINUOUS
 62
     2
100
AcDbCircle
 10
3749.628562
 20
3165.5
 30
0.0
 40
2.628562
100
AcDbArc
 50
90.0
 51
270.0
  0
LINE
  5
15C
100
AcDbEntity
  8
LAY-1
  6
CONTINUOUS
 62
     2
100
AcDbLine
 10
3748.554089
 20
3193.0
 30
0.0
 11
3756.5
 21
3193.0
 31
0.0
  0
ARC
  5
15D
100
AcDbEntity
  8
LAY-1
  6
CONTINUOUS
 62
     2
100
AcDbCircle
 10
3748.554089
 20
3191.445911
 30
0.0
 40
1.554089
100
AcDbArc
 50
90.0
 51
180.0
  0
LINE
  5
15E
100
AcDbEntity
  8
LAY-1
  6
CONTINUOUS
 62
     2
100
AcDbLine
 10
3747.0
 20
3191.445911
 30
0.0
 11
3757.0
 21
3191.445911
 31
0.0
  0
LINE
  5
15F
100
AcDbEntity
  8
LAY-1
  6
CONTINUOUS
 62
     2
100
AcDbLine
 10
3748.858674
 20
3181.987855
 30
0.0
 11
3757.0
 21
3181.987855
 31
0.0
  0
LINE
  5
160
100
AcDbEntity
  8
LAY-1
  6
CONTINUOUS
 62
     2
100
AcDbLine
 10
3748.858674
 20
3185.705204
 30
0.0
 11
3757.0
 21
3185.705204
 31
0.0
  0
ARC
  5
161
100
AcDbEntity
  8
LAY-1
  6
CONTINUOUS
 62
     2
100
AcDbCircle
 10
3748.858674
 20
3183.84653
 30
0.0
 40
1.858674
100
AcDbArc
 50
90.0
 51
270.0
  0
ARC
  5
162
100
AcDbEntity
  8
LAY-1
  6
CONTINUOUS
 62
     2
100
AcDbCircle
 10
3756.5
 20
3192.5
 30
0.0
 40
0.5
100
AcDbArc
 50
0.0
 51
90.0
  0
LINE
  5
163
100
AcDbEntity
  8
LAY-1
  6
CONTINUOUS
 62
     2
100
AcDbLine
 10
3760.5
 20
3154.0
 30
0.0
 11
3766.0
 21
3154.0
 31
0.0
  0
LINE
  5
164
100
AcDbEntity
  8
LAY-1
  6
CONTINUOUS
 62
     2
100
AcDbLine
 10
3767.0
 20
3152.5
 30
0.0
 11
3774.0
 21
3152.5
 31
0.0
  0
LINE
  5
165
100
AcDbEntity
  8
LAY-1
  6
CONTINUOUS
 62
     2
100
AcDbLine
 10
3748.554089
 20
3138.0
 30
0.0
 11
3756.5
 21
3138.0
 31
0.0
  0
LINE
  5
166
100
AcDbEntity
  8
LAY-1
  6
CONTINUOUS
 62
     2
100
AcDbLine
 10
3748.858674
 20
3149.012145
 30
0.0
 11
3757.0
 21
3149.012145
 31
0.0
  0
LINE
  5
167
100
AcDbEntity
  8
LAY-1
  6
CONTINUOUS
 62
     2
100
AcDbLine
 10
3748.858674
 20
3145.294796
 30
0.0
 11
3757.0
 21
3145.294796
 31
0.0
  0
LINE
  5
168
100
AcDbEntity
  8
LAY-1
  6
CONTINUOUS
 62
     2
100
AcDbLine
 10
3747.0
 20
3139.554089
 30
0.0
 11
3757.0
 21
3139.554089
 31
0.0
  0
ARC
  5
169
100
AcDbEntity
  8
LAY-1
  6
CONTINUOUS
 62
     2
100
AcDbCircle
 10
3748.858674
 20
3147.15347
 30
0.0
 40
1.858674
100
AcDbArc
 50
90.0
 51
270.0
  0
ARC
  5
16A
100
AcDbEntity
  8
LAY-1
  6
CONTINUOUS
 62
     2
100
AcDbCircle
 10
3748.554089
 20
3139.554089
 30
0.0
 40
1.554089
100
AcDbArc
 50
180.0
 51
270.0
  0
ARC
  5
16B
100
AcDbEntity
  8
LAY-1
  6
CONTINUOUS
 62
     2
100
AcDbCircle
 10
3756.5
 20
3138.5
 30
0.0
 40
0.5
100
AcDbArc
 50
270.0
 51
0.0
  0
LINE
  5
16C
100
AcDbEntity
  8
LAY-1
  6
CONTINUOUS
 62
     2
100
AcDbLine
 10
3766.0
 20
3154.0
 30
0.0
 11
3766.0
 21
3177.0
 31
0.0
  0
ARC
  5
16D
100
AcDbEntity
  8
LAY-1
  6
CONTINUOUS
 62
     2
100
AcDbCircle
 10
3767.8125
 20
3156.75
 30
0.0
 40
7.8125
100
AcDbArc
 50
159.390307
 51
200.609693
  0
LINE
  5
16E
100
AcDbEntity
  8
LAY-1
  6
CONTINUOUS
 62
     2
100
AcDbLine
 10
3767.0
 20
3152.5
 30
0.0
 11
3767.0
 21
3178.5
 31
0.0
  0
LINE
  5
16F
100
AcDbEntity
  8
LAY-1
  6
CONTINUOUS
 62
     2
100
AcDbLine
 10
3747.0
 20
3139.554089
 30
0.0
 11
3747.0
 21
3191.445911
 31
0.0
  0
LINE
  5
170
100
AcDbEntity
  8
LAY-1
  6
CONTINUOUS
 62
     2
100
AcDbLine
 10
3757.0
 20
3138.5
 30
0.0
 11
3757.0
 21
3192.5
 31
0.0
  0
CIRCLE
  5
171
100
AcDbEntity
  8
LAY-1
  6
CONTINUOUS
 62
     2
100
AcDbCircle
 10
3738.0
 20
3085.5
 30
0.0
 40
7.5
  0
LINE
  5
172
100
AcDbEntity
  8
LAY-1
  6
CONTINUOUS
 62
     2
100
AcDbLine
 10
4057.5
 20
2980.5
 30
0.0
 11
3738.0
 21
2980.5
 31
0.0
  0
ARC
  5
173
100
AcDbEntity
  8
LAY-1
  6
CONTINUOUS
 62
     2
100
AcDbCircle
 10
3794.0
 20
3006.5
 30
0.0
 40
20.0
100
AcDbArc
 50
180.0
 51
270.0
  0
ARC
  5
174
100
AcDbEntity
  8
LAY-1
  6
CONTINUOUS
 62
     2
100
AcDbCircle
 10
3738.0
 20
3000.5
 30
0.0
 40
20.0
100
AcDbArc
 50
180.0
 51
270.0
  0
LINE
  5
175
100
AcDbEntity
  8
LAY-1
  6
CONTINUOUS
 62
     2
100
AcDbLine
 10
3864.5
 20
3626.882686
 30
0.0
 11
3864.5
 21
3621.0
 31
0.0
  0
ARC
  5
176
100
AcDbEntity
  8
LAY-1
  6
CONTINUOUS
 62
     2
100
AcDbCircle
 10
3825.9905
 20
3607.892286
 30
0.0
 40
3.896364
100
AcDbArc
 50
301.046748
 51
47.767781
  0
ARC
  5
177
100
AcDbEntity
  8
LAY-1
  6
CONTINUOUS
 62
     2
100
AcDbCircle
 10
3815.565435
 20
3621.216326
 30
0.0
 40
15.065629
100
AcDbArc
 50
327.622609
 51
31.646269
  0
ARC
  5
178
100
AcDbEntity
  8
LAY-1
  6
CONTINUOUS
 62
     2
100
AcDbCircle
 10
3815.565435
 20
3639.783674
 30
0.0
 40
15.065629
100
AcDbArc
 50
328.353731
 51
32.377391
  0
ARC
  5
179
100
AcDbEntity
  8
LAY-1
  6
CONTINUOUS
 62
     2
100
AcDbCircle
 10
3825.9905
 20
3653.107714
 30
0.0
 40
3.896364
100
AcDbArc
 50
312.232219
 51
58.953252
  0
LINE
  5
17A
100
AcDbEntity
  8
LAY-1
  6
CONTINUOUS
 62
     2
100
AcDbLine
 10
3864.5
 20
3640.0
 30
0.0
 11
3867.89637
 21
3640.0
 31
0.0
  0
LINE
  5
17B
100
AcDbEntity
  8
LAY-1
  6
CONTINUOUS
 62
     2
100
AcDbLine
 10
3864.5
 20
3621.0
 30
0.0
 11
3867.89637
 21
3621.0
 31
0.0
  0
ARC
  5
17C
100
AcDbEntity
  8
LAY-1
  6
CONTINUOUS
 62
     2
100
AcDbCircle
 10
3877.25
 20
3630.5
 30
0.0
 40
36.25
100
AcDbArc
 50
170.472717
 51
189.527283
  0
ARC
  5
17D
100
AcDbEntity
  8
LAY-1
  6
CONTINUOUS
 62
     2
100
AcDbCircle
 10
3848.8125
 20
3621.75
 30
0.0
 40
7.8125
100
AcDbArc
 50
159.390307
 51
200.609693
  0
LINE
  5
17E
100
AcDbEntity
  8
LAY-1
  6
CONTINUOUS
 62
     2
100
AcDbLine
 10
3841.5
 20
3636.5
 30
0.0
 11
3847.0
 21
3636.5
 31
0.0
  0
LINE
  5
17F
100
AcDbEntity
  8
LAY-1
  6
CONTINUOUS
 62
     2
100
AcDbLine
 10
3841.5
 20
3624.5
 30
0.0
 11
3847.0
 21
3624.5
 31
0.0
  0
LINE
  5
180
100
AcDbEntity
  8
LAY-1
  6
CONTINUOUS
 62
     2
100
AcDbLine
 10
3841.5
 20
3619.0
 30
0.0
 11
3847.0
 21
3619.0
 31
0.0
  0
LINE
  5
181
100
AcDbEntity
  8
LAY-1
  6
CONTINUOUS
 62
     2
100
AcDbLine
 10
3841.0
 20
3639.25
 30
0.0
 11
3841.0
 21
3621.75
 31
0.0
  0
LINE
  5
182
100
AcDbEntity
  8
LAY-1
  6
CONTINUOUS
 62
     2
100
AcDbLine
 10
3838.0
 20
3627.5
 30
0.0
 11
3841.0
 21
3627.5
 31
0.0
  0
LINE
  5
183
100
AcDbEntity
  8
LAY-1
  6
CONTINUOUS
 62
     2
100
AcDbLine
 10
3838.0
 20
3633.5
 30
0.0
 11
3841.0
 21
3633.5
 31
0.0
  0
LINE
  5
184
100
AcDbEntity
  8
LAY-1
  6
CONTINUOUS
 62
     2
100
AcDbLine
 10
3847.0
 20
3639.0
 30
0.0
 11
3848.0
 21
3639.0
 31
0.0
  0
LINE
  5
185
100
AcDbEntity
  8
LAY-1
  6
CONTINUOUS
 62
     2
100
AcDbLine
 10
3847.0
 20
3622.0
 30
0.0
 11
3848.0
 21
3622.0
 31
0.0
  0
LINE
  5
186
100
AcDbEntity
  8
LAY-1
  6
CONTINUOUS
 62
     2
100
AcDbLine
 10
3848.0
 20
3617.5
 30
0.0
 11
3862.0
 21
3617.5
 31
0.0
  0
LINE
  5
187
100
AcDbEntity
  8
LAY-1
  6
CONTINUOUS
 62
     2
100
AcDbLine
 10
3864.5
 20
3640.0
 30
0.0
 11
3864.5
 21
3634.117314
 31
0.0
  0
LINE
  5
188
100
AcDbEntity
  8
LAY-1
  6
CONTINUOUS
 62
     2
100
AcDbLine
 10
3862.0
 20
3617.5
 30
0.0
 11
3864.5
 21
3621.0
 31
0.0
  0
LINE
  5
189
100
AcDbEntity
  8
LAY-1
  6
CONTINUOUS
 62
     2
100
AcDbLine
 10
3830.628562
 20
3633.128562
 30
0.0
 11
3838.0
 21
3633.128562
 31
0.0
  0
LINE
  5
18A
100
AcDbEntity
  8
LAY-1
  6
CONTINUOUS
 62
     2
100
AcDbLine
 10
3830.628562
 20
3627.871438
 30
0.0
 11
3838.0
 21
3627.871438
 31
0.0
  0
ARC
  5
18B
100
AcDbEntity
  8
LAY-1
  6
CONTINUOUS
 62
     2
100
AcDbCircle
 10
3830.628562
 20
3630.5
 30
0.0
 40
2.628562
100
AcDbArc
 50
90.0
 51
270.0
  0
LINE
  5
18C
100
AcDbEntity
  8
LAY-1
  6
CONTINUOUS
 62
     2
100
AcDbLine
 10
3829.554089
 20
3603.0
 30
0.0
 11
3837.5
 21
3603.0
 31
0.0
  0
ARC
  5
18D
100
AcDbEntity
  8
LAY-1
  6
CONTINUOUS
 62
     2
100
AcDbCircle
 10
3829.554089
 20
3604.554089
 30
0.0
 40
1.554089
100
AcDbArc
 50
180.0
 51
270.0
  0
LINE
  5
18E
100
AcDbEntity
  8
LAY-1
  6
CONTINUOUS
 62
     2
100
AcDbLine
 10
3828.0
 20
3604.554089
 30
0.0
 11
3838.0
 21
3604.554089
 31
0.0
  0
LINE
  5
18F
100
AcDbEntity
  8
LAY-1
  6
CONTINUOUS
 62
     2
100
AcDbLine
 10
3829.858674
 20
3614.012145
 30
0.0
 11
3838.0
 21
3614.012145
 31
0.0
  0
LINE
  5
190
100
AcDbEntity
  8
LAY-1
  6
CONTINUOUS
 62
     2
100
AcDbLine
 10
3829.858674
 20
3610.294796
 30
0.0
 11
3838.0
 21
3610.294796
 31
0.0
  0
ARC
  5
191
100
AcDbEntity
  8
LAY-1
  6
CONTINUOUS
 62
     2
100
AcDbCircle
 10
3829.858674
 20
3612.15347
 30
0.0
 40
1.858674
100
AcDbArc
 50
90.0
 51
270.0
  0
ARC
  5
192
100
AcDbEntity
  8
LAY-1
  6
CONTINUOUS
 62
     2
100
AcDbCircle
 10
3837.5
 20
3603.5
 30
0.0
 40
0.5
100
AcDbArc
 50
270.0
 51
0.0
  0
LINE
  5
193
100
AcDbEntity
  8
LAY-1
  6
CONTINUOUS
 62
     2
100
AcDbLine
 10
3841.5
 20
3642.0
 30
0.0
 11
3847.0
 21
3642.0
 31
0.0
  0
LINE
  5
194
100
AcDbEntity
  8
LAY-1
  6
CONTINUOUS
 62
     2
100
AcDbLine
 10
3848.0
 20
3643.5
 30
0.0
 11
3862.0
 21
3643.5
 31
0.0
  0
LINE
  5
195
100
AcDbEntity
  8
LAY-1
  6
CONTINUOUS
 62
     2
100
AcDbLine
 10
3829.554089
 20
3658.0
 30
0.0
 11
3837.5
 21
3658.0
 31
0.0
  0
LINE
  5
196
100
AcDbEntity
  8
LAY-1
  6
CONTINUOUS
 62
     2
100
AcDbLine
 10
3829.858674
 20
3646.987855
 30
0.0
 11
3838.0
 21
3646.987855
 31
0.0
  0
LINE
  5
197
100
AcDbEntity
  8
LAY-1
  6
CONTINUOUS
 62
     2
100
AcDbLine
 10
3829.858674
 20
3650.705204
 30
0.0
 11
3838.0
 21
3650.705204
 31
0.0
  0
LINE
  5
198
100
AcDbEntity
  8
LAY-1
  6
CONTINUOUS
 62
     2
100
AcDbLine
 10
3828.0
 20
3656.445911
 30
0.0
 11
3838.0
 21
3656.445911
 31
0.0
  0
ARC
  5
199
100
AcDbEntity
  8
LAY-1
  6
CONTINUOUS
 62
     2
100
AcDbCircle
 10
3829.858674
 20
3648.84653
 30
0.0
 40
1.858674
100
AcDbArc
 50
90.0
 51
270.0
  0
ARC
  5
19A
100
AcDbEntity
  8
LAY-1
  6
CONTINUOUS
 62
     2
100
AcDbCircle
 10
3829.554089
 20
3656.445911
 30
0.0
 40
1.554089
100
AcDbArc
 50
90.0
 51
180.0
  0
ARC
  5
19B
100
AcDbEntity
  8
LAY-1
  6
CONTINUOUS
 62
     2
100
AcDbCircle
 10
3837.5
 20
3657.5
 30
0.0
 40
0.5
100
AcDbArc
 50
0.0
 51
90.0
  0
LINE
  5
19C
100
AcDbEntity
  8
LAY-1
  6
CONTINUOUS
 62
     2
100
AcDbLine
 10
3847.0
 20
3642.0
 30
0.0
 11
3847.0
 21
3619.0
 31
0.0
  0
ARC
  5
19D
100
AcDbEntity
  8
LAY-1
  6
CONTINUOUS
 62
     2
100
AcDbCircle
 10
3848.8125
 20
3639.25
 30
0.0
 40
7.8125
100
AcDbArc
 50
159.390307
 51
200.609693
  0
LINE
  5
19E
100
AcDbEntity
  8
LAY-1
  6
CONTINUOUS
 62
     2
100
AcDbLine
 10
3848.0
 20
3643.5
 30
0.0
 11
3848.0
 21
3617.5
 31
0.0
  0
LINE
  5
19F
100
AcDbEntity
  8
LAY-1
  6
CONTINUOUS
 62
     2
100
AcDbLine
 10
3862.0
 20
3643.5
 30
0.0
 11
3862.0
 21
3617.5
 31
0.0
  0
LINE
  5
1A0
100
AcDbEntity
  8
LAY-1
  6
CONTINUOUS
 62
     2
100
AcDbLine
 10
3862.0
 20
3643.5
 30
0.0
 11
3864.5
 21
3640.0
 31
0.0
  0
LINE
  5
1A1
100
AcDbEntity
  8
LAY-1
  6
CONTINUOUS
 62
     2
100
AcDbLine
 10
3828.0
 20
3656.445911
 30
0.0
 11
3828.0
 21
3604.554089
 31
0.0
  0
LINE
  5
1A2
100
AcDbEntity
  8
LAY-1
  6
CONTINUOUS
 62
     2
100
AcDbLine
 10
3838.0
 20
3657.5
 30
0.0
 11
3838.0
 21
3603.5
 31
0.0
  0
CIRCLE
  5
1A3
100
AcDbEntity
  8
LAY-1
  6
CONTINUOUS
 62
     2
100
AcDbCircle
 10
3878.0
 20
3630.5
 30
0.0
 40
11.0
  0
POLYLINE
  5
1A4
100
AcDbEntity
  8
LAY-1
  6
CONTINUOUS
 62
     2
100
AcDb2dPolyline
 66
     1
 10
0.0
 20
0.0
 30
0.0
 70
   128
  0
VERTEX
  5
1A5
100
AcDbEntity
  8
LAY-1
  6
CONTINUOUS
 62
     2
100
AcDbVertex
100
AcDb2dVertex
 10
3870.205771
 20
3644.0
 30
0.0
  0
VERTEX
  5
1A6
100
AcDbEntity
  8
LAY-1
  6
CONTINUOUS
 62
     2
100
AcDbVertex
100
AcDb2dVertex
 10
3862.411543
 20
3630.5
 30
0.0
  0
VERTEX
  5
1A7
100
AcDbEntity
  8
LAY-1
  6
CONTINUOUS
 62
     2
100
AcDbVertex
100
AcDb2dVertex
 10
3870.205771
 20
3617.0
 30
0.0
  0
VERTEX
  5
1A8
100
AcDbEntity
  8
LAY-1
  6
CONTINUOUS
 62
     2
100
AcDbVertex
100
AcDb2dVertex
 10
3885.794229
 20
3617.0
 30
0.0
  0
VERTEX
  5
1A9
100
AcDbEntity
  8
LAY-1
  6
CONTINUOUS
 62
     2
100
AcDbVertex
100
AcDb2dVertex
 10
3893.588457
 20
3630.5
 30
0.0
  0
VERTEX
  5
1AA
100
AcDbEntity
  8
LAY-1
  6
CONTINUOUS
 62
     2
100
AcDbVertex
100
AcDb2dVertex
 10
3885.794229
 20
3644.0
 30
0.0
  0
VERTEX
  5
1AB
100
AcDbEntity
  8
LAY-1
  6
CONTINUOUS
 62
     2
100
AcDbVertex
100
AcDb2dVertex
 10
3870.205771
 20
3644.0
 30
0.0
  0
SEQEND
  5
1AC
100
AcDbEntity
  8
LAY-1
  6
CONTINUOUS
 62
     2
  0
CIRCLE
  5
1AD
100
AcDbEntity
  8
LAY-1
  6
CONTINUOUS
 62
     2
100
AcDbCircle
 10
3878.0
 20
3630.5
 30
0.0
 40
13.5
  0
LINE
  5
1AE
100
AcDbEntity
  8
LAY-1
  6
CONTINUOUS
 62
     2
100
AcDbLine
 10
3940.5
 20
3719.5
 30
0.0
 11
3940.5
 21
3704.5
 31
0.0
  0
LINE
  5
1AF
100
AcDbEntity
  8
LAY-1
  6
CONTINUOUS
 62
     2
100
AcDbLine
 10
3815.5
 20
3719.5
 30
0.0
 11
3815.5
 21
3704.5
 31
0.0
  0
LINE
  5
1B0
100
AcDbEntity
  8
LAY-1
  6
CONTINUOUS
 62
     2
100
AcDbLine
 10
3911.5
 20
3720.5
 30
0.0
 11
3911.5
 21
3719.5
 31
0.0
  0
LINE
  5
1B1
100
AcDbEntity
  8
LAY-1
  6
CONTINUOUS
 62
     2
100
AcDbLine
 10
3844.5
 20
3720.5
 30
0.0
 11
3844.5
 21
3719.5
 31
0.0
  0
LINE
  5
1B2
100
AcDbEntity
  8
LAY-1
  6
CONTINUOUS
 62
     2
100
AcDbLine
 10
3940.5
 20
3719.5
 30
0.0
 11
3815.5
 21
3719.5
 31
0.0
  0
LINE
  5
1B3
100
AcDbEntity
  8
LAY-1
  6
CONTINUOUS
 62
     2
100
AcDbLine
 10
3940.5
 20
3704.5
 30
0.0
 11
3815.5
 21
3704.5
 31
0.0
  0
LINE
  5
1B4
100
AcDbEntity
  8
LAY-1
  6
CONTINUOUS
 62
     2
100
AcDbLine
 10
4208.0
 20
3719.5
 30
0.0
 11
4308.0
 21
3719.5
 31
0.0
  0
LINE
  5
1B5
100
AcDbEntity
  8
LAY-1
  6
CONTINUOUS
 62
     2
100
AcDbLine
 10
4208.0
 20
3704.5
 30
0.0
 11
4308.0
 21
3704.5
 31
0.0
  0
LINE
  5
1B6
100
AcDbEntity
  8
LAY-1
  6
CONTINUOUS
 62
     2
100
AcDbLine
 10
4230.0
 20
3720.5
 30
0.0
 11
4286.0
 21
3720.5
 31
0.0
  0
LINE
  5
1B7
100
AcDbEntity
  8
LAY-1
  6
CONTINUOUS
 62
     2
100
AcDbLine
 10
4208.0
 20
3719.5
 30
0.0
 11
4208.0
 21
3704.5
 31
0.0
  0
LINE
  5
1B8
100
AcDbEntity
  8
LAY-1
  6
CONTINUOUS
 62
     2
100
AcDbLine
 10
4308.0
 20
3719.5
 30
0.0
 11
4308.0
 21
3704.5
 31
0.0
  0
LINE
  5
1B9
100
AcDbEntity
  8
LAY-1
  6
CONTINUOUS
 62
     2
100
AcDbLine
 10
4230.0
 20
3720.5
 30
0.0
 11
4230.0
 21
3719.5
 31
0.0
  0
LINE
  5
1BA
100
AcDbEntity
  8
LAY-1
  6
CONTINUOUS
 62
     2
100
AcDbLine
 10
4286.0
 20
3720.5
 30
0.0
 11
4286.0
 21
3719.5
 31
0.0
  0
LINE
  5
1BB
100
AcDbEntity
  8
LAY-1
  6
CONTINUOUS
 62
     2
100
AcDbLine
 10
3861.0
 20
3617.5
 30
0.0
 11
3861.0
 21
3584.5
 31
0.0
  0
LINE
  5
1BC
100
AcDbEntity
  8
LAY-1
  6
CONTINUOUS
 62
     2
100
AcDbLine
 10
3895.0
 20
3704.5
 30
0.0
 11
3895.0
 21
3584.5
 31
0.0
  0
LINE
  5
1BD
100
AcDbEntity
  8
LAY-1
  6
CONTINUOUS
 62
     2
100
AcDbLine
 10
3861.0
 20
3704.5
 30
0.0
 11
3861.0
 21
3643.5
 31
0.0
  0
LINE
  5
1BE
100
AcDbEntity
  8
LAY-1
  6
CONTINUOUS
 62
     2
100
AcDbLine
 10
4244.4
 20
3704.5
 30
0.0
 11
4244.4
 21
3584.5
 31
0.0
  0
LINE
  5
1BF
100
AcDbEntity
  8
LAY-1
  6
CONTINUOUS
 62
     2
100
AcDbLine
 10
4271.6
 20
3704.5
 30
0.0
 11
4271.6
 21
3584.5
 31
0.0
  0
LINE
  5
1C0
100
AcDbEntity
  8
LAY-1
  6
CONTINUOUS
 62
     2
100
AcDbLine
 10
4244.4
 20
3590.5
 30
0.0
 11
3895.0
 21
3590.5
 31
0.0
  0
LINE
  5
1C1
100
AcDbEntity
  8
LAY-1
  6
CONTINUOUS
 62
     2
100
AcDbLine
 10
3861.0
 20
3590.5
 30
0.0
 11
3738.0
 21
3590.5
 31
0.0
  0
ARC
  5
1C2
100
AcDbEntity
  8
LAY-1
  6
CONTINUOUS
 62
     2
100
AcDbCircle
 10
4342.0
 20
3564.5
 30
0.0
 40
20.0
100
AcDbArc
 50
0.0
 51
90.0
  0
LINE
  5
1C3
100
AcDbEntity
  8
LAY-1
  6
CONTINUOUS
 62
     2
100
AcDbLine
 10
4342.0
 20
3584.5
 30
0.0
 11
3794.0
 21
3584.5
 31
0.0
  0
ARC
  5
1C4
100
AcDbEntity
  8
LAY-1
  6
CONTINUOUS
 62
     2
100
AcDbCircle
 10
3738.0
 20
3570.5
 30
0.0
 40
20.0
100
AcDbArc
 50
90.0
 51
180.0
  0
ARC
  5
1C5
100
AcDbEntity
  8
LAY-1
  6
CONTINUOUS
 62
     2
100
AcDbCircle
 10
4398.0
 20
3570.5
 30
0.0
 40
20.0
100
AcDbArc
 50
0.0
 51
90.0
  0
LINE
  5
1C6
100
AcDbEntity
  8
LAY-1
  6
CONTINUOUS
 62
     2
100
AcDbLine
 10
4398.0
 20
3590.5
 30
0.0
 11
4271.6
 21
3590.5
 31
0.0
  0
LINE
  5
1C7
100
AcDbEntity
  8
LAY-1
  6
CONTINUOUS
 62
     2
100
AcDbLine
 10
3911.5
 20
3720.5
 30
0.0
 11
3844.5
 21
3720.5
 31
0.0
  0
CIRCLE
  5
1C8
100
AcDbEntity
  8
LAY-1
  6
CONTINUOUS
 62
     2
100
AcDbCircle
 10
3738.0
 20
3485.5
 30
0.0
 40
7.5
  0
ARC
  5
1C9
100
AcDbEntity
  8
LAY-1
  6
CONTINUOUS
 62
     2
100
AcDbCircle
 10
3794.0
 20
3564.5
 30
0.0
 40
20.0
100
AcDbArc
 50
90.0
 51
180.0
  0
LINE
  5
1CA
100
AcDbEntity
  8
LAY-1
  6
CONTINUOUS
 62
     2
100
AcDbLine
 10
3808.0
 20
1093.0
 30
0.0
 11
3808.0
 21
1039.5
 31
0.0
  0
LINE
  5
1CB
100
AcDbEntity
  8
LAY-1
  6
CONTINUOUS
 62
     2
100
AcDbLine
 10
3785.742987
 20
2032.178734
 30
0.0
 11
3798.257013
 21
2032.178734
 31
0.0
  0
ARC
  5
1CC
100
AcDbEntity
  8
LAY-1
  6
CONTINUOUS
 62
     2
100
AcDbCircle
 10
3792.0
 20
2043.0
 30
0.0
 40
12.5
100
AcDbArc
 50
300.037123
 51
239.962877
  0
ARC
  5
1CD
100
AcDbEntity
  8
LAY-1
  6
CONTINUOUS
 62
     2
100
AcDbCircle
 10
3792.0
 20
2043.0
 30
0.0
 40
20.5
100
AcDbArc
 50
295.233094
 51
244.766906
  0
LINE
  5
1CE
100
AcDbEntity
  8
LAY-1
  6
CONTINUOUS
 62
     2
100
AcDbLine
 10
3800.0
 20
2030.0
 30
0.0
 11
3784.0
 21
2030.0
 31
0.0
  0
LINE
  5
1CF
100
AcDbEntity
  8
LAY-1
  6
CONTINUOUS
 62
     2
100
AcDbLine
 10
3784.0
 20
2030.0
 30
0.0
 11
3782.0
 21
2015.0
 31
0.0
  0
LINE
  5
1D0
100
AcDbEntity
  8
LAY-1
  6
CONTINUOUS
 62
     2
100
AcDbLine
 10
3785.742987
 20
2032.178734
 30
0.0
 11
3784.0
 21
2030.0
 31
0.0
  0
LINE
  5
1D1
100
AcDbEntity
  8
LAY-1
  6
CONTINUOUS
 62
     2
100
AcDbLine
 10
3800.0
 20
2030.0
 30
0.0
 11
3802.0
 21
2015.0
 31
0.0
  0
LINE
  5
1D2
100
AcDbEntity
  8
LAY-1
  6
CONTINUOUS
 62
     2
100
AcDbLine
 10
3798.257013
 20
2032.178734
 30
0.0
 11
3800.0
 21
2030.0
 31
0.0
  0
LINE
  5
1D3
100
AcDbEntity
  8
LAY-1
  6
CONTINUOUS
 62
     2
100
AcDbLine
 10
4350.257013
 20
2032.178734
 30
0.0
 11
4337.742987
 21
2032.178734
 31
0.0
  0
ARC
  5
1D4
100
AcDbEntity
  8
LAY-1
  6
CONTINUOUS
 62
     2
100
AcDbCircle
 10
4344.0
 20
2043.0
 30
0.0
 40
12.5
100
AcDbArc
 50
300.037123
 51
239.962877
  0
ARC
  5
1D5
100
AcDbEntity
  8
LAY-1
  6
CONTINUOUS
 62
     2
100
AcDbCircle
 10
4344.0
 20
2043.0
 30
0.0
 40
20.5
100
AcDbArc
 50
295.233094
 51
244.766906
  0
LINE
  5
1D6
100
AcDbEntity
  8
LAY-1
  6
CONTINUOUS
 62
     2
100
AcDbLine
 10
4336.0
 20
2030.0
 30
0.0
 11
4352.0
 21
2030.0
 31
0.0
  0
LINE
  5
1D7
100
AcDbEntity
  8
LAY-1
  6
CONTINUOUS
 62
     2
100
AcDbLine
 10
4352.0
 20
2030.0
 30
0.0
 11
4354.0
 21
2015.0
 31
0.0
  0
LINE
  5
1D8
100
AcDbEntity
  8
LAY-1
  6
CONTINUOUS
 62
     2
100
AcDbLine
 10
4350.257013
 20
2032.178734
 30
0.0
 11
4352.0
 21
2030.0
 31
0.0
  0
LINE
  5
1D9
100
AcDbEntity
  8
LAY-1
  6
CONTINUOUS
 62
     2
100
AcDbLine
 10
4328.0
 20
1093.0
 30
0.0
 11
4328.0
 21
1039.5
 31
0.0
  0
LINE
  5
1DA
100
AcDbEntity
  8
LAY-1
  6
CONTINUOUS
 62
     2
100
AcDbLine
 10
4418.0
 20
1039.5
 30
0.0
 11
3718.0
 21
1039.5
 31
0.0
  0
LINE
  5
1DB
100
AcDbEntity
  8
LAY-1
  6
CONTINUOUS
 62
     2
100
AcDbLine
 10
3718.0
 20
1039.5
 30
0.0
 11
3718.0
 21
1035.0
 31
0.0
  0
LINE
  5
1DC
100
AcDbEntity
  8
LAY-1
  6
CONTINUOUS
 62
     2
100
AcDbLine
 10
4418.0
 20
1039.5
 30
0.0
 11
4418.0
 21
1035.0
 31
0.0
  0
LINE
  5
1DD
100
AcDbEntity
  8
LAY-1
  6
CONTINUOUS
 62
     2
100
AcDbLine
 10
4418.0
 20
1035.0
 30
0.0
 11
3718.0
 21
1035.0
 31
0.0
  0
LINE
  5
1DE
100
AcDbEntity
  8
LAY-1
  6
CONTINUOUS
 62
     2
100
AcDbLine
 10
3778.0
 20
1715.0
 30
0.0
 11
3778.0
 21
1093.0
 31
0.0
  0
LINE
  5
1DF
100
AcDbEntity
  8
LAY-1
  6
CONTINUOUS
 62
     2
100
AcDbLine
 10
4358.0
 20
1715.0
 30
0.0
 11
4358.0
 21
1093.0
 31
0.0
  0
LINE
  5
1E0
100
AcDbEntity
  8
LAY-1
  6
CONTINUOUS
 62
     2
100
AcDbLine
 10
4358.0
 20
1093.0
 30
0.0
 11
3778.0
 21
1093.0
 31
0.0
  0
LINE
  5
1E1
100
AcDbEntity
  8
LAY-1
  6
CONTINUOUS
 62
     2
100
AcDbLine
 10
3774.0
 20
2015.0
 30
0.0
 11
3774.0
 21
1715.0
 31
0.0
  0
LINE
  5
1E2
100
AcDbEntity
  8
LAY-1
  6
CONTINUOUS
 62
     2
100
AcDbLine
 10
4362.0
 20
2015.0
 30
0.0
 11
4362.0
 21
1715.0
 31
0.0
  0
LINE
  5
1E3
100
AcDbEntity
  8
LAY-1
  6
CONTINUOUS
 62
     2
100
AcDbLine
 10
4362.0
 20
2015.0
 30
0.0
 11
3774.0
 21
2015.0
 31
0.0
  0
CIRCLE
  5
1E4
100
AcDbEntity
  8
LAY-1
  6
CONTINUOUS
 62
     2
100
AcDbCircle
 10
4068.0
 20
1435.0
 30
0.0
 40
28.0
  0
CIRCLE
  5
1E5
100
AcDbEntity
  8
LAY-1
  6
CONTINUOUS
 62
     2
100
AcDbCircle
 10
4068.0
 20
1435.0
 30
0.0
 40
30.0
  0
ARC
  5
1E6
100
AcDbEntity
  8
LAY-1
  6
CONTINUOUS
 62
     2
100
AcDbCircle
 10
4068.0
 20
1435.0
 30
0.0
 40
2.5
100
AcDbArc
 50
248.578178
 51
21.421822
  0
LINE
  5
1E7
100
AcDbEntity
  8
LAY-1
  6
CONTINUOUS
 62
     2
100
AcDbLine
 10
4048.681483
 20
1429.823619
 30
0.0
 11
4044.81778
 21
1428.788343
 31
0.0
  0
LINE
  5
1E8
100
AcDbEntity
  8
LAY-1
  6
CONTINUOUS
 62
     2
100
AcDbLine
 10
4048.681483
 20
1440.176381
 30
0.0
 11
4044.81778
 21
1441.211657
 31
0.0
  0
LINE
  5
1E9
100
AcDbEntity
  8
LAY-1
  6
CONTINUOUS
 62
     2
100
AcDbLine
 10
4053.857864
 20
1449.142136
 30
0.0
 11
4051.029437
 21
1451.970563
 31
0.0
  0
LINE
  5
1EA
100
AcDbEntity
  8
LAY-1
  6
CONTINUOUS
 62
     2
100
AcDbLine
 10
4062.823619
 20
1454.318517
 30
0.0
 11
4061.788343
 21
1458.18222
 31
0.0
  0
LINE
  5
1EB
100
AcDbEntity
  8
LAY-1
  6
CONTINUOUS
 62
     2
100
AcDbLine
 10
4073.176381
 20
1454.318517
 30
0.0
 11
4074.211657
 21
1458.18222
 31
0.0
  0
LINE
  5
1EC
100
AcDbEntity
  8
LAY-1
  6
CONTINUOUS
 62
     2
100
AcDbLine
 10
4082.142136
 20
1449.142136
 30
0.0
 11
4084.970563
 21
1451.970563
 31
0.0
  0
LINE
  5
1ED
100
AcDbEntity
  8
LAY-1
  6
CONTINUOUS
 62
     2
100
AcDbLine
 10
4087.318517
 20
1440.176381
 30
0.0
 11
4091.18222
 21
1441.211657
 31
0.0
  0
LINE
  5
1EE
100
AcDbEntity
  8
LAY-1
  6
CONTINUOUS
 62
     2
100
AcDbLine
 10
4087.318517
 20
1429.823619
 30
0.0
 11
4091.18222
 21
1428.788343
 31
0.0
  0
ARC
  5
1EF
100
AcDbEntity
  8
LAY-1
  6
CONTINUOUS
 62
     2
100
AcDbCircle
 10
4068.0
 20
1435.0
 30
0.0
 40
20.0
100
AcDbArc
 50
315.0
 51
225.0
  0
LINE
  5
1F0
100
AcDbEntity
  8
LAY-1
  6
CONTINUOUS
 62
     2
100
AcDbLine
 10
4082.142136
 20
1420.857864
 30
0.0
 11
4084.970563
 21
1418.029437
 31
0.0
  0
ARC
  5
1F1
100
AcDbEntity
  8
LAY-1
  6
CONTINUOUS
 62
     2
100
AcDbCircle
 10
4068.0
 20
1435.0
 30
0.0
 40
24.0
100
AcDbArc
 50
315.0
 51
225.0
  0
LINE
  5
1F2
100
AcDbEntity
  8
LAY-1
  6
CONTINUOUS
 62
     2
100
AcDbLine
 10
4051.029437
 20
1418.029437
 30
0.0
 11
4067.086922
 21
1432.672708
 31
0.0
  0
LINE
  5
1F3
100
AcDbEntity
  8
LAY-1
  6
CONTINUOUS
 62
     2
100
AcDbLine
 10
4065.672708
 20
1434.086922
 30
0.0
 11
4051.029437
 21
1418.029437
 31
0.0
  0
LINE
  5
1F4
100
AcDbEntity
  8
LAY-1
  6
CONTINUOUS
 62
     2
100
AcDbLine
 10
4070.327292
 20
1435.913078
 30
0.0
 11
4078.591215
 21
1440.641468
 31
0.0
  0
LINE
  5
1F5
100
AcDbEntity
  8
LAY-1
  6
CONTINUOUS
 62
     2
100
AcDbLine
 10
4073.641468
 20
1445.591215
 30
0.0
 11
4068.913078
 21
1437.327292
 31
0.0
  0
ARC
  5
1F6
100
AcDbEntity
  8
LAY-1
  6
CONTINUOUS
 62
     2
100
AcDbCircle
 10
4068.0
 20
1435.0
 30
0.0
 40
12.0
100
AcDbArc
 50
28.042237
 51
61.957763
  0
ARC
  5
1F7
100
AcDbEntity
  8
LAY-1
  6
CONTINUOUS
 62
     2
100
AcDbCircle
 10
4068.0
 20
1435.0
 30
0.0
 40
2.5
100
AcDbArc
 50
68.578178
 51
201.421822
  0
ARC
  5
1F8
100
AcDbEntity
  8
LAY-1
  6
CONTINUOUS
 62
     2
100
AcDbCircle
 10
3744.9905
 20
1817.607714
 30
0.0
 40
3.896364
100
AcDbArc
 50
312.232219
 51
58.953252
  0
ARC
  5
1F9
100
AcDbEntity
  8
LAY-1
  6
CONTINUOUS
 62
     2
100
AcDbCircle
 10
3734.565435
 20
1804.283674
 30
0.0
 40
15.065629
100
AcDbArc
 50
328.353731
 51
32.377391
  0
ARC
  5
1FA
100
AcDbEntity
  8
LAY-1
  6
CONTINUOUS
 62
     2
100
AcDbCircle
 10
3734.565435
 20
1785.716326
 30
0.0
 40
15.065629
100
AcDbArc
 50
327.622609
 51
31.646269
  0
ARC
  5
1FB
100
AcDbEntity
  8
LAY-1
  6
CONTINUOUS
 62
     2
100
AcDbCircle
 10
3744.9905
 20
1772.392286
 30
0.0
 40
3.896364
100
AcDbArc
 50
301.046748
 51
47.767781
  0
ARC
  5
1FC
100
AcDbEntity
  8
LAY-1
  6
CONTINUOUS
 62
     2
100
AcDbCircle
 10
3796.25
 20
1795.0
 30
0.0
 40
36.25
100
AcDbArc
 50
170.472717
 51
189.527283
  0
ARC
  5
1FD
100
AcDbEntity
  8
LAY-1
  6
CONTINUOUS
 62
     2
100
AcDbCircle
 10
3767.8125
 20
1803.75
 30
0.0
 40
7.8125
100
AcDbArc
 50
159.390307
 51
200.609693
  0
LINE
  5
1FE
100
AcDbEntity
  8
LAY-1
  6
CONTINUOUS
 62
     2
100
AcDbLine
 10
3760.5
 20
1789.0
 30
0.0
 11
3766.0
 21
1789.0
 31
0.0
  0
LINE
  5
1FF
100
AcDbEntity
  8
LAY-1
  6
CONTINUOUS
 62
     2
100
AcDbLine
 10
3760.5
 20
1801.0
 30
0.0
 11
3766.0
 21
1801.0
 31
0.0
  0
LINE
  5
200
100
AcDbEntity
  8
LAY-1
  6
CONTINUOUS
 62
     2
100
AcDbLine
 10
3760.5
 20
1806.5
 30
0.0
 11
3766.0
 21
1806.5
 31
0.0
  0
LINE
  5
201
100
AcDbEntity
  8
LAY-1
  6
CONTINUOUS
 62
     2
100
AcDbLine
 10
3760.0
 20
1786.25
 30
0.0
 11
3760.0
 21
1803.75
 31
0.0
  0
LINE
  5
202
100
AcDbEntity
  8
LAY-1
  6
CONTINUOUS
 62
     2
100
AcDbLine
 10
3757.0
 20
1798.0
 30
0.0
 11
3760.0
 21
1798.0
 31
0.0
  0
LINE
  5
203
100
AcDbEntity
  8
LAY-1
  6
CONTINUOUS
 62
     2
100
AcDbLine
 10
3757.0
 20
1792.0
 30
0.0
 11
3760.0
 21
1792.0
 31
0.0
  0
LINE
  5
204
100
AcDbEntity
  8
LAY-1
  6
CONTINUOUS
 62
     2
100
AcDbLine
 10
3766.0
 20
1786.5
 30
0.0
 11
3767.0
 21
1786.5
 31
0.0
  0
LINE
  5
205
100
AcDbEntity
  8
LAY-1
  6
CONTINUOUS
 62
     2
100
AcDbLine
 10
3766.0
 20
1803.5
 30
0.0
 11
3767.0
 21
1803.5
 31
0.0
  0
LINE
  5
206
100
AcDbEntity
  8
LAY-1
  6
CONTINUOUS
 62
     2
100
AcDbLine
 10
3767.0
 20
1808.0
 30
0.0
 11
3774.0
 21
1808.0
 31
0.0
  0
LINE
  5
207
100
AcDbEntity
  8
LAY-1
  6
CONTINUOUS
 62
     2
100
AcDbLine
 10
3749.628562
 20
1792.371438
 30
0.0
 11
3757.0
 21
1792.371438
 31
0.0
  0
LINE
  5
208
100
AcDbEntity
  8
LAY-1
  6
CONTINUOUS
 62
     2
100
AcDbLine
 10
3749.628562
 20
1797.628562
 30
0.0
 11
3757.0
 21
1797.628562
 31
0.0
  0
ARC
  5
209
100
AcDbEntity
  8
LAY-1
  6
CONTINUOUS
 62
     2
100
AcDbCircle
 10
3749.628562
 20
1795.0
 30
0.0
 40
2.628562
100
AcDbArc
 50
90.0
 51
270.0
  0
LINE
  5
20A
100
AcDbEntity
  8
LAY-1
  6
CONTINUOUS
 62
     2
100
AcDbLine
 10
3748.554089
 20
1822.5
 30
0.0
 11
3756.5
 21
1822.5
 31
0.0
  0
ARC
  5
20B
100
AcDbEntity
  8
LAY-1
  6
CONTINUOUS
 62
     2
100
AcDbCircle
 10
3748.554089
 20
1820.945911
 30
0.0
 40
1.554089
100
AcDbArc
 50
90.0
 51
180.0
  0
LINE
  5
20C
100
AcDbEntity
  8
LAY-1
  6
CONTINUOUS
 62
     2
100
AcDbLine
 10
3747.0
 20
1820.945911
 30
0.0
 11
3757.0
 21
1820.945911
 31
0.0
  0
LINE
  5
20D
100
AcDbEntity
  8
LAY-1
  6
CONTINUOUS
 62
     2
100
AcDbLine
 10
3748.858674
 20
1811.487855
 30
0.0
 11
3757.0
 21
1811.487855
 31
0.0
  0
LINE
  5
20E
100
AcDbEntity
  8
LAY-1
  6
CONTINUOUS
 62
     2
100
AcDbLine
 10
3748.858674
 20
1815.205204
 30
0.0
 11
3757.0
 21
1815.205204
 31
0.0
  0
ARC
  5
20F
100
AcDbEntity
  8
LAY-1
  6
CONTINUOUS
 62
     2
100
AcDbCircle
 10
3748.858674
 20
1813.34653
 30
0.0
 40
1.858674
100
AcDbArc
 50
90.0
 51
270.0
  0
ARC
  5
210
100
AcDbEntity
  8
LAY-1
  6
CONTINUOUS
 62
     2
100
AcDbCircle
 10
3756.5
 20
1822.0
 30
0.0
 40
0.5
100
AcDbArc
 50
0.0
 51
90.0
  0
LINE
  5
211
100
AcDbEntity
  8
LAY-1
  6
CONTINUOUS
 62
     2
100
AcDbLine
 10
3760.5
 20
1783.5
 30
0.0
 11
3766.0
 21
1783.5
 31
0.0
  0
LINE
  5
212
100
AcDbEntity
  8
LAY-1
  6
CONTINUOUS
 62
     2
100
AcDbLine
 10
3767.0
 20
1782.0
 30
0.0
 11
3774.0
 21
1782.0
 31
0.0
  0
LINE
  5
213
100
AcDbEntity
  8
LAY-1
  6
CONTINUOUS
 62
     2
100
AcDbLine
 10
3748.554089
 20
1767.5
 30
0.0
 11
3756.5
 21
1767.5
 31
0.0
  0
LINE
  5
214
100
AcDbEntity
  8
LAY-1
  6
CONTINUOUS
 62
     2
100
AcDbLine
 10
3748.858674
 20
1778.512145
 30
0.0
 11
3757.0
 21
1778.512145
 31
0.0
  0
LINE
  5
215
100
AcDbEntity
  8
LAY-1
  6
CONTINUOUS
 62
     2
100
AcDbLine
 10
3748.858674
 20
1774.794796
 30
0.0
 11
3757.0
 21
1774.794796
 31
0.0
  0
LINE
  5
216
100
AcDbEntity
  8
LAY-1
  6
CONTINUOUS
 62
     2
100
AcDbLine
 10
3747.0
 20
1769.054089
 30
0.0
 11
3757.0
 21
1769.054089
 31
0.0
  0
ARC
  5
217
100
AcDbEntity
  8
LAY-1
  6
CONTINUOUS
 62
     2
100
AcDbCircle
 10
3748.858674
 20
1776.65347
 30
0.0
 40
1.858674
100
AcDbArc
 50
90.0
 51
270.0
  0
ARC
  5
218
100
AcDbEntity
  8
LAY-1
  6
CONTINUOUS
 62
     2
100
AcDbCircle
 10
3748.554089
 20
1769.054089
 30
0.0
 40
1.554089
100
AcDbArc
 50
180.0
 51
270.0
  0
ARC
  5
219
100
AcDbEntity
  8
LAY-1
  6
CONTINUOUS
 62
     2
100
AcDbCircle
 10
3756.5
 20
1768.0
 30
0.0
 40
0.5
100
AcDbArc
 50
270.0
 51
0.0
  0
LINE
  5
21A
100
AcDbEntity
  8
LAY-1
  6
CONTINUOUS
 62
     2
100
AcDbLine
 10
3766.0
 20
1783.5
 30
0.0
 11
3766.0
 21
1806.5
 31
0.0
  0
ARC
  5
21B
100
AcDbEntity
  8
LAY-1
  6
CONTINUOUS
 62
     2
100
AcDbCircle
 10
3767.8125
 20
1786.25
 30
0.0
 40
7.8125
100
AcDbArc
 50
159.390307
 51
200.609693
  0
LINE
  5
21C
100
AcDbEntity
  8
LAY-1
  6
CONTINUOUS
 62
     2
100
AcDbLine
 10
3767.0
 20
1782.0
 30
0.0
 11
3767.0
 21
1808.0
 31
0.0
  0
LINE
  5
21D
100
AcDbEntity
  8
LAY-1
  6
CONTINUOUS
 62
     2
100
AcDbLine
 10
3747.0
 20
1769.054089
 30
0.0
 11
3747.0
 21
1820.945911
 31
0.0
  0
LINE
  5
21E
100
AcDbEntity
  8
LAY-1
  6
CONTINUOUS
 62
     2
100
AcDbLine
 10
3757.0
 20
1768.0
 30
0.0
 11
3757.0
 21
1822.0
 31
0.0
  0
CIRCLE
  5
21F
100
AcDbEntity
  8
LAY-1
  6
CONTINUOUS
 62
     2
100
AcDbCircle
 10
3981.19392
 20
1803.75
 30
0.0
 40
1.5
  0
CIRCLE
  5
220
100
AcDbEntity
  8
LAY-1
  6
CONTINUOUS
 62
     2
100
AcDbCircle
 10
4054.80608
 20
1803.75
 30
0.0
 40
1.5
  0
CIRCLE
  5
221
100
AcDbEntity
  8
LAY-1
  6
CONTINUOUS
 62
     2
100
AcDbCircle
 10
4018.0
 20
1867.5
 30
0.0
 40
1.5
  0
CIRCLE
  5
222
100
AcDbEntity
  8
LAY-1
  6
CONTINUOUS
 62
     2
100
AcDbCircle
 10
4018.0
 20
1825.0
 30
0.0
 40
47.5
  0
CIRCLE
  5
223
100
AcDbEntity
  8
LAY-1
  6
CONTINUOUS
 62
     2
100
AcDbCircle
 10
4018.0
 20
1825.0
 30
0.0
 40
35.5
  0
CIRCLE
  5
224
100
AcDbEntity
  8
LAY-1
  6
CONTINUOUS
 62
     2
100
AcDbCircle
 10
4018.0
 20
1825.0
 30
0.0
 40
37.5
  0
CIRCLE
  5
225
100
AcDbEntity
  8
LAY-1
  6
CONTINUOUS
 62
     2
100
AcDbCircle
 10
4154.80608
 20
1803.75
 30
0.0
 40
1.5
  0
CIRCLE
  5
226
100
AcDbEntity
  8
LAY-1
  6
CONTINUOUS
 62
     2
100
AcDbCircle
 10
4081.19392
 20
1803.75
 30
0.0
 40
1.5
  0
CIRCLE
  5
227
100
AcDbEntity
  8
LAY-1
  6
CONTINUOUS
 62
     2
100
AcDbCircle
 10
4118.0
 20
1867.5
 30
0.0
 40
1.5
  0
CIRCLE
  5
228
100
AcDbEntity
  8
LAY-1
  6
CONTINUOUS
 62
     2
100
AcDbCircle
 10
4118.0
 20
1825.0
 30
0.0
 40
35.5
  0
CIRCLE
  5
229
100
AcDbEntity
  8
LAY-1
  6
CONTINUOUS
 62
     2
100
AcDbCircle
 10
4118.0
 20
1825.0
 30
0.0
 40
47.5
  0
CIRCLE
  5
22A
100
AcDbEntity
  8
LAY-1
  6
CONTINUOUS
 62
     2
100
AcDbCircle
 10
4118.0
 20
1825.0
 30
0.0
 40
37.5
  0
ARC
  5
22B
100
AcDbEntity
  8
LAY-1
  6
CONTINUOUS
 62
     2
100
AcDbCircle
 10
3978.0
 20
1862.5
 30
0.0
 40
15.0
100
AcDbArc
 50
90.0
 51
180.0
  0
ARC
  5
22C
100
AcDbEntity
  8
LAY-1
  6
CONTINUOUS
 62
     2
100
AcDbCircle
 10
3978.0
 20
1787.5
 30
0.0
 40
15.0
100
AcDbArc
 50
180.0
 51
270.0
  0
ARC
  5
22D
100
AcDbEntity
  8
LAY-1
  6
CONTINUOUS
 62
     2
100
AcDbCircle
 10
4158.0
 20
1787.5
 30
0.0
 40
15.0
100
AcDbArc
 50
270.0
 51
0.0
  0
ARC
  5
22E
100
AcDbEntity
  8
LAY-1
  6
CONTINUOUS
 62
     2
100
AcDbCircle
 10
4158.0
 20
1862.5
 30
0.0
 40
15.0
100
AcDbArc
 50
0.0
 51
90.0
  0
LINE
  5
22F
100
AcDbEntity
  8
LAY-1
  6
CONTINUOUS
 62
     2
100
AcDbLine
 10
3963.0
 20
1862.5
 30
0.0
 11
3963.0
 21
1787.5
 31
0.0
  0
LINE
  5
230
100
AcDbEntity
  8
LAY-1
  6
CONTINUOUS
 62
     2
100
AcDbLine
 10
4173.0
 20
1862.5
 30
0.0
 11
4173.0
 21
1787.5
 31
0.0
  0
LINE
  5
231
100
AcDbEntity
  8
LAY-1
  6
CONTINUOUS
 62
     2
100
AcDbLine
 10
4158.0
 20
1877.5
 30
0.0
 11
3978.0
 21
1877.5
 31
0.0
  0
LINE
  5
232
100
AcDbEntity
  8
LAY-1
  6
CONTINUOUS
 62
     2
100
AcDbLine
 10
4158.0
 20
1772.5
 30
0.0
 11
3978.0
 21
1772.5
 31
0.0
  0
POLYLINE
  5
233
100
AcDbEntity
  8
LAY-1
  6
CONTINUOUS
 62
     2
100
AcDb2dPolyline
 66
     1
 10
0.0
 20
0.0
 30
0.0
 70
   128
  0
VERTEX
  5
234
100
AcDbEntity
  8
LAY-1
  6
CONTINUOUS
 62
     2
100
AcDbVertex
100
AcDb2dVertex
 10
4017.407001
 20
1823.089934
 30
0.0
  0
VERTEX
  5
235
100
AcDbEntity
  8
LAY-1
  6
CONTINUOUS
 62
     2
100
AcDbVertex
100
AcDb2dVertex
 10
3999.968777
 20
1806.968777
 30
0.0
  0
SEQEND
  5
236
100
AcDbEntity
  8
LAY-1
  6
CONTINUOUS
 62
     2
  0
ARC
  5
237
100
AcDbEntity
  8
LAY-1
  6
CONTINUOUS
 62
     2
100
AcDbCircle
 10
4018.0
 20
1825.0
 30
0.0
 40
2.0
100
AcDbArc
 50
252.75253
 51
7.896801
  0
POLYLINE
  5
238
100
AcDbEntity
  8
LAY-1
  6
CONTINUOUS
 62
     2
100
AcDb2dPolyline
 66
     1
 10
0.0
 20
0.0
 30
0.0
 70
   128
  0
VERTEX
  5
239
100
AcDbEntity
  8
LAY-1
  6
CONTINUOUS
 62
     2
100
AcDbVertex
100
AcDb2dVertex
 10
4033.723453
 20
1835.971727
 30
0.0
  0
VERTEX
  5
23A
100
AcDbEntity
  8
LAY-1
  6
CONTINUOUS
 62
     2
100
AcDbVertex
100
AcDb2dVertex
 10
4019.981034
 20
1825.274778
 30
0.0
  0
SEQEND
  5
23B
100
AcDbEntity
  8
LAY-1
  6
CONTINUOUS
 62
     2
  0
ARC
  5
23C
100
AcDbEntity
  8
LAY-1
  6
CONTINUOUS
 62
     2
100
AcDbCircle
 10
4033.109212
 20
1836.760846
 30
0.0
 40
1.0
100
AcDbArc
 50
307.896801
 51
45.0
  0
POLYLINE
  5
23D
100
AcDbEntity
  8
LAY-1
  6
CONTINUOUS
 62
     2
100
AcDb2dPolyline
 66
     1
 10
0.0
 20
0.0
 30
0.0
 70
   128
  0
VERTEX
  5
23E
100
AcDbEntity
  8
LAY-1
  6
CONTINUOUS
 62
     2
100
AcDbVertex
100
AcDb2dVertex
 10
4030.467953
 20
1840.816319
 30
0.0
  0
VERTEX
  5
23F
100
AcDbEntity
  8
LAY-1
  6
CONTINUOUS
 62
     2
100
AcDbVertex
100
AcDb2dVertex
 10
4033.816319
 20
1837.467953
 30
0.0
  0
SEQEND
  5
240
100
AcDbEntity
  8
LAY-1
  6
CONTINUOUS
 62
     2
  0
ARC
  5
241
100
AcDbEntity
  8
LAY-1
  6
CONTINUOUS
 62
     2
100
AcDbCircle
 10
4029.760846
 20
1840.109212
 30
0.0
 40
1.0
100
AcDbArc
 50
45.0
 51
142.103199
  0
POLYLINE
  5
242
100
AcDbEntity
  8
LAY-1
  6
CONTINUOUS
 62
     2
100
AcDb2dPolyline
 66
     1
 10
0.0
 20
0.0
 30
0.0
 70
   128
  0
VERTEX
  5
243
100
AcDbEntity
  8
LAY-1
  6
CONTINUOUS
 62
     2
100
AcDbVertex
100
AcDb2dVertex
 10
4018.274778
 20
1826.981034
 30
0.0
  0
VERTEX
  5
244
100
AcDbEntity
  8
LAY-1
  6
CONTINUOUS
 62
     2
100
AcDbVertex
100
AcDb2dVertex
 10
4028.971727
 20
1840.723453
 30
0.0
  0
SEQEND
  5
245
100
AcDbEntity
  8
LAY-1
  6
CONTINUOUS
 62
     2
  0
ARC
  5
246
100
AcDbEntity
  8
LAY-1
  6
CONTINUOUS
 62
     2
100
AcDbCircle
 10
4018.0
 20
1825.0
 30
0.0
 40
2.0
100
AcDbArc
 50
82.103199
 51
197.24747
  0
POLYLINE
  5
247
100
AcDbEntity
  8
LAY-1
  6
CONTINUOUS
 62
     2
100
AcDb2dPolyline
 66
     1
 10
0.0
 20
0.0
 30
0.0
 70
   128
  0
VERTEX
  5
248
100
AcDbEntity
  8
LAY-1
  6
CONTINUOUS
 62
     2
100
AcDbVertex
100
AcDb2dVertex
 10
3999.968777
 20
1806.968777
 30
0.0
  0
VERTEX
  5
249
100
AcDbEntity
  8
LAY-1
  6
CONTINUOUS
 62
     2
100
AcDbVertex
100
AcDb2dVertex
 10
4016.089934
 20
1824.407001
 30
0.0
  0
SEQEND
  5
24A
100
AcDbEntity
  8
LAY-1
  6
CONTINUOUS
 62
     2
  0
CIRCLE
  5
24B
100
AcDbEntity
  8
LAY-1
  6
CONTINUOUS
 62
     2
100
AcDbCircle
 10
4018.0
 20
1825.0
 30
0.0
 40
1.0
  0
LINE
  5
24C
100
AcDbEntity
  8
LAY-1
  6
CONTINUOUS
 62
     2
100
AcDbLine
 10
4036.031223
 20
1843.031223
 30
0.0
 11
4039.566757
 21
1846.566757
 31
0.0
  0
LINE
  5
24D
100
AcDbEntity
  8
LAY-1
  6
CONTINUOUS
 62
     2
100
AcDbLine
 10
3999.968777
 20
1843.031223
 30
0.0
 11
3996.433243
 21
1846.566757
 31
0.0
  0
LINE
  5
24E
100
AcDbEntity
  8
LAY-1
  6
CONTINUOUS
 62
     2
100
AcDbLine
 10
4036.031223
 20
1806.968777
 30
0.0
 11
4039.566757
 21
1803.433243
 31
0.0
  0
LINE
  5
24F
100
AcDbEntity
  8
LAY-1
  6
CONTINUOUS
 62
     2
100
AcDbLine
 10
3999.968777
 20
1806.968777
 30
0.0
 11
3996.433243
 21
1803.433243
 31
0.0
  0
ARC
  5
250
100
AcDbEntity
  8
LAY-1
  6
CONTINUOUS
 62
     2
100
AcDbCircle
 10
4018.0
 20
1825.0
 30
0.0
 40
25.5
100
AcDbArc
 50
315.0
 51
225.0
  0
ARC
  5
251
100
AcDbEntity
  8
LAY-1
  6
CONTINUOUS
 62
     2
100
AcDbCircle
 10
4018.0
 20
1825.0
 30
0.0
 40
30.5
100
AcDbArc
 50
315.0
 51
225.0
  0
POLYLINE
  5
252
100
AcDbEntity
  8
LAY-1
  6
CONTINUOUS
 62
     2
100
AcDb2dPolyline
 66
     1
 10
0.0
 20
0.0
 30
0.0
 70
   128
  0
VERTEX
  5
253
100
AcDbEntity
  8
LAY-1
  6
CONTINUOUS
 62
     2
100
AcDbVertex
100
AcDb2dVertex
 10
4117.407001
 20
1823.089934
 30
0.0
  0
VERTEX
  5
254
100
AcDbEntity
  8
LAY-1
  6
CONTINUOUS
 62
     2
100
AcDbVertex
100
AcDb2dVertex
 10
4099.968777
 20
1806.968777
 30
0.0
  0
SEQEND
  5
255
100
AcDbEntity
  8
LAY-1
  6
CONTINUOUS
 62
     2
  0
ARC
  5
256
100
AcDbEntity
  8
LAY-1
  6
CONTINUOUS
 62
     2
100
AcDbCircle
 10
4118.0
 20
1825.0
 30
0.0
 40
2.0
100
AcDbArc
 50
252.75253
 51
7.896801
  0
POLYLINE
  5
257
100
AcDbEntity
  8
LAY-1
  6
CONTINUOUS
 62
     2
100
AcDb2dPolyline
 66
     1
 10
0.0
 20
0.0
 30
0.0
 70
   128
  0
VERTEX
  5
258
100
AcDbEntity
  8
LAY-1
  6
CONTINUOUS
 62
     2
100
AcDbVertex
100
AcDb2dVertex
 10
4133.723453
 20
1835.971727
 30
0.0
  0
VERTEX
  5
259
100
AcDbEntity
  8
LAY-1
  6
CONTINUOUS
 62
     2
100
AcDbVertex
100
AcDb2dVertex
 10
4119.981034
 20
1825.274778
 30
0.0
  0
SEQEND
  5
25A
100
AcDbEntity
  8
LAY-1
  6
CONTINUOUS
 62
     2
  0
ARC
  5
25B
100
AcDbEntity
  8
LAY-1
  6
CONTINUOUS
 62
     2
100
AcDbCircle
 10
4133.109212
 20
1836.760846
 30
0.0
 40
1.0
100
AcDbArc
 50
307.896801
 51
45.0
  0
POLYLINE
  5
25C
100
AcDbEntity
  8
LAY-1
  6
CONTINUOUS
 62
     2
100
AcDb2dPolyline
 66
     1
 10
0.0
 20
0.0
 30
0.0
 70
   128
  0
VERTEX
  5
25D
100
AcDbEntity
  8
LAY-1
  6
CONTINUOUS
 62
     2
100
AcDbVertex
100
AcDb2dVertex
 10
4130.467953
 20
1840.816319
 30
0.0
  0
VERTEX
  5
25E
100
AcDbEntity
  8
LAY-1
  6
CONTINUOUS
 62
     2
100
AcDbVertex
100
AcDb2dVertex
 10
4133.816319
 20
1837.467953
 30
0.0
  0
SEQEND
  5
25F
100
AcDbEntity
  8
LAY-1
  6
CONTINUOUS
 62
     2
  0
ARC
  5
260
100
AcDbEntity
  8
LAY-1
  6
CONTINUOUS
 62
     2
100
AcDbCircle
 10
4129.760846
 20
1840.109212
 30
0.0
 40
1.0
100
AcDbArc
 50
45.0
 51
142.103199
  0
POLYLINE
  5
261
100
AcDbEntity
  8
LAY-1
  6
CONTINUOUS
 62
     2
100
AcDb2dPolyline
 66
     1
 10
0.0
 20
0.0
 30
0.0
 70
   128
  0
VERTEX
  5
262
100
AcDbEntity
  8
LAY-1
  6
CONTINUOUS
 62
     2
100
AcDbVertex
100
AcDb2dVertex
 10
4118.274778
 20
1826.981034
 30
0.0
  0
VERTEX
  5
263
100
AcDbEntity
  8
LAY-1
  6
CONTINUOUS
 62
     2
100
AcDbVertex
100
AcDb2dVertex
 10
4128.971727
 20
1840.723453
 30
0.0
  0
SEQEND
  5
264
100
AcDbEntity
  8
LAY-1
  6
CONTINUOUS
 62
     2
  0
ARC
  5
265
100
AcDbEntity
  8
LAY-1
  6
CONTINUOUS
 62
     2
100
AcDbCircle
 10
4118.0
 20
1825.0
 30
0.0
 40
2.0
100
AcDbArc
 50
82.103199
 51
197.24747
  0
POLYLINE
  5
266
100
AcDbEntity
  8
LAY-1
  6
CONTINUOUS
 62
     2
100
AcDb2dPolyline
 66
     1
 10
0.0
 20
0.0
 30
0.0
 70
   128
  0
VERTEX
  5
267
100
AcDbEntity
  8
LAY-1
  6
CONTINUOUS
 62
     2
100
AcDbVertex
100
AcDb2dVertex
 10
4099.968777
 20
1806.968777
 30
0.0
  0
VERTEX
  5
268
100
AcDbEntity
  8
LAY-1
  6
CONTINUOUS
 62
     2
100
AcDbVertex
100
AcDb2dVertex
 10
4116.089934
 20
1824.407001
 30
0.0
  0
SEQEND
  5
269
100
AcDbEntity
  8
LAY-1
  6
CONTINUOUS
 62
     2
  0
CIRCLE
  5
26A
100
AcDbEntity
  8
LAY-1
  6
CONTINUOUS
 62
     2
100
AcDbCircle
 10
4118.0
 20
1825.0
 30
0.0
 40
1.0
  0
LINE
  5
26B
100
AcDbEntity
  8
LAY-1
  6
CONTINUOUS
 62
     2
100
AcDbLine
 10
4099.968777
 20
1843.031223
 30
0.0
 11
4096.433243
 21
1846.566757
 31
0.0
  0
LINE
  5
26C
100
AcDbEntity
  8
LAY-1
  6
CONTINUOUS
 62
     2
100
AcDbLine
 10
4136.031223
 20
1843.031223
 30
0.0
 11
4139.566757
 21
1846.566757
 31
0.0
  0
LINE
  5
26D
100
AcDbEntity
  8
LAY-1
  6
CONTINUOUS
 62
     2
100
AcDbLine
 10
4099.968777
 20
1806.968777
 30
0.0
 11
4096.433243
 21
1803.433243
 31
0.0
  0
LINE
  5
26E
100
AcDbEntity
  8
LAY-1
  6
CONTINUOUS
 62
     2
100
AcDbLine
 10
4136.031223
 20
1806.968777
 30
0.0
 11
4139.566757
 21
1803.433243
 31
0.0
  0
ARC
  5
26F
100
AcDbEntity
  8
LAY-1
  6
CONTINUOUS
 62
     2
100
AcDbCircle
 10
4118.0
 20
1825.0
 30
0.0
 40
25.5
100
AcDbArc
 50
315.0
 51
225.0
  0
ARC
  5
270
100
AcDbEntity
  8
LAY-1
  6
CONTINUOUS
 62
     2
100
AcDbCircle
 10
4118.0
 20
1825.0
 30
0.0
 40
30.5
100
AcDbArc
 50
315.0
 51
225.0
  0
LINE
  5
271
100
AcDbEntity
  8
LAY-1
  6
CONTINUOUS
 62
     2
100
AcDbLine
 10
4362.0
 20
1715.0
 30
0.0
 11
3774.0
 21
1715.0
 31
0.0
  0
ARC
  5
272
100
AcDbEntity
  8
LAY-1
  6
CONTINUOUS
 62
     2
100
AcDbCircle
 10
3826.75
 20
1812.0
 30
0.0
 40
4.0
100
AcDbArc
 50
0.0
 51
180.0
  0
ARC
  5
273
100
AcDbEntity
  8
LAY-1
  6
CONTINUOUS
 62
     2
100
AcDbCircle
 10
3826.75
 20
1774.0
 30
0.0
 40
4.0
100
AcDbArc
 50
180.0
 51
0.0
  0
LINE
  5
274
100
AcDbEntity
  8
LAY-1
  6
CONTINUOUS
 62
     2
100
AcDbLine
 10
3822.75
 20
1812.0
 30
0.0
 11
3822.75
 21
1774.0
 31
0.0
  0
LINE
  5
275
100
AcDbEntity
  8
LAY-1
  6
CONTINUOUS
 62
     2
100
AcDbLine
 10
3830.75
 20
1812.0
 30
0.0
 11
3830.75
 21
1774.0
 31
0.0
  0
ARC
  5
276
100
AcDbEntity
  8
LAY-1
  6
CONTINUOUS
 62
     2
100
AcDbCircle
 10
3826.75
 20
1892.0
 30
0.0
 40
4.0
100
AcDbArc
 50
0.0
 51
180.0
  0
ARC
  5
277
100
AcDbEntity
  8
LAY-1
  6
CONTINUOUS
 62
     2
100
AcDbCircle
 10
3826.75
 20
1854.0
 30
0.0
 40
4.0
100
AcDbArc
 50
180.0
 51
0.0
  0
LINE
  5
278
100
AcDbEntity
  8
LAY-1
  6
CONTINUOUS
 62
     2
100
AcDbLine
 10
3822.75
 20
1892.0
 30
0.0
 11
3822.75
 21
1854.0
 31
0.0
  0
LINE
  5
279
100
AcDbEntity
  8
LAY-1
  6
CONTINUOUS
 62
     2
100
AcDbLine
 10
3830.75
 20
1892.0
 30
0.0
 11
3830.75
 21
1854.0
 31
0.0
  0
ARC
  5
27A
100
AcDbEntity
  8
LAY-1
  6
CONTINUOUS
 62
     2
100
AcDbCircle
 10
3918.75
 20
1812.0
 30
0.0
 40
4.0
100
AcDbArc
 50
0.0
 51
180.0
  0
ARC
  5
27B
100
AcDbEntity
  8
LAY-1
  6
CONTINUOUS
 62
     2
100
AcDbCircle
 10
3918.75
 20
1774.0
 30
0.0
 40
4.0
100
AcDbArc
 50
180.0
 51
0.0
  0
LINE
  5
27C
100
AcDbEntity
  8
LAY-1
  6
CONTINUOUS
 62
     2
100
AcDbLine
 10
3914.75
 20
1812.0
 30
0.0
 11
3914.75
 21
1774.0
 31
0.0
  0
LINE
  5
27D
100
AcDbEntity
  8
LAY-1
  6
CONTINUOUS
 62
     2
100
AcDbLine
 10
3922.75
 20
1812.0
 30
0.0
 11
3922.75
 21
1774.0
 31
0.0
  0
ARC
  5
27E
100
AcDbEntity
  8
LAY-1
  6
CONTINUOUS
 62
     2
100
AcDbCircle
 10
3941.75
 20
1812.0
 30
0.0
 40
4.0
100
AcDbArc
 50
0.0
 51
180.0
  0
ARC
  5
27F
100
AcDbEntity
  8
LAY-1
  6
CONTINUOUS
 62
     2
100
AcDbCircle
 10
3941.75
 20
1774.0
 30
0.0
 40
4.0
100
AcDbArc
 50
180.0
 51
0.0
  0
LINE
  5
280
100
AcDbEntity
  8
LAY-1
  6
CONTINUOUS
 62
     2
100
AcDbLine
 10
3937.75
 20
1812.0
 30
0.0
 11
3937.75
 21
1774.0
 31
0.0
  0
LINE
  5
281
100
AcDbEntity
  8
LAY-1
  6
CONTINUOUS
 62
     2
100
AcDbLine
 10
3945.75
 20
1812.0
 30
0.0
 11
3945.75
 21
1774.0
 31
0.0
  0
ARC
  5
282
100
AcDbEntity
  8
LAY-1
  6
CONTINUOUS
 62
     2
100
AcDbCircle
 10
3918.75
 20
1892.0
 30
0.0
 40
4.0
100
AcDbArc
 50
0.0
 51
180.0
  0
ARC
  5
283
100
AcDbEntity
  8
LAY-1
  6
CONTINUOUS
 62
     2
100
AcDbCircle
 10
3918.75
 20
1854.0
 30
0.0
 40
4.0
100
AcDbArc
 50
180.0
 51
0.0
  0
LINE
  5
284
100
AcDbEntity
  8
LAY-1
  6
CONTINUOUS
 62
     2
100
AcDbLine
 10
3914.75
 20
1892.0
 30
0.0
 11
3914.75
 21
1854.0
 31
0.0
  0
LINE
  5
285
100
AcDbEntity
  8
LAY-1
  6
CONTINUOUS
 62
     2
100
AcDbLine
 10
3922.75
 20
1892.0
 30
0.0
 11
3922.75
 21
1854.0
 31
0.0
  0
ARC
  5
286
100
AcDbEntity
  8
LAY-1
  6
CONTINUOUS
 62
     2
100
AcDbCircle
 10
3941.75
 20
1892.0
 30
0.0
 40
4.0
100
AcDbArc
 50
0.0
 51
180.0
  0
ARC
  5
287
100
AcDbEntity
  8
LAY-1
  6
CONTINUOUS
 62
     2
100
AcDbCircle
 10
3941.75
 20
1854.0
 30
0.0
 40
4.0
100
AcDbArc
 50
180.0
 51
0.0
  0
LINE
  5
288
100
AcDbEntity
  8
LAY-1
  6
CONTINUOUS
 62
     2
100
AcDbLine
 10
3937.75
 20
1892.0
 30
0.0
 11
3937.75
 21
1854.0
 31
0.0
  0
LINE
  5
289
100
AcDbEntity
  8
LAY-1
  6
CONTINUOUS
 62
     2
100
AcDbLine
 10
3945.75
 20
1892.0
 30
0.0
 11
3945.75
 21
1854.0
 31
0.0
  0
ARC
  5
28A
100
AcDbEntity
  8
LAY-1
  6
CONTINUOUS
 62
     2
100
AcDbCircle
 10
4309.25
 20
1812.0
 30
0.0
 40
4.0
100
AcDbArc
 50
0.0
 51
180.0
  0
ARC
  5
28B
100
AcDbEntity
  8
LAY-1
  6
CONTINUOUS
 62
     2
100
AcDbCircle
 10
4309.25
 20
1774.0
 30
0.0
 40
4.0
100
AcDbArc
 50
180.0
 51
0.0
  0
LINE
  5
28C
100
AcDbEntity
  8
LAY-1
  6
CONTINUOUS
 62
     2
100
AcDbLine
 10
4313.25
 20
1812.0
 30
0.0
 11
4313.25
 21
1774.0
 31
0.0
  0
LINE
  5
28D
100
AcDbEntity
  8
LAY-1
  6
CONTINUOUS
 62
     2
100
AcDbLine
 10
4305.25
 20
1812.0
 30
0.0
 11
4305.25
 21
1774.0
 31
0.0
  0
ARC
  5
28E
100
AcDbEntity
  8
LAY-1
  6
CONTINUOUS
 62
     2
100
AcDbCircle
 10
4286.25
 20
1812.0
 30
0.0
 40
4.0
100
AcDbArc
 50
0.0
 51
180.0
  0
ARC
  5
28F
100
AcDbEntity
  8
LAY-1
  6
CONTINUOUS
 62
     2
100
AcDbCircle
 10
4286.25
 20
1774.0
 30
0.0
 40
4.0
100
AcDbArc
 50
180.0
 51
0.0
  0
LINE
  5
290
100
AcDbEntity
  8
LAY-1
  6
CONTINUOUS
 62
     2
100
AcDbLine
 10
4290.25
 20
1812.0
 30
0.0
 11
4290.25
 21
1774.0
 31
0.0
  0
LINE
  5
291
100
AcDbEntity
  8
LAY-1
  6
CONTINUOUS
 62
     2
100
AcDbLine
 10
4282.25
 20
1812.0
 30
0.0
 11
4282.25
 21
1774.0
 31
0.0
  0
ARC
  5
292
100
AcDbEntity
  8
LAY-1
  6
CONTINUOUS
 62
     2
100
AcDbCircle
 10
4263.25
 20
1812.0
 30
0.0
 40
4.0
100
AcDbArc
 50
0.0
 51
180.0
  0
ARC
  5
293
100
AcDbEntity
  8
LAY-1
  6
CONTINUOUS
 62
     2
100
AcDbCircle
 10
4263.25
 20
1774.0
 30
0.0
 40
4.0
100
AcDbArc
 50
180.0
 51
0.0
  0
LINE
  5
294
100
AcDbEntity
  8
LAY-1
  6
CONTINUOUS
 62
     2
100
AcDbLine
 10
4267.25
 20
1812.0
 30
0.0
 11
4267.25
 21
1774.0
 31
0.0
  0
LINE
  5
295
100
AcDbEntity
  8
LAY-1
  6
CONTINUOUS
 62
     2
100
AcDbLine
 10
4259.25
 20
1812.0
 30
0.0
 11
4259.25
 21
1774.0
 31
0.0
  0
ARC
  5
296
100
AcDbEntity
  8
LAY-1
  6
CONTINUOUS
 62
     2
100
AcDbCircle
 10
4240.25
 20
1812.0
 30
0.0
 40
4.0
100
AcDbArc
 50
0.0
 51
180.0
  0
ARC
  5
297
100
AcDbEntity
  8
LAY-1
  6
CONTINUOUS
 62
     2
100
AcDbCircle
 10
4240.25
 20
1774.0
 30
0.0
 40
4.0
100
AcDbArc
 50
180.0
 51
0.0
  0
LINE
  5
298
100
AcDbEntity
  8
LAY-1
  6
CONTINUOUS
 62
     2
100
AcDbLine
 10
4244.25
 20
1812.0
 30
0.0
 11
4244.25
 21
1774.0
 31
0.0
  0
LINE
  5
299
100
AcDbEntity
  8
LAY-1
  6
CONTINUOUS
 62
     2
100
AcDbLine
 10
4236.25
 20
1812.0
 30
0.0
 11
4236.25
 21
1774.0
 31
0.0
  0
ARC
  5
29A
100
AcDbEntity
  8
LAY-1
  6
CONTINUOUS
 62
     2
100
AcDbCircle
 10
4217.25
 20
1812.0
 30
0.0
 40
4.0
100
AcDbArc
 50
0.0
 51
180.0
  0
ARC
  5
29B
100
AcDbEntity
  8
LAY-1
  6
CONTINUOUS
 62
     2
100
AcDbCircle
 10
4217.25
 20
1774.0
 30
0.0
 40
4.0
100
AcDbArc
 50
180.0
 51
0.0
  0
LINE
  5
29C
100
AcDbEntity
  8
LAY-1
  6
CONTINUOUS
 62
     2
100
AcDbLine
 10
4221.25
 20
1812.0
 30
0.0
 11
4221.25
 21
1774.0
 31
0.0
  0
LINE
  5
29D
100
AcDbEntity
  8
LAY-1
  6
CONTINUOUS
 62
     2
100
AcDbLine
 10
4213.25
 20
1812.0
 30
0.0
 11
4213.25
 21
1774.0
 31
0.0
  0
ARC
  5
29E
100
AcDbEntity
  8
LAY-1
  6
CONTINUOUS
 62
     2
100
AcDbCircle
 10
4194.25
 20
1812.0
 30
0.0
 40
4.0
100
AcDbArc
 50
0.0
 51
180.0
  0
ARC
  5
29F
100
AcDbEntity
  8
LAY-1
  6
CONTINUOUS
 62
     2
100
AcDbCircle
 10
4194.25
 20
1774.0
 30
0.0
 40
4.0
100
AcDbArc
 50
180.0
 51
0.0
  0
LINE
  5
2A0
100
AcDbEntity
  8
LAY-1
  6
CONTINUOUS
 62
     2
100
AcDbLine
 10
4198.25
 20
1812.0
 30
0.0
 11
4198.25
 21
1774.0
 31
0.0
  0
LINE
  5
2A1
100
AcDbEntity
  8
LAY-1
  6
CONTINUOUS
 62
     2
100
AcDbLine
 10
4190.25
 20
1812.0
 30
0.0
 11
4190.25
 21
1774.0
 31
0.0
  0
ARC
  5
2A2
100
AcDbEntity
  8
LAY-1
  6
CONTINUOUS
 62
     2
100
AcDbCircle
 10
4309.25
 20
1892.0
 30
0.0
 40
4.0
100
AcDbArc
 50
0.0
 51
180.0
  0
ARC
  5
2A3
100
AcDbEntity
  8
LAY-1
  6
CONTINUOUS
 62
     2
100
AcDbCircle
 10
4309.25
 20
1854.0
 30
0.0
 40
4.0
100
AcDbArc
 50
180.0
 51
0.0
  0
LINE
  5
2A4
100
AcDbEntity
  8
LAY-1
  6
CONTINUOUS
 62
     2
100
AcDbLine
 10
4313.25
 20
1892.0
 30
0.0
 11
4313.25
 21
1854.0
 31
0.0
  0
LINE
  5
2A5
100
AcDbEntity
  8
LAY-1
  6
CONTINUOUS
 62
     2
100
AcDbLine
 10
4305.25
 20
1892.0
 30
0.0
 11
4305.25
 21
1854.0
 31
0.0
  0
ARC
  5
2A6
100
AcDbEntity
  8
LAY-1
  6
CONTINUOUS
 62
     2
100
AcDbCircle
 10
4286.25
 20
1892.0
 30
0.0
 40
4.0
100
AcDbArc
 50
0.0
 51
180.0
  0
ARC
  5
2A7
100
AcDbEntity
  8
LAY-1
  6
CONTINUOUS
 62
     2
100
AcDbCircle
 10
4286.25
 20
1854.0
 30
0.0
 40
4.0
100
AcDbArc
 50
180.0
 51
0.0
  0
LINE
  5
2A8
100
AcDbEntity
  8
LAY-1
  6
CONTINUOUS
 62
     2
100
AcDbLine
 10
4290.25
 20
1892.0
 30
0.0
 11
4290.25
 21
1854.0
 31
0.0
  0
LINE
  5
2A9
100
AcDbEntity
  8
LAY-1
  6
CONTINUOUS
 62
     2
100
AcDbLine
 10
4282.25
 20
1892.0
 30
0.0
 11
4282.25
 21
1854.0
 31
0.0
  0
ARC
  5
2AA
100
AcDbEntity
  8
LAY-1
  6
CONTINUOUS
 62
     2
100
AcDbCircle
 10
4263.25
 20
1892.0
 30
0.0
 40
4.0
100
AcDbArc
 50
0.0
 51
180.0
  0
ARC
  5
2AB
100
AcDbEntity
  8
LAY-1
  6
CONTINUOUS
 62
     2
100
AcDbCircle
 10
4263.25
 20
1854.0
 30
0.0
 40
4.0
100
AcDbArc
 50
180.0
 51
0.0
  0
LINE
  5
2AC
100
AcDbEntity
  8
LAY-1
  6
CONTINUOUS
 62
     2
100
AcDbLine
 10
4267.25
 20
1892.0
 30
0.0
 11
4267.25
 21
1854.0
 31
0.0
  0
LINE
  5
2AD
100
AcDbEntity
  8
LAY-1
  6
CONTINUOUS
 62
     2
100
AcDbLine
 10
4259.25
 20
1892.0
 30
0.0
 11
4259.25
 21
1854.0
 31
0.0
  0
ARC
  5
2AE
100
AcDbEntity
  8
LAY-1
  6
CONTINUOUS
 62
     2
100
AcDbCircle
 10
4240.25
 20
1892.0
 30
0.0
 40
4.0
100
AcDbArc
 50
0.0
 51
180.0
  0
ARC
  5
2AF
100
AcDbEntity
  8
LAY-1
  6
CONTINUOUS
 62
     2
100
AcDbCircle
 10
4240.25
 20
1854.0
 30
0.0
 40
4.0
100
AcDbArc
 50
180.0
 51
0.0
  0
LINE
  5
2B0
100
AcDbEntity
  8
LAY-1
  6
CONTINUOUS
 62
     2
100
AcDbLine
 10
4244.25
 20
1892.0
 30
0.0
 11
4244.25
 21
1854.0
 31
0.0
  0
LINE
  5
2B1
100
AcDbEntity
  8
LAY-1
  6
CONTINUOUS
 62
     2
100
AcDbLine
 10
4236.25
 20
1892.0
 30
0.0
 11
4236.25
 21
1854.0
 31
0.0
  0
ARC
  5
2B2
100
AcDbEntity
  8
LAY-1
  6
CONTINUOUS
 62
     2
100
AcDbCircle
 10
4217.25
 20
1892.0
 30
0.0
 40
4.0
100
AcDbArc
 50
0.0
 51
180.0
  0
ARC
  5
2B3
100
AcDbEntity
  8
LAY-1
  6
CONTINUOUS
 62
     2
100
AcDbCircle
 10
4217.25
 20
1854.0
 30
0.0
 40
4.0
100
AcDbArc
 50
180.0
 51
0.0
  0
LINE
  5
2B4
100
AcDbEntity
  8
LAY-1
  6
CONTINUOUS
 62
     2
100
AcDbLine
 10
4221.25
 20
1892.0
 30
0.0
 11
4221.25
 21
1854.0
 31
0.0
  0
LINE
  5
2B5
100
AcDbEntity
  8
LAY-1
  6
CONTINUOUS
 62
     2
100
AcDbLine
 10
4213.25
 20
1892.0
 30
0.0
 11
4213.25
 21
1854.0
 31
0.0
  0
ARC
  5
2B6
100
AcDbEntity
  8
LAY-1
  6
CONTINUOUS
 62
     2
100
AcDbCircle
 10
4194.25
 20
1892.0
 30
0.0
 40
4.0
100
AcDbArc
 50
0.0
 51
180.0
  0
ARC
  5
2B7
100
AcDbEntity
  8
LAY-1
  6
CONTINUOUS
 62
     2
100
AcDbCircle
 10
4194.25
 20
1854.0
 30
0.0
 40
4.0
100
AcDbArc
 50
180.0
 51
0.0
  0
LINE
  5
2B8
100
AcDbEntity
  8
LAY-1
  6
CONTINUOUS
 62
     2
100
AcDbLine
 10
4198.25
 20
1892.0
 30
0.0
 11
4198.25
 21
1854.0
 31
0.0
  0
LINE
  5
2B9
100
AcDbEntity
  8
LAY-1
  6
CONTINUOUS
 62
     2
100
AcDbLine
 10
4190.25
 20
1892.0
 30
0.0
 11
4190.25
 21
1854.0
 31
0.0
  0
ARC
  5
2BA
100
AcDbEntity
  8
LAY-1
  6
CONTINUOUS
 62
     2
100
AcDbCircle
 10
3826.75
 20
1972.0
 30
0.0
 40
4.0
100
AcDbArc
 50
0.0
 51
180.0
  0
ARC
  5
2BB
100
AcDbEntity
  8
LAY-1
  6
CONTINUOUS
 62
     2
100
AcDbCircle
 10
3826.75
 20
1934.0
 30
0.0
 40
4.0
100
AcDbArc
 50
180.0
 51
0.0
  0
LINE
  5
2BC
100
AcDbEntity
  8
LAY-1
  6
CONTINUOUS
 62
     2
100
AcDbLine
 10
3822.75
 20
1972.0
 30
0.0
 11
3822.75
 21
1934.0
 31
0.0
  0
LINE
  5
2BD
100
AcDbEntity
  8
LAY-1
  6
CONTINUOUS
 62
     2
100
AcDbLine
 10
3830.75
 20
1972.0
 30
0.0
 11
3830.75
 21
1934.0
 31
0.0
  0
ARC
  5
2BE
100
AcDbEntity
  8
LAY-1
  6
CONTINUOUS
 62
     2
100
AcDbCircle
 10
3849.75
 20
1972.0
 30
0.0
 40
4.0
100
AcDbArc
 50
0.0
 51
180.0
  0
ARC
  5
2BF
100
AcDbEntity
  8
LAY-1
  6
CONTINUOUS
 62
     2
100
AcDbCircle
 10
3849.75
 20
1934.0
 30
0.0
 40
4.0
100
AcDbArc
 50
180.0
 51
0.0
  0
LINE
  5
2C0
100
AcDbEntity
  8
LAY-1
  6
CONTINUOUS
 62
     2
100
AcDbLine
 10
3845.75
 20
1972.0
 30
0.0
 11
3845.75
 21
1934.0
 31
0.0
  0
LINE
  5
2C1
100
AcDbEntity
  8
LAY-1
  6
CONTINUOUS
 62
     2
100
AcDbLine
 10
3853.75
 20
1972.0
 30
0.0
 11
3853.75
 21
1934.0
 31
0.0
  0
ARC
  5
2C2
100
AcDbEntity
  8
LAY-1
  6
CONTINUOUS
 62
     2
100
AcDbCircle
 10
3872.75
 20
1972.0
 30
0.0
 40
4.0
100
AcDbArc
 50
0.0
 51
180.0
  0
ARC
  5
2C3
100
AcDbEntity
  8
LAY-1
  6
CONTINUOUS
 62
     2
100
AcDbCircle
 10
3872.75
 20
1934.0
 30
0.0
 40
4.0
100
AcDbArc
 50
180.0
 51
0.0
  0
LINE
  5
2C4
100
AcDbEntity
  8
LAY-1
  6
CONTINUOUS
 62
     2
100
AcDbLine
 10
3868.75
 20
1972.0
 30
0.0
 11
3868.75
 21
1934.0
 31
0.0
  0
LINE
  5
2C5
100
AcDbEntity
  8
LAY-1
  6
CONTINUOUS
 62
     2
100
AcDbLine
 10
3876.75
 20
1972.0
 30
0.0
 11
3876.75
 21
1934.0
 31
0.0
  0
ARC
  5
2C6
100
AcDbEntity
  8
LAY-1
  6
CONTINUOUS
 62
     2
100
AcDbCircle
 10
3895.75
 20
1972.0
 30
0.0
 40
4.0
100
AcDbArc
 50
0.0
 51
180.0
  0
ARC
  5
2C7
100
AcDbEntity
  8
LAY-1
  6
CONTINUOUS
 62
     2
100
AcDbCircle
 10
3895.75
 20
1934.0
 30
0.0
 40
4.0
100
AcDbArc
 50
180.0
 51
0.0
  0
LINE
  5
2C8
100
AcDbEntity
  8
LAY-1
  6
CONTINUOUS
 62
     2
100
AcDbLine
 10
3891.75
 20
1972.0
 30
0.0
 11
3891.75
 21
1934.0
 31
0.0
  0
LINE
  5
2C9
100
AcDbEntity
  8
LAY-1
  6
CONTINUOUS
 62
     2
100
AcDbLine
 10
3899.75
 20
1972.0
 30
0.0
 11
3899.75
 21
1934.0
 31
0.0
  0
ARC
  5
2CA
100
AcDbEntity
  8
LAY-1
  6
CONTINUOUS
 62
     2
100
AcDbCircle
 10
3918.75
 20
1972.0
 30
0.0
 40
4.0
100
AcDbArc
 50
0.0
 51
180.0
  0
ARC
  5
2CB
100
AcDbEntity
  8
LAY-1
  6
CONTINUOUS
 62
     2
100
AcDbCircle
 10
3918.75
 20
1934.0
 30
0.0
 40
4.0
100
AcDbArc
 50
180.0
 51
0.0
  0
LINE
  5
2CC
100
AcDbEntity
  8
LAY-1
  6
CONTINUOUS
 62
     2
100
AcDbLine
 10
3914.75
 20
1972.0
 30
0.0
 11
3914.75
 21
1934.0
 31
0.0
  0
LINE
  5
2CD
100
AcDbEntity
  8
LAY-1
  6
CONTINUOUS
 62
     2
100
AcDbLine
 10
3922.75
 20
1972.0
 30
0.0
 11
3922.75
 21
1934.0
 31
0.0
  0
ARC
  5
2CE
100
AcDbEntity
  8
LAY-1
  6
CONTINUOUS
 62
     2
100
AcDbCircle
 10
3941.75
 20
1972.0
 30
0.0
 40
4.0
100
AcDbArc
 50
0.0
 51
180.0
  0
ARC
  5
2CF
100
AcDbEntity
  8
LAY-1
  6
CONTINUOUS
 62
     2
100
AcDbCircle
 10
3941.75
 20
1934.0
 30
0.0
 40
4.0
100
AcDbArc
 50
180.0
 51
0.0
  0
LINE
  5
2D0
100
AcDbEntity
  8
LAY-1
  6
CONTINUOUS
 62
     2
100
AcDbLine
 10
3937.75
 20
1972.0
 30
0.0
 11
3937.75
 21
1934.0
 31
0.0
  0
LINE
  5
2D1
100
AcDbEntity
  8
LAY-1
  6
CONTINUOUS
 62
     2
100
AcDbLine
 10
3945.75
 20
1972.0
 30
0.0
 11
3945.75
 21
1934.0
 31
0.0
  0
ARC
  5
2D2
100
AcDbEntity
  8
LAY-1
  6
CONTINUOUS
 62
     2
100
AcDbCircle
 10
3964.75
 20
1972.0
 30
0.0
 40
4.0
100
AcDbArc
 50
0.0
 51
180.0
  0
ARC
  5
2D3
100
AcDbEntity
  8
LAY-1
  6
CONTINUOUS
 62
     2
100
AcDbCircle
 10
3964.75
 20
1934.0
 30
0.0
 40
4.0
100
AcDbArc
 50
180.0
 51
0.0
  0
LINE
  5
2D4
100
AcDbEntity
  8
LAY-1
  6
CONTINUOUS
 62
     2
100
AcDbLine
 10
3960.75
 20
1972.0
 30
0.0
 11
3960.75
 21
1934.0
 31
0.0
  0
LINE
  5
2D5
100
AcDbEntity
  8
LAY-1
  6
CONTINUOUS
 62
     2
100
AcDbLine
 10
3968.75
 20
1972.0
 30
0.0
 11
3968.75
 21
1934.0
 31
0.0
  0
ARC
  5
2D6
100
AcDbEntity
  8
LAY-1
  6
CONTINUOUS
 62
     2
100
AcDbCircle
 10
3987.75
 20
1972.0
 30
0.0
 40
4.0
100
AcDbArc
 50
0.0
 51
180.0
  0
ARC
  5
2D7
100
AcDbEntity
  8
LAY-1
  6
CONTINUOUS
 62
     2
100
AcDbCircle
 10
3987.75
 20
1934.0
 30
0.0
 40
4.0
100
AcDbArc
 50
180.0
 51
0.0
  0
LINE
  5
2D8
100
AcDbEntity
  8
LAY-1
  6
CONTINUOUS
 62
     2
100
AcDbLine
 10
3983.75
 20
1972.0
 30
0.0
 11
3983.75
 21
1934.0
 31
0.0
  0
LINE
  5
2D9
100
AcDbEntity
  8
LAY-1
  6
CONTINUOUS
 62
     2
100
AcDbLine
 10
3991.75
 20
1972.0
 30
0.0
 11
3991.75
 21
1934.0
 31
0.0
  0
ARC
  5
2DA
100
AcDbEntity
  8
LAY-1
  6
CONTINUOUS
 62
     2
100
AcDbCircle
 10
4010.75
 20
1972.0
 30
0.0
 40
4.0
100
AcDbArc
 50
0.0
 51
180.0
  0
ARC
  5
2DB
100
AcDbEntity
  8
LAY-1
  6
CONTINUOUS
 62
     2
100
AcDbCircle
 10
4010.75
 20
1934.0
 30
0.0
 40
4.0
100
AcDbArc
 50
180.0
 51
0.0
  0
LINE
  5
2DC
100
AcDbEntity
  8
LAY-1
  6
CONTINUOUS
 62
     2
100
AcDbLine
 10
4006.75
 20
1972.0
 30
0.0
 11
4006.75
 21
1934.0
 31
0.0
  0
LINE
  5
2DD
100
AcDbEntity
  8
LAY-1
  6
CONTINUOUS
 62
     2
100
AcDbLine
 10
4014.75
 20
1972.0
 30
0.0
 11
4014.75
 21
1934.0
 31
0.0
  0
ARC
  5
2DE
100
AcDbEntity
  8
LAY-1
  6
CONTINUOUS
 62
     2
100
AcDbCircle
 10
4033.75
 20
1972.0
 30
0.0
 40
4.0
100
AcDbArc
 50
0.0
 51
180.0
  0
ARC
  5
2DF
100
AcDbEntity
  8
LAY-1
  6
CONTINUOUS
 62
     2
100
AcDbCircle
 10
4033.75
 20
1934.0
 30
0.0
 40
4.0
100
AcDbArc
 50
180.0
 51
0.0
  0
LINE
  5
2E0
100
AcDbEntity
  8
LAY-1
  6
CONTINUOUS
 62
     2
100
AcDbLine
 10
4029.75
 20
1972.0
 30
0.0
 11
4029.75
 21
1934.0
 31
0.0
  0
LINE
  5
2E1
100
AcDbEntity
  8
LAY-1
  6
CONTINUOUS
 62
     2
100
AcDbLine
 10
4037.75
 20
1972.0
 30
0.0
 11
4037.75
 21
1934.0
 31
0.0
  0
ARC
  5
2E2
100
AcDbEntity
  8
LAY-1
  6
CONTINUOUS
 62
     2
100
AcDbCircle
 10
4056.75
 20
1972.0
 30
0.0
 40
4.0
100
AcDbArc
 50
0.0
 51
180.0
  0
ARC
  5
2E3
100
AcDbEntity
  8
LAY-1
  6
CONTINUOUS
 62
     2
100
AcDbCircle
 10
4056.75
 20
1934.0
 30
0.0
 40
4.0
100
AcDbArc
 50
180.0
 51
0.0
  0
LINE
  5
2E4
100
AcDbEntity
  8
LAY-1
  6
CONTINUOUS
 62
     2
100
AcDbLine
 10
4052.75
 20
1972.0
 30
0.0
 11
4052.75
 21
1934.0
 31
0.0
  0
LINE
  5
2E5
100
AcDbEntity
  8
LAY-1
  6
CONTINUOUS
 62
     2
100
AcDbLine
 10
4060.75
 20
1972.0
 30
0.0
 11
4060.75
 21
1934.0
 31
0.0
  0
ARC
  5
2E6
100
AcDbEntity
  8
LAY-1
  6
CONTINUOUS
 62
     2
100
AcDbCircle
 10
4309.25
 20
1972.0
 30
0.0
 40
4.0
100
AcDbArc
 50
0.0
 51
180.0
  0
ARC
  5
2E7
100
AcDbEntity
  8
LAY-1
  6
CONTINUOUS
 62
     2
100
AcDbCircle
 10
4309.25
 20
1934.0
 30
0.0
 40
4.0
100
AcDbArc
 50
180.0
 51
0.0
  0
LINE
  5
2E8
100
AcDbEntity
  8
LAY-1
  6
CONTINUOUS
 62
     2
100
AcDbLine
 10
4313.25
 20
1972.0
 30
0.0
 11
4313.25
 21
1934.0
 31
0.0
  0
LINE
  5
2E9
100
AcDbEntity
  8
LAY-1
  6
CONTINUOUS
 62
     2
100
AcDbLine
 10
4305.25
 20
1972.0
 30
0.0
 11
4305.25
 21
1934.0
 31
0.0
  0
ARC
  5
2EA
100
AcDbEntity
  8
LAY-1
  6
CONTINUOUS
 62
     2
100
AcDbCircle
 10
4286.25
 20
1972.0
 30
0.0
 40
4.0
100
AcDbArc
 50
0.0
 51
180.0
  0
ARC
  5
2EB
100
AcDbEntity
  8
LAY-1
  6
CONTINUOUS
 62
     2
100
AcDbCircle
 10
4286.25
 20
1934.0
 30
0.0
 40
4.0
100
AcDbArc
 50
180.0
 51
0.0
  0
LINE
  5
2EC
100
AcDbEntity
  8
LAY-1
  6
CONTINUOUS
 62
     2
100
AcDbLine
 10
4290.25
 20
1972.0
 30
0.0
 11
4290.25
 21
1934.0
 31
0.0
  0
LINE
  5
2ED
100
AcDbEntity
  8
LAY-1
  6
CONTINUOUS
 62
     2
100
AcDbLine
 10
4282.25
 20
1972.0
 30
0.0
 11
4282.25
 21
1934.0
 31
0.0
  0
ARC
  5
2EE
100
AcDbEntity
  8
LAY-1
  6
CONTINUOUS
 62
     2
100
AcDbCircle
 10
4263.25
 20
1972.0
 30
0.0
 40
4.0
100
AcDbArc
 50
0.0
 51
180.0
  0
ARC
  5
2EF
100
AcDbEntity
  8
LAY-1
  6
CONTINUOUS
 62
     2
100
AcDbCircle
 10
4263.25
 20
1934.0
 30
0.0
 40
4.0
100
AcDbArc
 50
180.0
 51
0.0
  0
LINE
  5
2F0
100
AcDbEntity
  8
LAY-1
  6
CONTINUOUS
 62
     2
100
AcDbLine
 10
4267.25
 20
1972.0
 30
0.0
 11
4267.25
 21
1934.0
 31
0.0
  0
LINE
  5
2F1
100
AcDbEntity
  8
LAY-1
  6
CONTINUOUS
 62
     2
100
AcDbLine
 10
4259.25
 20
1972.0
 30
0.0
 11
4259.25
 21
1934.0
 31
0.0
  0
ARC
  5
2F2
100
AcDbEntity
  8
LAY-1
  6
CONTINUOUS
 62
     2
100
AcDbCircle
 10
4240.25
 20
1972.0
 30
0.0
 40
4.0
100
AcDbArc
 50
0.0
 51
180.0
  0
ARC
  5
2F3
100
AcDbEntity
  8
LAY-1
  6
CONTINUOUS
 62
     2
100
AcDbCircle
 10
4240.25
 20
1934.0
 30
0.0
 40
4.0
100
AcDbArc
 50
180.0
 51
0.0
  0
LINE
  5
2F4
100
AcDbEntity
  8
LAY-1
  6
CONTINUOUS
 62
     2
100
AcDbLine
 10
4244.25
 20
1972.0
 30
0.0
 11
4244.25
 21
1934.0
 31
0.0
  0
LINE
  5
2F5
100
AcDbEntity
  8
LAY-1
  6
CONTINUOUS
 62
     2
100
AcDbLine
 10
4236.25
 20
1972.0
 30
0.0
 11
4236.25
 21
1934.0
 31
0.0
  0
ARC
  5
2F6
100
AcDbEntity
  8
LAY-1
  6
CONTINUOUS
 62
     2
100
AcDbCircle
 10
4217.25
 20
1972.0
 30
0.0
 40
4.0
100
AcDbArc
 50
0.0
 51
180.0
  0
ARC
  5
2F7
100
AcDbEntity
  8
LAY-1
  6
CONTINUOUS
 62
     2
100
AcDbCircle
 10
4217.25
 20
1934.0
 30
0.0
 40
4.0
100
AcDbArc
 50
180.0
 51
0.0
  0
LINE
  5
2F8
100
AcDbEntity
  8
LAY-1
  6
CONTINUOUS
 62
     2
100
AcDbLine
 10
4221.25
 20
1972.0
 30
0.0
 11
4221.25
 21
1934.0
 31
0.0
  0
LINE
  5
2F9
100
AcDbEntity
  8
LAY-1
  6
CONTINUOUS
 62
     2
100
AcDbLine
 10
4213.25
 20
1972.0
 30
0.0
 11
4213.25
 21
1934.0
 31
0.0
  0
ARC
  5
2FA
100
AcDbEntity
  8
LAY-1
  6
CONTINUOUS
 62
     2
100
AcDbCircle
 10
4194.25
 20
1972.0
 30
0.0
 40
4.0
100
AcDbArc
 50
0.0
 51
180.0
  0
ARC
  5
2FB
100
AcDbEntity
  8
LAY-1
  6
CONTINUOUS
 62
     2
100
AcDbCircle
 10
4194.25
 20
1934.0
 30
0.0
 40
4.0
100
AcDbArc
 50
180.0
 51
0.0
  0
LINE
  5
2FC
100
AcDbEntity
  8
LAY-1
  6
CONTINUOUS
 62
     2
100
AcDbLine
 10
4198.25
 20
1972.0
 30
0.0
 11
4198.25
 21
1934.0
 31
0.0
  0
LINE
  5
2FD
100
AcDbEntity
  8
LAY-1
  6
CONTINUOUS
 62
     2
100
AcDbLine
 10
4190.25
 20
1972.0
 30
0.0
 11
4190.25
 21
1934.0
 31
0.0
  0
ARC
  5
2FE
100
AcDbEntity
  8
LAY-1
  6
CONTINUOUS
 62
     2
100
AcDbCircle
 10
4171.25
 20
1972.0
 30
0.0
 40
4.0
100
AcDbArc
 50
0.0
 51
180.0
  0
ARC
  5
2FF
100
AcDbEntity
  8
LAY-1
  6
CONTINUOUS
 62
     2
100
AcDbCircle
 10
4171.25
 20
1934.0
 30
0.0
 40
4.0
100
AcDbArc
 50
180.0
 51
0.0
  0
LINE
  5
300
100
AcDbEntity
  8
LAY-1
  6
CONTINUOUS
 62
     2
100
AcDbLine
 10
4175.25
 20
1972.0
 30
0.0
 11
4175.25
 21
1934.0
 31
0.0
  0
LINE
  5
301
100
AcDbEntity
  8
LAY-1
  6
CONTINUOUS
 62
     2
100
AcDbLine
 10
4167.25
 20
1972.0
 30
0.0
 11
4167.25
 21
1934.0
 31
0.0
  0
ARC
  5
302
100
AcDbEntity
  8
LAY-1
  6
CONTINUOUS
 62
     2
100
AcDbCircle
 10
4148.25
 20
1972.0
 30
0.0
 40
4.0
100
AcDbArc
 50
0.0
 51
180.0
  0
ARC
  5
303
100
AcDbEntity
  8
LAY-1
  6
CONTINUOUS
 62
     2
100
AcDbCircle
 10
4148.25
 20
1934.0
 30
0.0
 40
4.0
100
AcDbArc
 50
180.0
 51
0.0
  0
LINE
  5
304
100
AcDbEntity
  8
LAY-1
  6
CONTINUOUS
 62
     2
100
AcDbLine
 10
4152.25
 20
1972.0
 30
0.0
 11
4152.25
 21
1934.0
 31
0.0
  0
LINE
  5
305
100
AcDbEntity
  8
LAY-1
  6
CONTINUOUS
 62
     2
100
AcDbLine
 10
4144.25
 20
1972.0
 30
0.0
 11
4144.25
 21
1934.0
 31
0.0
  0
ARC
  5
306
100
AcDbEntity
  8
LAY-1
  6
CONTINUOUS
 62
     2
100
AcDbCircle
 10
4125.25
 20
1972.0
 30
0.0
 40
4.0
100
AcDbArc
 50
0.0
 51
180.0
  0
ARC
  5
307
100
AcDbEntity
  8
LAY-1
  6
CONTINUOUS
 62
     2
100
AcDbCircle
 10
4125.25
 20
1934.0
 30
0.0
 40
4.0
100
AcDbArc
 50
180.0
 51
0.0
  0
LINE
  5
308
100
AcDbEntity
  8
LAY-1
  6
CONTINUOUS
 62
     2
100
AcDbLine
 10
4129.25
 20
1972.0
 30
0.0
 11
4129.25
 21
1934.0
 31
0.0
  0
LINE
  5
309
100
AcDbEntity
  8
LAY-1
  6
CONTINUOUS
 62
     2
100
AcDbLine
 10
4121.25
 20
1972.0
 30
0.0
 11
4121.25
 21
1934.0
 31
0.0
  0
ARC
  5
30A
100
AcDbEntity
  8
LAY-1
  6
CONTINUOUS
 62
     2
100
AcDbCircle
 10
4102.25
 20
1972.0
 30
0.0
 40
4.0
100
AcDbArc
 50
0.0
 51
180.0
  0
ARC
  5
30B
100
AcDbEntity
  8
LAY-1
  6
CONTINUOUS
 62
     2
100
AcDbCircle
 10
4102.25
 20
1934.0
 30
0.0
 40
4.0
100
AcDbArc
 50
180.0
 51
0.0
  0
LINE
  5
30C
100
AcDbEntity
  8
LAY-1
  6
CONTINUOUS
 62
     2
100
AcDbLine
 10
4106.25
 20
1972.0
 30
0.0
 11
4106.25
 21
1934.0
 31
0.0
  0
LINE
  5
30D
100
AcDbEntity
  8
LAY-1
  6
CONTINUOUS
 62
     2
100
AcDbLine
 10
4098.25
 20
1972.0
 30
0.0
 11
4098.25
 21
1934.0
 31
0.0
  0
ARC
  5
30E
100
AcDbEntity
  8
LAY-1
  6
CONTINUOUS
 62
     2
100
AcDbCircle
 10
4079.25
 20
1972.0
 30
0.0
 40
4.0
100
AcDbArc
 50
0.0
 51
180.0
  0
ARC
  5
30F
100
AcDbEntity
  8
LAY-1
  6
CONTINUOUS
 62
     2
100
AcDbCircle
 10
4079.25
 20
1934.0
 30
0.0
 40
4.0
100
AcDbArc
 50
180.0
 51
0.0
  0
LINE
  5
310
100
AcDbEntity
  8
LAY-1
  6
CONTINUOUS
 62
     2
100
AcDbLine
 10
4083.25
 20
1972.0
 30
0.0
 11
4083.25
 21
1934.0
 31
0.0
  0
LINE
  5
311
100
AcDbEntity
  8
LAY-1
  6
CONTINUOUS
 62
     2
100
AcDbLine
 10
4075.25
 20
1972.0
 30
0.0
 11
4075.25
 21
1934.0
 31
0.0
  0
LINE
  5
312
100
AcDbEntity
  8
LAY-1
  6
CONTINUOUS
 62
     2
100
AcDbLine
 10
3873.0
 20
1872.5
 30
0.0
 11
3863.0
 21
1872.5
 31
0.0
  0
LINE
  5
313
100
AcDbEntity
  8
LAY-1
  6
CONTINUOUS
 62
     2
100
AcDbLine
 10
3863.0
 20
1872.5
 30
0.0
 11
3863.0
 21
1766.043561
 31
0.0
  0
LINE
  5
314
100
AcDbEntity
  8
LAY-1
  6
CONTINUOUS
 62
     2
100
AcDbLine
 10
3873.0
 20
1872.5
 30
0.0
 11
3873.0
 21
1766.043561
 31
0.0
  0
ARC
  5
315
100
AcDbEntity
  8
LAY-1
  6
CONTINUOUS
 62
     2
100
AcDbCircle
 10
3868.0
 20
1777.5
 30
0.0
 40
12.5
100
AcDbArc
 50
180.0
 51
0.0
  0
ARC
  5
316
100
AcDbEntity
  8
LAY-1
  6
CONTINUOUS
 62
     2
100
AcDbCircle
 10
3868.0
 20
1872.5
 30
0.0
 40
12.5
100
AcDbArc
 50
0.0
 51
180.0
  0
LINE
  5
317
100
AcDbEntity
  8
LAY-1
  6
CONTINUOUS
 62
     2
100
AcDbLine
 10
3855.5
 20
1872.5
 30
0.0
 11
3855.5
 21
1777.5
 31
0.0
  0
LINE
  5
318
100
AcDbEntity
  8
LAY-1
  6
CONTINUOUS
 62
     2
100
AcDbLine
 10
3880.5
 20
1872.5
 30
0.0
 11
3880.5
 21
1777.5
 31
0.0
  0
LINE
  5
319
100
AcDbEntity
  8
LAY-1
  6
CONTINUOUS
 62
     2
100
AcDbLine
 10
4242.0
 20
2018.2
 30
0.0
 11
4232.0
 21
2018.2
 31
0.0
  0
LINE
  5
31A
100
AcDbEntity
  8
LAY-1
  6
CONTINUOUS
 62
     2
100
AcDbLine
 10
4243.6
 20
2030.0
 30
0.0
 11
4243.6
 21
2016.6
 31
0.0
  0
LINE
  5
31B
100
AcDbEntity
  8
LAY-1
  6
CONTINUOUS
 62
     2
100
AcDbLine
 10
4268.765029
 20
2030.0
 30
0.0
 11
4268.765029
 21
2016.6
 31
0.0
  0
LINE
  5
31C
100
AcDbEntity
  8
LAY-1
  6
CONTINUOUS
 62
     2
100
AcDbLine
 10
4268.765029
 20
2030.0
 30
0.0
 11
4243.6
 21
2030.0
 31
0.0
  0
LINE
  5
31D
100
AcDbEntity
  8
LAY-1
  6
CONTINUOUS
 62
     2
100
AcDbLine
 10
4270.365029
 20
2031.6
 30
0.0
 11
4242.0
 21
2031.6
 31
0.0
  0
LINE
  5
31E
100
AcDbEntity
  8
LAY-1
  6
CONTINUOUS
 62
     2
100
AcDbLine
 10
4282.0
 20
2018.2
 30
0.0
 11
4270.365029
 21
2018.2
 31
0.0
  0
LINE
  5
31F
100
AcDbEntity
  8
LAY-1
  6
CONTINUOUS
 62
     2
100
AcDbLine
 10
4232.0
 20
2018.2
 30
0.0
 11
4232.0
 21
2016.6
 31
0.0
  0
LINE
  5
320
100
AcDbEntity
  8
LAY-1
  6
CONTINUOUS
 62
     2
100
AcDbLine
 10
4242.0
 20
2031.6
 30
0.0
 11
4242.0
 21
2018.2
 31
0.0
  0
LINE
  5
321
100
AcDbEntity
  8
LAY-1
  6
CONTINUOUS
 62
     2
100
AcDbLine
 10
4282.0
 20
2018.2
 30
0.0
 11
4282.0
 21
2016.6
 31
0.0
  0
LINE
  5
322
100
AcDbEntity
  8
LAY-1
  6
CONTINUOUS
 62
     2
100
AcDbLine
 10
4270.365029
 20
2031.6
 30
0.0
 11
4270.365029
 21
2018.2
 31
0.0
  0
LINE
  5
323
100
AcDbEntity
  8
LAY-1
  6
CONTINUOUS
 62
     2
100
AcDbLine
 10
4327.0
 20
2016.6
 30
0.0
 11
4187.0
 21
2016.6
 31
0.0
  0
LINE
  5
324
100
AcDbEntity
  8
LAY-1
  6
CONTINUOUS
 62
     2
100
AcDbLine
 10
4187.0
 20
2016.6
 30
0.0
 11
4187.0
 21
2015.0
 31
0.0
  0
LINE
  5
325
100
AcDbEntity
  8
LAY-1
  6
CONTINUOUS
 62
     2
100
AcDbLine
 10
4327.0
 20
2016.6
 30
0.0
 11
4327.0
 21
2015.0
 31
0.0
  0
LINE
  5
326
100
AcDbEntity
  8
LAY-1
  6
CONTINUOUS
 62
     2
100
AcDbLine
 10
4336.0
 20
2030.0
 30
0.0
 11
4334.0
 21
2015.0
 31
0.0
  0
LINE
  5
327
100
AcDbEntity
  8
LAY-1
  6
CONTINUOUS
 62
     2
100
AcDbLine
 10
4337.742987
 20
2032.178734
 30
0.0
 11
4336.0
 21
2030.0
 31
0.0
  0
LINE
  5
328
100
AcDbEntity
  8
LAY-1
  6
CONTINUOUS
 62
     2
100
AcDbLine
 10
3912.15
 20
2260.921447
 30
0.0
 11
3943.85
 21
2260.921447
 31
0.0
  0
LINE
  5
329
100
AcDbEntity
  8
LAY-1
  6
CONTINUOUS
 62
     2
100
AcDbLine
 10
3912.15
 20
2295.921447
 30
0.0
 11
3943.85
 21
2295.921447
 31
0.0
  0
LINE
  5
32A
100
AcDbEntity
  8
LAY-1
  6
CONTINUOUS
 62
     2
100
AcDbLine
 10
3943.85
 20
2295.921447
 30
0.0
 11
3943.85
 21
2260.921447
 31
0.0
  0
LINE
  5
32B
100
AcDbEntity
  8
LAY-1
  6
CONTINUOUS
 62
     2
100
AcDbLine
 10
3912.15
 20
2295.921447
 30
0.0
 11
3912.15
 21
2260.921447
 31
0.0
  0
LINE
  5
32C
100
AcDbEntity
  8
LAY-1
  6
CONTINUOUS
 62
     2
100
AcDbLine
 10
3938.85
 20
2260.921447
 30
0.0
 11
3938.85
 21
2015.0
 31
0.0
  0
LINE
  5
32D
100
AcDbEntity
  8
LAY-1
  6
CONTINUOUS
 62
     2
100
AcDbLine
 10
3917.15
 20
2260.921447
 30
0.0
 11
3917.15
 21
2015.0
 31
0.0
  0
LINE
  5
32E
100
AcDbEntity
  8
LAY-1
  6
CONTINUOUS
 62
     2
100
AcDbLine
 10
5494.5
 20
1093.0
 30
0.0
 11
4904.5
 21
1093.0
 31
0.0
  0
LINE
  5
32F
100
AcDbEntity
  8
LAY-1
  6
CONTINUOUS
 62
     2
100
AcDbLine
 10
5494.5
 20
1715.0
 30
0.0
 11
5494.5
 21
1093.0
 31
0.0
  0
LINE
  5
330
100
AcDbEntity
  8
LAY-1
  6
CONTINUOUS
 62
     2
100
AcDbLine
 10
4904.5
 20
1715.0
 30
0.0
 11
4904.5
 21
1093.0
 31
0.0
  0
LINE
  5
331
100
AcDbEntity
  8
LAY-1
  6
CONTINUOUS
 62
     2
100
AcDbLine
 10
5464.5
 20
1093.0
 30
0.0
 11
5464.5
 21
1039.5
 31
0.0
  0
LINE
  5
332
100
AcDbEntity
  8
LAY-1
  6
CONTINUOUS
 62
     2
100
AcDbLine
 10
4934.5
 20
1093.0
 30
0.0
 11
4934.5
 21
1039.5
 31
0.0
  0
LINE
  5
333
100
AcDbEntity
  8
LAY-1
  6
CONTINUOUS
 62
     2
100
AcDbLine
 10
5504.5
 20
1039.5
 30
0.0
 11
4894.5
 21
1039.5
 31
0.0
  0
LINE
  5
334
100
AcDbEntity
  8
LAY-1
  6
CONTINUOUS
 62
     2
100
AcDbLine
 10
5504.5
 20
1039.5
 30
0.0
 11
5504.5
 21
1035.0
 31
0.0
  0
LINE
  5
335
100
AcDbEntity
  8
LAY-1
  6
CONTINUOUS
 62
     2
100
AcDbLine
 10
4894.5
 20
1039.5
 30
0.0
 11
4894.5
 21
1035.0
 31
0.0
  0
LINE
  5
336
100
AcDbEntity
  8
LAY-1
  6
CONTINUOUS
 62
     2
100
AcDbLine
 10
5504.5
 20
1035.0
 30
0.0
 11
4894.5
 21
1035.0
 31
0.0
  0
ARC
  5
337
100
AcDbEntity
  8
LAY-1
  6
CONTINUOUS
 62
     2
100
AcDbCircle
 10
5075.5
 20
1435.0
 30
0.0
 40
197.0
100
AcDbArc
 50
171.828766
 51
188.171234
  0
LINE
  5
338
100
AcDbEntity
  8
LAY-1
  6
CONTINUOUS
 62
     2
100
AcDbLine
 10
4890.5
 20
1405.0
 30
0.0
 11
4880.5
 21
1405.0
 31
0.0
  0
LINE
  5
339
100
AcDbEntity
  8
LAY-1
  6
CONTINUOUS
 62
     2
100
AcDbLine
 10
4890.5
 20
1465.0
 30
0.0
 11
4880.5
 21
1465.0
 31
0.0
  0
LINE
  5
33A
100
AcDbEntity
  8
LAY-1
  6
CONTINUOUS
 62
     2
100
AcDbLine
 10
4880.5
 20
1465.0
 30
0.0
 11
4880.5
 21
1405.0
 31
0.0
  0
LINE
  5
33B
100
AcDbEntity
  8
LAY-1
  6
CONTINUOUS
 62
     2
100
AcDbLine
 10
4890.5
 20
1465.0
 30
0.0
 11
4890.5
 21
1405.0
 31
0.0
  0
LINE
  5
33C
100
AcDbEntity
  8
LAY-1
  6
CONTINUOUS
 62
     2
100
AcDbLine
 10
4892.5
 20
1413.5
 30
0.0
 11
4890.5
 21
1413.5
 31
0.0
  0
LINE
  5
33D
100
AcDbEntity
  8
LAY-1
  6
CONTINUOUS
 62
     2
100
AcDbLine
 10
4892.5
 20
1456.5
 30
0.0
 11
4890.5
 21
1456.5
 31
0.0
  0
LINE
  5
33E
100
AcDbEntity
  8
LAY-1
  6
CONTINUOUS
 62
     2
100
AcDbLine
 10
4895.5
 20
1445.5
 30
0.0
 11
4892.5
 21
1445.5
 31
0.0
  0
LINE
  5
33F
100
AcDbEntity
  8
LAY-1
  6
CONTINUOUS
 62
     2
100
AcDbLine
 10
4895.5
 20
1424.5
 30
0.0
 11
4892.5
 21
1424.5
 31
0.0
  0
LINE
  5
340
100
AcDbEntity
  8
LAY-1
  6
CONTINUOUS
 62
     2
100
AcDbLine
 10
4892.5
 20
1456.5
 30
0.0
 11
4892.5
 21
1413.5
 31
0.0
  0
LINE
  5
341
100
AcDbEntity
  8
LAY-1
  6
CONTINUOUS
 62
     2
100
AcDbLine
 10
4904.5
 20
1428.0
 30
0.0
 11
4896.5
 21
1428.0
 31
0.0
  0
LINE
  5
342
100
AcDbEntity
  8
LAY-1
  6
CONTINUOUS
 62
     2
100
AcDbLine
 10
4904.5
 20
1442.0
 30
0.0
 11
4896.5
 21
1442.0
 31
0.0
  0
ARC
  5
343
100
AcDbEntity
  8
LAY-1
  6
CONTINUOUS
 62
     2
100
AcDbCircle
 10
4920.5
 20
1435.0
 30
0.0
 40
25.0
100
AcDbArc
 50
163.739795
 51
196.260205
  0
ARC
  5
344
100
AcDbEntity
  8
LAY-1
  6
CONTINUOUS
 62
     2
100
AcDbCircle
 10
4902.125
 20
1424.5
 30
0.0
 40
6.625
100
AcDbArc
 50
148.109208
 51
211.890792
  0
ARC
  5
345
100
AcDbEntity
  8
LAY-1
  6
CONTINUOUS
 62
     2
100
AcDbCircle
 10
4902.125
 20
1445.5
 30
0.0
 40
6.625
100
AcDbArc
 50
148.109208
 51
211.890792
  0
LINE
  5
346
100
AcDbEntity
  8
LAY-1
  6
CONTINUOUS
 62
     2
100
AcDbLine
 10
4904.5
 20
1421.0
 30
0.0
 11
4896.5
 21
1421.0
 31
0.0
  0
LINE
  5
347
100
AcDbEntity
  8
LAY-1
  6
CONTINUOUS
 62
     2
100
AcDbLine
 10
4904.5
 20
1449.0
 30
0.0
 11
4896.5
 21
1449.0
 31
0.0
  0
LINE
  5
348
100
AcDbEntity
  8
LAY-1
  6
CONTINUOUS
 62
     2
100
AcDbLine
 10
4895.5
 20
1445.5
 30
0.0
 11
4895.5
 21
1424.5
 31
0.0
  0
LINE
  5
349
100
AcDbEntity
  8
LAY-1
  6
CONTINUOUS
 62
     2
100
AcDbLine
 10
5633.5
 20
1850.0
 30
0.0
 11
5633.5
 21
1772.5
 31
0.0
  0
LINE
  5
34A
100
AcDbEntity
  8
LAY-1
  6
CONTINUOUS
 62
     2
100
AcDbLine
 10
5618.5
 20
1850.0
 30
0.0
 11
5618.5
 21
1772.5
 31
0.0
  0
LINE
  5
34B
100
AcDbEntity
  8
LAY-1
  6
CONTINUOUS
 62
     2
100
AcDbLine
 10
5634.5
 20
1872.0
 30
0.0
 11
5633.5
 21
1872.0
 31
0.0
  0
LINE
  5
34C
100
AcDbEntity
  8
LAY-1
  6
CONTINUOUS
 62
     2
100
AcDbLine
 10
5633.5
 20
1850.0
 30
0.0
 11
5618.5
 21
1850.0
 31
0.0
  0
LINE
  5
34D
100
AcDbEntity
  8
LAY-1
  6
CONTINUOUS
 62
     2
100
AcDbLine
 10
5634.5
 20
1928.0
 30
0.0
 11
5634.5
 21
1872.0
 31
0.0
  0
LINE
  5
34E
100
AcDbEntity
  8
LAY-1
  6
CONTINUOUS
 62
     2
100
AcDbLine
 10
5633.5
 20
1950.0
 30
0.0
 11
5633.5
 21
1850.0
 31
0.0
  0
LINE
  5
34F
100
AcDbEntity
  8
LAY-1
  6
CONTINUOUS
 62
     2
100
AcDbLine
 10
5618.5
 20
1950.0
 30
0.0
 11
5618.5
 21
1850.0
 31
0.0
  0
LINE
  5
350
100
AcDbEntity
  8
LAY-1
  6
CONTINUOUS
 62
     2
100
AcDbLine
 10
5633.5
 20
1950.0
 30
0.0
 11
5618.5
 21
1950.0
 31
0.0
  0
LINE
  5
351
100
AcDbEntity
  8
LAY-1
  6
CONTINUOUS
 62
     2
100
AcDbLine
 10
5634.5
 20
1928.0
 30
0.0
 11
5633.5
 21
1928.0
 31
0.0
  0
LINE
  5
352
100
AcDbEntity
  8
LAY-1
  6
CONTINUOUS
 62
     2
100
AcDbLine
 10
5633.5
 20
1772.5
 30
0.0
 11
5618.5
 21
1772.5
 31
0.0
  0
LINE
  5
353
100
AcDbEntity
  8
LAY-1
  6
CONTINUOUS
 62
     2
100
AcDbLine
 10
5634.5
 20
1868.5
 30
0.0
 11
5633.5
 21
1868.5
 31
0.0
  0
LINE
  5
354
100
AcDbEntity
  8
LAY-1
  6
CONTINUOUS
 62
     2
100
AcDbLine
 10
5634.5
 20
1801.5
 30
0.0
 11
5633.5
 21
1801.5
 31
0.0
  0
LINE
  5
355
100
AcDbEntity
  8
LAY-1
  6
CONTINUOUS
 62
     2
100
AcDbLine
 10
5634.5
 20
1868.5
 30
0.0
 11
5634.5
 21
1801.5
 31
0.0
  0
LINE
  5
356
100
AcDbEntity
  8
LAY-1
  6
CONTINUOUS
 62
     2
100
AcDbLine
 10
5528.65
 20
2295.62
 30
0.0
 11
5560.35
 21
2295.62
 31
0.0
  0
LINE
  5
357
100
AcDbEntity
  8
LAY-1
  6
CONTINUOUS
 62
     2
100
AcDbLine
 10
5531.5
 20
1881.12
 30
0.0
 11
5531.5
 21
1886.4
 31
0.0
  0
LINE
  5
358
100
AcDbEntity
  8
LAY-1
  6
CONTINUOUS
 62
     2
100
AcDbLine
 10
5557.5
 20
1886.4
 30
0.0
 11
5557.5
 21
1881.12
 31
0.0
  0
ARC
  5
359
100
AcDbEntity
  8
LAY-1
  6
CONTINUOUS
 62
     2
100
AcDbCircle
 10
5512.770444
 20
1884.977188
 30
0.0
 40
12.0
100
AcDbArc
 50
343.814171
 51
6.809448
  0
ARC
  5
35A
100
AcDbEntity
  8
LAY-1
  6
CONTINUOUS
 62
     2
100
AcDbCircle
 10
5576.229556
 20
1884.977188
 30
0.0
 40
12.0
100
AcDbArc
 50
173.190552
 51
196.185829
  0
LINE
  5
35B
100
AcDbEntity
  8
LAY-1
  6
CONTINUOUS
 62
     2
100
AcDbLine
 10
5531.5
 20
1913.6
 30
0.0
 11
5531.5
 21
1915.12
 31
0.0
  0
LINE
  5
35C
100
AcDbEntity
  8
LAY-1
  6
CONTINUOUS
 62
     2
100
AcDbLine
 10
5557.5
 20
1915.12
 30
0.0
 11
5557.5
 21
1913.6
 31
0.0
  0
LINE
  5
35D
100
AcDbEntity
  8
LAY-1
  6
CONTINUOUS
 62
     2
100
AcDbLine
 10
5535.85
 20
1925.62
 30
0.0
 11
5535.85
 21
1915.12
 31
0.0
  0
LINE
  5
35E
100
AcDbEntity
  8
LAY-1
  6
CONTINUOUS
 62
     2
100
AcDbLine
 10
5553.15
 20
1925.62
 30
0.0
 11
5553.15
 21
1915.12
 31
0.0
  0
LINE
  5
35F
100
AcDbEntity
  8
LAY-1
  6
CONTINUOUS
 62
     2
100
AcDbLine
 10
5557.5
 20
1915.12
 30
0.0
 11
5531.5
 21
1915.12
 31
0.0
  0
ARC
  5
360
100
AcDbEntity
  8
LAY-1
  6
CONTINUOUS
 62
     2
100
AcDbCircle
 10
5512.770444
 20
1911.262812
 30
0.0
 40
12.0
100
AcDbArc
 50
11.231033
 51
16.185829
  0
ARC
  5
361
100
AcDbEntity
  8
LAY-1
  6
CONTINUOUS
 62
     2
100
AcDbCircle
 10
5576.229556
 20
1911.262812
 30
0.0
 40
12.0
100
AcDbArc
 50
163.814171
 51
168.768967
  0
ARC
  5
362
100
AcDbEntity
  8
LAY-1
  6
CONTINUOUS
 62
     2
100
AcDbCircle
 10
5531.357188
 20
1929.849556
 30
0.0
 40
12.0
100
AcDbArc
 50
253.814171
 51
291.658371
  0
ARC
  5
363
100
AcDbEntity
  8
LAY-1
  6
CONTINUOUS
 62
     2
100
AcDbCircle
 10
5531.357188
 20
1866.390444
 30
0.0
 40
12.0
100
AcDbArc
 50
68.341629
 51
106.185829
  0
ARC
  5
364
100
AcDbEntity
  8
LAY-1
  6
CONTINUOUS
 62
     2
100
AcDbCircle
 10
5527.175884
 20
1915.444116
 30
0.0
 40
3.0
100
AcDbArc
 50
73.814171
 51
196.185829
  0
ARC
  5
365
100
AcDbEntity
  8
LAY-1
  6
CONTINUOUS
 62
     2
100
AcDbCircle
 10
5561.824116
 20
1915.444116
 30
0.0
 40
3.0
100
AcDbArc
 50
343.814171
 51
106.185829
  0
LINE
  5
366
100
AcDbEntity
  8
LAY-1
  6
CONTINUOUS
 62
     2
100
AcDbLine
 10
5553.457778
 20
1870.96
 30
0.0
 11
5535.542222
 21
1870.96
 31
0.0
  0
ARC
  5
367
100
AcDbEntity
  8
LAY-1
  6
CONTINUOUS
 62
     2
100
AcDbCircle
 10
5557.642812
 20
1866.390444
 30
0.0
 40
12.0
100
AcDbArc
 50
73.814171
 51
111.658371
  0
LINE
  5
368
100
AcDbEntity
  8
LAY-1
  6
CONTINUOUS
 62
     2
100
AcDbLine
 10
5535.32
 20
1864.96
 30
0.0
 11
5535.918519
 21
1881.12
 31
0.0
  0
LINE
  5
369
100
AcDbEntity
  8
LAY-1
  6
CONTINUOUS
 62
     2
100
AcDbLine
 10
5553.68
 20
1864.96
 30
0.0
 11
5553.081481
 21
1881.12
 31
0.0
  0
LINE
  5
36A
100
AcDbEntity
  8
LAY-1
  6
CONTINUOUS
 62
     2
100
AcDbLine
 10
5557.5
 20
1881.12
 30
0.0
 11
5531.5
 21
1881.12
 31
0.0
  0
ARC
  5
36B
100
AcDbEntity
  8
LAY-1
  6
CONTINUOUS
 62
     2
100
AcDbCircle
 10
5557.642812
 20
1929.849556
 30
0.0
 40
12.0
100
AcDbArc
 50
248.012702
 51
286.185829
  0
LINE
  5
36C
100
AcDbEntity
  8
LAY-1
  6
CONTINUOUS
 62
     2
100
AcDbLine
 10
5553.15
 20
1923.62
 30
0.0
 11
5535.85
 21
1923.62
 31
0.0
  0
ARC
  5
36D
100
AcDbEntity
  8
LAY-1
  6
CONTINUOUS
 62
     2
100
AcDbCircle
 10
5531.75
 20
1935.15125
 30
0.0
 40
9.53125
100
AcDbArc
 50
243.51896
 51
296.48104
  0
ARC
  5
36E
100
AcDbEntity
  8
LAY-1
  6
CONTINUOUS
 62
     2
100
AcDbCircle
 10
5544.5
 20
1962.245
 30
0.0
 40
36.625
100
AcDbArc
 50
256.580326
 51
283.419674
  0
ARC
  5
36F
100
AcDbEntity
  8
LAY-1
  6
CONTINUOUS
 62
     2
100
AcDbCircle
 10
5557.25
 20
1935.15125
 30
0.0
 40
9.53125
100
AcDbArc
 50
243.51896
 51
296.48104
  0
ARC
  5
370
100
AcDbEntity
  8
LAY-1
  6
CONTINUOUS
 62
     2
100
AcDbCircle
 10
5531.75
 20
1961.08875
 30
0.0
 40
9.53125
100
AcDbArc
 50
63.51896
 51
116.48104
  0
ARC
  5
371
100
AcDbEntity
  8
LAY-1
  6
CONTINUOUS
 62
     2
100
AcDbCircle
 10
5544.5
 20
1933.995
 30
0.0
 40
36.625
100
AcDbArc
 50
76.580326
 51
103.419674
  0
ARC
  5
372
100
AcDbEntity
  8
LAY-1
  6
CONTINUOUS
 62
     2
100
AcDbCircle
 10
5557.25
 20
1961.08875
 30
0.0
 40
9.53125
100
AcDbArc
 50
63.51896
 51
116.48104
  0
LINE
  5
373
100
AcDbEntity
  8
LAY-1
  6
CONTINUOUS
 62
     2
100
AcDbLine
 10
5527.5
 20
1971.62
 30
0.0
 11
5527.5
 21
1994.62
 31
0.0
  0
LINE
  5
374
100
AcDbEntity
  8
LAY-1
  6
CONTINUOUS
 62
     2
100
AcDbLine
 10
5527.5
 20
1926.62
 30
0.0
 11
5527.5
 21
1969.62
 31
0.0
  0
LINE
  5
375
100
AcDbEntity
  8
LAY-1
  6
CONTINUOUS
 62
     2
100
AcDbLine
 10
5561.5
 20
1926.62
 30
0.0
 11
5561.5
 21
1969.62
 31
0.0
  0
LINE
  5
376
100
AcDbEntity
  8
LAY-1
  6
CONTINUOUS
 62
     2
100
AcDbLine
 10
5553.0
 20
1926.62
 30
0.0
 11
5553.0
 21
1969.62
 31
0.0
  0
LINE
  5
377
100
AcDbEntity
  8
LAY-1
  6
CONTINUOUS
 62
     2
100
AcDbLine
 10
5536.0
 20
1926.62
 30
0.0
 11
5536.0
 21
1969.62
 31
0.0
  0
ARC
  5
378
100
AcDbEntity
  8
LAY-1
  6
CONTINUOUS
 62
     2
100
AcDbCircle
 10
5531.75
 20
1980.15125
 30
0.0
 40
9.53125
100
AcDbArc
 50
243.51896
 51
296.48104
  0
ARC
  5
379
100
AcDbEntity
  8
LAY-1
  6
CONTINUOUS
 62
     2
100
AcDbCircle
 10
5544.5
 20
2007.245
 30
0.0
 40
36.625
100
AcDbArc
 50
256.580326
 51
283.419674
  0
ARC
  5
37A
100
AcDbEntity
  8
LAY-1
  6
CONTINUOUS
 62
     2
100
AcDbCircle
 10
5557.25
 20
1980.15125
 30
0.0
 40
9.53125
100
AcDbArc
 50
243.51896
 51
296.48104
  0
LINE
  5
37B
100
AcDbEntity
  8
LAY-1
  6
CONTINUOUS
 62
     2
100
AcDbLine
 10
5557.25
 20
1970.62
 30
0.0
 11
5531.75
 21
1970.62
 31
0.0
  0
ARC
  5
37C
100
AcDbEntity
  8
LAY-1
  6
CONTINUOUS
 62
     2
100
AcDbCircle
 10
5531.75
 20
1986.08875
 30
0.0
 40
9.53125
100
AcDbArc
 50
63.51896
 51
116.48104
  0
ARC
  5
37D
100
AcDbEntity
  8
LAY-1
  6
CONTINUOUS
 62
     2
100
AcDbCircle
 10
5544.5
 20
1958.995
 30
0.0
 40
36.625
100
AcDbArc
 50
76.580326
 51
103.419674
  0
ARC
  5
37E
100
AcDbEntity
  8
LAY-1
  6
CONTINUOUS
 62
     2
100
AcDbCircle
 10
5557.25
 20
1986.08875
 30
0.0
 40
9.53125
100
AcDbArc
 50
63.51896
 51
116.48104
  0
LINE
  5
37F
100
AcDbEntity
  8
LAY-1
  6
CONTINUOUS
 62
     2
100
AcDbLine
 10
5561.5
 20
1994.62
 30
0.0
 11
5561.5
 21
1971.62
 31
0.0
  0
LINE
  5
380
100
AcDbEntity
  8
LAY-1
  6
CONTINUOUS
 62
     2
100
AcDbLine
 10
5553.0
 20
1994.62
 30
0.0
 11
5553.0
 21
1971.62
 31
0.0
  0
LINE
  5
381
100
AcDbEntity
  8
LAY-1
  6
CONTINUOUS
 62
     2
100
AcDbLine
 10
5536.0
 20
1994.62
 30
0.0
 11
5536.0
 21
1971.62
 31
0.0
  0
LINE
  5
382
100
AcDbEntity
  8
LAY-1
  6
CONTINUOUS
 62
     2
100
AcDbLine
 10
5557.25
 20
1925.62
 30
0.0
 11
5531.75
 21
1925.62
 31
0.0
  0
LINE
  5
383
100
AcDbEntity
  8
LAY-1
  6
CONTINUOUS
 62
     2
100
AcDbLine
 10
5557.25
 20
1995.62
 30
0.0
 11
5531.75
 21
1995.62
 31
0.0
  0
LINE
  5
384
100
AcDbEntity
  8
LAY-1
  6
CONTINUOUS
 62
     2
100
AcDbLine
 10
5553.68
 20
1864.96
 30
0.0
 11
5535.32
 21
1864.96
 31
0.0
  0
ARC
  5
385
100
AcDbEntity
  8
LAY-1
  6
CONTINUOUS
 62
     2
100
AcDbCircle
 10
5527.175884
 20
1880.795884
 30
0.0
 40
3.0
100
AcDbArc
 50
163.814171
 51
286.185829
  0
ARC
  5
386
100
AcDbEntity
  8
LAY-1
  6
CONTINUOUS
 62
     2
100
AcDbCircle
 10
5561.824116
 20
1880.795884
 30
0.0
 40
3.0
100
AcDbArc
 50
253.814171
 51
16.185829
  0
LINE
  5
387
100
AcDbEntity
  8
LAY-1
  6
CONTINUOUS
 62
     2
100
AcDbLine
 10
5534.24
 20
1856.32
 30
0.0
 11
5529.92
 21
1852.0
 31
0.0
  0
LINE
  5
388
100
AcDbEntity
  8
LAY-1
  6
CONTINUOUS
 62
     2
100
AcDbLine
 10
5554.76
 20
1856.32
 30
0.0
 11
5559.08
 21
1852.0
 31
0.0
  0
LINE
  5
389
100
AcDbEntity
  8
LAY-1
  6
CONTINUOUS
 62
     2
100
AcDbLine
 10
5535.32
 20
1864.96
 30
0.0
 11
5534.24
 21
1864.42
 31
0.0
  0
LINE
  5
38A
100
AcDbEntity
  8
LAY-1
  6
CONTINUOUS
 62
     2
100
AcDbLine
 10
5534.24
 20
1856.32
 30
0.0
 11
5534.24
 21
1864.42
 31
0.0
  0
LINE
  5
38B
100
AcDbEntity
  8
LAY-1
  6
CONTINUOUS
 62
     2
100
AcDbLine
 10
5553.68
 20
1864.96
 30
0.0
 11
5554.76
 21
1864.42
 31
0.0
  0
LINE
  5
38C
100
AcDbEntity
  8
LAY-1
  6
CONTINUOUS
 62
     2
100
AcDbLine
 10
5554.76
 20
1856.32
 30
0.0
 11
5554.76
 21
1864.42
 31
0.0
  0
LINE
  5
38D
100
AcDbEntity
  8
LAY-1
  6
CONTINUOUS
 62
     2
100
AcDbLine
 10
5534.24
 20
1856.32
 30
0.0
 11
5554.76
 21
1856.32
 31
0.0
  0
LINE
  5
38E
100
AcDbEntity
  8
LAY-1
  6
CONTINUOUS
 62
     2
100
AcDbLine
 10
5554.76
 20
1864.42
 30
0.0
 11
5534.24
 21
1864.42
 31
0.0
  0
LINE
  5
38F
100
AcDbEntity
  8
LAY-1
  6
CONTINUOUS
 62
     2
100
AcDbLine
 10
5553.531852
 20
1868.96
 30
0.0
 11
5535.468148
 21
1868.96
 31
0.0
  0
LINE
  5
390
100
AcDbEntity
  8
LAY-1
  6
CONTINUOUS
 62
     2
100
AcDbLine
 10
5553.605926
 20
1866.96
 30
0.0
 11
5535.394074
 21
1866.96
 31
0.0
  0
LINE
  5
391
100
AcDbEntity
  8
LAY-1
  6
CONTINUOUS
 62
     2
100
AcDbLine
 10
5533.65
 20
2260.62
 30
0.0
 11
5533.65
 21
1995.62
 31
0.0
  0
LINE
  5
392
100
AcDbEntity
  8
LAY-1
  6
CONTINUOUS
 62
     2
100
AcDbLine
 10
5555.35
 20
2260.62
 30
0.0
 11
5555.35
 21
1995.62
 31
0.0
  0
LINE
  5
393
100
AcDbEntity
  8
LAY-1
  6
CONTINUOUS
 62
     2
100
AcDbLine
 10
5560.35
 20
2260.62
 30
0.0
 11
5528.65
 21
2260.62
 31
0.0
  0
LINE
  5
394
100
AcDbEntity
  8
LAY-1
  6
CONTINUOUS
 62
     2
100
AcDbLine
 10
5560.35
 20
2295.62
 30
0.0
 11
5560.35
 21
2260.62
 31
0.0
  0
LINE
  5
395
100
AcDbEntity
  8
LAY-1
  6
CONTINUOUS
 62
     2
100
AcDbLine
 10
5528.65
 20
2295.62
 30
0.0
 11
5528.65
 21
2260.62
 31
0.0
  0
LINE
  5
396
100
AcDbEntity
  8
LAY-1
  6
CONTINUOUS
 62
     2
100
AcDbLine
 10
5207.5
 20
2030.0
 30
0.0
 11
5191.5
 21
2030.0
 31
0.0
  0
LINE
  5
397
100
AcDbEntity
  8
LAY-1
  6
CONTINUOUS
 62
     2
100
AcDbLine
 10
5203.5
 20
2035.0
 30
0.0
 11
5195.5
 21
2035.0
 31
0.0
  0
LINE
  5
398
100
AcDbEntity
  8
LAY-1
  6
CONTINUOUS
 62
     2
100
AcDbLine
 10
5191.5
 20
2030.0
 30
0.0
 11
5189.5
 21
2015.0
 31
0.0
  0
LINE
  5
399
100
AcDbEntity
  8
LAY-1
  6
CONTINUOUS
 62
     2
100
AcDbLine
 10
5195.5
 20
2035.0
 30
0.0
 11
5191.5
 21
2030.0
 31
0.0
  0
LINE
  5
39A
100
AcDbEntity
  8
LAY-1
  6
CONTINUOUS
 62
     2
100
AcDbLine
 10
5207.5
 20
2030.0
 30
0.0
 11
5209.5
 21
2015.0
 31
0.0
  0
LINE
  5
39B
100
AcDbEntity
  8
LAY-1
  6
CONTINUOUS
 62
     2
100
AcDbLine
 10
5203.5
 20
2035.0
 30
0.0
 11
5207.5
 21
2030.0
 31
0.0
  0
ARC
  5
39C
100
AcDbEntity
  8
LAY-1
  6
CONTINUOUS
 62
     2
100
AcDbCircle
 10
5199.5
 20
2059.5
 30
0.0
 40
4.0
100
AcDbArc
 50
0.0
 51
180.0
  0
LINE
  5
39D
100
AcDbEntity
  8
LAY-1
  6
CONTINUOUS
 62
     2
100
AcDbLine
 10
5203.5
 20
2059.5
 30
0.0
 11
5203.5
 21
2035.0
 31
0.0
  0
LINE
  5
39E
100
AcDbEntity
  8
LAY-1
  6
CONTINUOUS
 62
     2
100
AcDbLine
 10
5195.5
 20
2059.5
 30
0.0
 11
5195.5
 21
2035.0
 31
0.0
  0
LINE
  5
39F
100
AcDbEntity
  8
LAY-1
  6
CONTINUOUS
 62
     2
100
AcDbLine
 10
5402.5
 20
2031.6
 30
0.0
 11
5384.5
 21
2031.6
 31
0.0
  0
LINE
  5
3A0
100
AcDbEntity
  8
LAY-1
  6
CONTINUOUS
 62
     2
100
AcDbLine
 10
5402.5
 20
2018.2
 30
0.0
 11
5384.5
 21
2018.2
 31
0.0
  0
LINE
  5
3A1
100
AcDbEntity
  8
LAY-1
  6
CONTINUOUS
 62
     2
100
AcDbLine
 10
5402.5
 20
2031.6
 30
0.0
 11
5402.5
 21
2016.6
 31
0.0
  0
LINE
  5
3A2
100
AcDbEntity
  8
LAY-1
  6
CONTINUOUS
 62
     2
100
AcDbLine
 10
5384.5
 20
2031.6
 30
0.0
 11
5384.5
 21
2016.6
 31
0.0
  0
LINE
  5
3A3
100
AcDbEntity
  8
LAY-1
  6
CONTINUOUS
 62
     2
100
AcDbLine
 10
5463.5
 20
2016.6
 30
0.0
 11
5323.5
 21
2016.6
 31
0.0
  0
LINE
  5
3A4
100
AcDbEntity
  8
LAY-1
  6
CONTINUOUS
 62
     2
100
AcDbLine
 10
5463.5
 20
2016.6
 30
0.0
 11
5463.5
 21
2015.0
 31
0.0
  0
LINE
  5
3A5
100
AcDbEntity
  8
LAY-1
  6
CONTINUOUS
 62
     2
100
AcDbLine
 10
5323.5
 20
2016.6
 30
0.0
 11
5323.5
 21
2015.0
 31
0.0
  0
LINE
  5
3A6
100
AcDbEntity
  8
LAY-1
  6
CONTINUOUS
 62
     2
100
AcDbLine
 10
5618.5
 20
1913.6
 30
0.0
 11
5498.5
 21
1913.6
 31
0.0
  0
LINE
  5
3A7
100
AcDbEntity
  8
LAY-1
  6
CONTINUOUS
 62
     2
100
AcDbLine
 10
5618.5
 20
1886.4
 30
0.0
 11
5498.5
 21
1886.4
 31
0.0
  0
LINE
  5
3A8
100
AcDbEntity
  8
LAY-1
  6
CONTINUOUS
 62
     2
100
AcDbLine
 10
5498.5
 20
1715.0
 30
0.0
 11
4900.5
 21
1715.0
 31
0.0
  0
LINE
  5
3A9
100
AcDbEntity
  8
LAY-1
  6
CONTINUOUS
 62
     2
100
AcDbLine
 10
5618.5
 20
1852.0
 30
0.0
 11
5498.5
 21
1852.0
 31
0.0
  0
LINE
  5
3AA
100
AcDbEntity
  8
LAY-1
  6
CONTINUOUS
 62
     2
100
AcDbLine
 10
5618.5
 20
1818.0
 30
0.0
 11
5498.5
 21
1818.0
 31
0.0
  0
LINE
  5
3AB
100
AcDbEntity
  8
LAY-1
  6
CONTINUOUS
 62
     2
100
AcDbLine
 10
5498.5
 20
2015.0
 30
0.0
 11
5498.5
 21
1715.0
 31
0.0
  0
LINE
  5
3AC
100
AcDbEntity
  8
LAY-1
  6
CONTINUOUS
 62
     2
100
AcDbLine
 10
4900.5
 20
2015.0
 30
0.0
 11
4900.5
 21
1715.0
 31
0.0
  0
LINE
  5
3AD
100
AcDbEntity
  8
LAY-1
  6
CONTINUOUS
 62
     2
100
AcDbLine
 10
5498.5
 20
2015.0
 30
0.0
 11
4900.5
 21
2015.0
 31
0.0
  0
LINE
  5
3AE
100
AcDbEntity
  8
LAY-1
  6
CONTINUOUS
 62
     2
100
AcDbLine
 10
2571.0
 20
1093.0
 30
0.0
 11
2571.0
 21
1039.5
 31
0.0
  0
LINE
  5
3AF
100
AcDbEntity
  8
LAY-1
  6
CONTINUOUS
 62
     2
100
AcDbLine
 10
3101.0
 20
1093.0
 30
0.0
 11
3101.0
 21
1039.5
 31
0.0
  0
LINE
  5
3B0
100
AcDbEntity
  8
LAY-1
  6
CONTINUOUS
 62
     2
100
AcDbLine
 10
2531.0
 20
1039.5
 30
0.0
 11
3141.0
 21
1039.5
 31
0.0
  0
LINE
  5
3B1
100
AcDbEntity
  8
LAY-1
  6
CONTINUOUS
 62
     2
100
AcDbLine
 10
2531.0
 20
1039.5
 30
0.0
 11
2531.0
 21
1035.0
 31
0.0
  0
LINE
  5
3B2
100
AcDbEntity
  8
LAY-1
  6
CONTINUOUS
 62
     2
100
AcDbLine
 10
3141.0
 20
1039.5
 30
0.0
 11
3141.0
 21
1035.0
 31
0.0
  0
LINE
  5
3B3
100
AcDbEntity
  8
LAY-1
  6
CONTINUOUS
 62
     2
100
AcDbLine
 10
2531.0
 20
1035.0
 30
0.0
 11
3141.0
 21
1035.0
 31
0.0
  0
LINE
  5
3B4
100
AcDbEntity
  8
LAY-1
  6
CONTINUOUS
 62
     2
100
AcDbLine
 10
2537.0
 20
2015.0
 30
0.0
 11
2537.0
 21
1715.0
 31
0.0
  0
LINE
  5
3B5
100
AcDbEntity
  8
LAY-1
  6
CONTINUOUS
 62
     2
100
AcDbLine
 10
3135.0
 20
2015.0
 30
0.0
 11
3135.0
 21
1715.0
 31
0.0
  0
LINE
  5
3B6
100
AcDbEntity
  8
LAY-1
  6
CONTINUOUS
 62
     2
100
AcDbLine
 10
2537.0
 20
2015.0
 30
0.0
 11
3135.0
 21
2015.0
 31
0.0
  0
ARC
  5
3B7
100
AcDbEntity
  8
LAY-1
  6
CONTINUOUS
 62
     2
100
AcDbCircle
 10
2960.0
 20
1435.0
 30
0.0
 40
197.0
100
AcDbArc
 50
351.828766
 51
8.171234
  0
LINE
  5
3B8
100
AcDbEntity
  8
LAY-1
  6
CONTINUOUS
 62
     2
100
AcDbLine
 10
3145.0
 20
1405.0
 30
0.0
 11
3155.0
 21
1405.0
 31
0.0
  0
LINE
  5
3B9
100
AcDbEntity
  8
LAY-1
  6
CONTINUOUS
 62
     2
100
AcDbLine
 10
3145.0
 20
1465.0
 30
0.0
 11
3155.0
 21
1465.0
 31
0.0
  0
LINE
  5
3BA
100
AcDbEntity
  8
LAY-1
  6
CONTINUOUS
 62
     2
100
AcDbLine
 10
3155.0
 20
1465.0
 30
0.0
 11
3155.0
 21
1405.0
 31
0.0
  0
LINE
  5
3BB
100
AcDbEntity
  8
LAY-1
  6
CONTINUOUS
 62
     2
100
AcDbLine
 10
3145.0
 20
1465.0
 30
0.0
 11
3145.0
 21
1405.0
 31
0.0
  0
LINE
  5
3BC
100
AcDbEntity
  8
LAY-1
  6
CONTINUOUS
 62
     2
100
AcDbLine
 10
3143.0
 20
1413.5
 30
0.0
 11
3145.0
 21
1413.5
 31
0.0
  0
LINE
  5
3BD
100
AcDbEntity
  8
LAY-1
  6
CONTINUOUS
 62
     2
100
AcDbLine
 10
3143.0
 20
1456.5
 30
0.0
 11
3145.0
 21
1456.5
 31
0.0
  0
LINE
  5
3BE
100
AcDbEntity
  8
LAY-1
  6
CONTINUOUS
 62
     2
100
AcDbLine
 10
3140.0
 20
1445.5
 30
0.0
 11
3143.0
 21
1445.5
 31
0.0
  0
LINE
  5
3BF
100
AcDbEntity
  8
LAY-1
  6
CONTINUOUS
 62
     2
100
AcDbLine
 10
3140.0
 20
1424.5
 30
0.0
 11
3143.0
 21
1424.5
 31
0.0
  0
LINE
  5
3C0
100
AcDbEntity
  8
LAY-1
  6
CONTINUOUS
 62
     2
100
AcDbLine
 10
3143.0
 20
1456.5
 30
0.0
 11
3143.0
 21
1413.5
 31
0.0
  0
LINE
  5
3C1
100
AcDbEntity
  8
LAY-1
  6
CONTINUOUS
 62
     2
100
AcDbLine
 10
3131.0
 20
1428.0
 30
0.0
 11
3139.0
 21
1428.0
 31
0.0
  0
LINE
  5
3C2
100
AcDbEntity
  8
LAY-1
  6
CONTINUOUS
 62
     2
100
AcDbLine
 10
3131.0
 20
1442.0
 30
0.0
 11
3139.0
 21
1442.0
 31
0.0
  0
ARC
  5
3C3
100
AcDbEntity
  8
LAY-1
  6
CONTINUOUS
 62
     2
100
AcDbCircle
 10
3115.0
 20
1435.0
 30
0.0
 40
25.0
100
AcDbArc
 50
343.739795
 51
16.260205
  0
ARC
  5
3C4
100
AcDbEntity
  8
LAY-1
  6
CONTINUOUS
 62
     2
100
AcDbCircle
 10
3133.375
 20
1424.5
 30
0.0
 40
6.625
100
AcDbArc
 50
328.109208
 51
31.890792
  0
ARC
  5
3C5
100
AcDbEntity
  8
LAY-1
  6
CONTINUOUS
 62
     2
100
AcDbCircle
 10
3133.375
 20
1445.5
 30
0.0
 40
6.625
100
AcDbArc
 50
328.109208
 51
31.890792
  0
LINE
  5
3C6
100
AcDbEntity
  8
LAY-1
  6
CONTINUOUS
 62
     2
100
AcDbLine
 10
3131.0
 20
1421.0
 30
0.0
 11
3139.0
 21
1421.0
 31
0.0
  0
LINE
  5
3C7
100
AcDbEntity
  8
LAY-1
  6
CONTINUOUS
 62
     2
100
AcDbLine
 10
3131.0
 20
1449.0
 30
0.0
 11
3139.0
 21
1449.0
 31
0.0
  0
LINE
  5
3C8
100
AcDbEntity
  8
LAY-1
  6
CONTINUOUS
 62
     2
100
AcDbLine
 10
3140.0
 20
1445.5
 30
0.0
 11
3140.0
 21
1424.5
 31
0.0
  0
ARC
  5
3C9
100
AcDbEntity
  8
LAY-1
  6
CONTINUOUS
 62
     2
100
AcDbCircle
 10
2931.5
 20
1795.0
 30
0.0
 40
3.0
100
AcDbArc
 50
118.814171
 51
241.185829
  0
LINE
  5
3CA
100
AcDbEntity
  8
LAY-1
  6
CONTINUOUS
 62
     2
100
AcDbLine
 10
2969.955286
 20
1791.5
 30
0.0
 11
2961.5
 21
1791.5
 31
0.0
  0
LINE
  5
3CB
100
AcDbEntity
  8
LAY-1
  6
CONTINUOUS
 62
     2
100
AcDbLine
 10
2959.5
 20
1789.5
 30
0.0
 11
2959.5
 21
1781.044714
 31
0.0
  0
ARC
  5
3CC
100
AcDbEntity
  8
LAY-1
  6
CONTINUOUS
 62
     2
100
AcDbCircle
 10
2961.5
 20
1781.044714
 30
0.0
 40
2.0
100
AcDbArc
 50
180.0
 51
291.510188
  0
ARC
  5
3CD
100
AcDbEntity
  8
LAY-1
  6
CONTINUOUS
 62
     2
100
AcDbCircle
 10
2961.5
 20
1789.5
 30
0.0
 40
2.0
100
AcDbArc
 50
90.0
 51
180.0
  0
ARC
  5
3CE
100
AcDbEntity
  8
LAY-1
  6
CONTINUOUS
 62
     2
100
AcDbCircle
 10
2969.955286
 20
1789.5
 30
0.0
 40
2.0
100
AcDbArc
 50
338.489812
 51
90.0
  0
LINE
  5
3CF
100
AcDbEntity
  8
LAY-1
  6
CONTINUOUS
 62
     2
100
AcDbLine
 10
2952.5
 20
1781.044714
 30
0.0
 11
2952.5
 21
1789.5
 31
0.0
  0
LINE
  5
3D0
100
AcDbEntity
  8
LAY-1
  6
CONTINUOUS
 62
     2
100
AcDbLine
 10
2950.5
 20
1791.5
 30
0.0
 11
2942.044714
 21
1791.5
 31
0.0
  0
ARC
  5
3D1
100
AcDbEntity
  8
LAY-1
  6
CONTINUOUS
 62
     2
100
AcDbCircle
 10
2942.044714
 20
1789.5
 30
0.0
 40
2.0
100
AcDbArc
 50
90.0
 51
201.510188
  0
ARC
  5
3D2
100
AcDbEntity
  8
LAY-1
  6
CONTINUOUS
 62
     2
100
AcDbCircle
 10
2950.5
 20
1789.5
 30
0.0
 40
2.0
100
AcDbArc
 50
0.0
 51
90.0
  0
ARC
  5
3D3
100
AcDbEntity
  8
LAY-1
  6
CONTINUOUS
 62
     2
100
AcDbCircle
 10
2950.5
 20
1781.044714
 30
0.0
 40
2.0
100
AcDbArc
 50
248.489812
 51
0.0
  0
LINE
  5
3D4
100
AcDbEntity
  8
LAY-1
  6
CONTINUOUS
 62
     2
100
AcDbLine
 10
2942.044714
 20
1798.5
 30
0.0
 11
2950.5
 21
1798.5
 31
0.0
  0
LINE
  5
3D5
100
AcDbEntity
  8
LAY-1
  6
CONTINUOUS
 62
     2
100
AcDbLine
 10
2952.5
 20
1800.5
 30
0.0
 11
2952.5
 21
1808.955286
 31
0.0
  0
ARC
  5
3D6
100
AcDbEntity
  8
LAY-1
  6
CONTINUOUS
 62
     2
100
AcDbCircle
 10
2950.5
 20
1808.955286
 30
0.0
 40
2.0
100
AcDbArc
 50
0.0
 51
111.510188
  0
ARC
  5
3D7
100
AcDbEntity
  8
LAY-1
  6
CONTINUOUS
 62
     2
100
AcDbCircle
 10
2950.5
 20
1800.5
 30
0.0
 40
2.0
100
AcDbArc
 50
270.0
 51
0.0
  0
ARC
  5
3D8
100
AcDbEntity
  8
LAY-1
  6
CONTINUOUS
 62
     2
100
AcDbCircle
 10
2942.044714
 20
1800.5
 30
0.0
 40
2.0
100
AcDbArc
 50
158.489812
 51
270.0
  0
ARC
  5
3D9
100
AcDbEntity
  8
LAY-1
  6
CONTINUOUS
 62
     2
100
AcDbCircle
 10
2969.955286
 20
1800.5
 30
0.0
 40
2.0
100
AcDbArc
 50
270.0
 51
21.510188
  0
ARC
  5
3DA
100
AcDbEntity
  8
LAY-1
  6
CONTINUOUS
 62
     2
100
AcDbCircle
 10
2961.5
 20
1800.5
 30
0.0
 40
2.0
100
AcDbArc
 50
180.0
 51
270.0
  0
ARC
  5
3DB
100
AcDbEntity
  8
LAY-1
  6
CONTINUOUS
 62
     2
100
AcDbCircle
 10
2961.5
 20
1808.955286
 30
0.0
 40
2.0
100
AcDbArc
 50
68.489812
 51
180.0
  0
LINE
  5
3DC
100
AcDbEntity
  8
LAY-1
  6
CONTINUOUS
 62
     2
100
AcDbLine
 10
2961.5
 20
1798.5
 30
0.0
 11
2969.955286
 21
1798.5
 31
0.0
  0
LINE
  5
3DD
100
AcDbEntity
  8
LAY-1
  6
CONTINUOUS
 62
     2
100
AcDbLine
 10
2959.5
 20
1808.955286
 30
0.0
 11
2959.5
 21
1800.5
 31
0.0
  0
ARC
  5
3DE
100
AcDbEntity
  8
LAY-1
  6
CONTINUOUS
 62
     2
100
AcDbCircle
 10
2969.142812
 20
1826.729556
 30
0.0
 40
12.0
100
AcDbArc
 50
208.814171
 51
286.185829
  0
ARC
  5
3DF
100
AcDbEntity
  8
LAY-1
  6
CONTINUOUS
 62
     2
100
AcDbCircle
 10
2987.729556
 20
1808.142812
 30
0.0
 40
12.0
100
AcDbArc
 50
163.814171
 51
241.185829
  0
ARC
  5
3E0
100
AcDbEntity
  8
LAY-1
  6
CONTINUOUS
 62
     2
100
AcDbCircle
 10
2987.729556
 20
1781.857188
 30
0.0
 40
12.0
100
AcDbArc
 50
118.814171
 51
196.185829
  0
ARC
  5
3E1
100
AcDbEntity
  8
LAY-1
  6
CONTINUOUS
 62
     2
100
AcDbCircle
 10
2969.142812
 20
1763.270444
 30
0.0
 40
12.0
100
AcDbArc
 50
73.814171
 51
151.185829
  0
ARC
  5
3E2
100
AcDbEntity
  8
LAY-1
  6
CONTINUOUS
 62
     2
100
AcDbCircle
 10
2942.857188
 20
1763.270444
 30
0.0
 40
12.0
100
AcDbArc
 50
28.814171
 51
106.185829
  0
ARC
  5
3E3
100
AcDbEntity
  8
LAY-1
  6
CONTINUOUS
 62
     2
100
AcDbCircle
 10
2924.270444
 20
1781.857188
 30
0.0
 40
12.0
100
AcDbArc
 50
343.814171
 51
61.185829
  0
ARC
  5
3E4
100
AcDbEntity
  8
LAY-1
  6
CONTINUOUS
 62
     2
100
AcDbCircle
 10
2924.270444
 20
1808.142812
 30
0.0
 40
12.0
100
AcDbArc
 50
298.814171
 51
16.185829
  0
ARC
  5
3E5
100
AcDbEntity
  8
LAY-1
  6
CONTINUOUS
 62
     2
100
AcDbCircle
 10
2942.857188
 20
1826.729556
 30
0.0
 40
12.0
100
AcDbArc
 50
253.814171
 51
331.185829
  0
ARC
  5
3E6
100
AcDbEntity
  8
LAY-1
  6
CONTINUOUS
 62
     2
100
AcDbCircle
 10
2973.324116
 20
1812.324116
 30
0.0
 40
3.0
100
AcDbArc
 50
343.814171
 51
106.185829
  0
ARC
  5
3E7
100
AcDbEntity
  8
LAY-1
  6
CONTINUOUS
 62
     2
100
AcDbCircle
 10
2980.5
 20
1795.0
 30
0.0
 40
3.0
100
AcDbArc
 50
298.814171
 51
61.185829
  0
ARC
  5
3E8
100
AcDbEntity
  8
LAY-1
  6
CONTINUOUS
 62
     2
100
AcDbCircle
 10
2973.324116
 20
1777.675884
 30
0.0
 40
3.0
100
AcDbArc
 50
253.814171
 51
16.185829
  0
ARC
  5
3E9
100
AcDbEntity
  8
LAY-1
  6
CONTINUOUS
 62
     2
100
AcDbCircle
 10
2956.0
 20
1770.5
 30
0.0
 40
3.0
100
AcDbArc
 50
208.814171
 51
331.185829
  0
ARC
  5
3EA
100
AcDbEntity
  8
LAY-1
  6
CONTINUOUS
 62
     2
100
AcDbCircle
 10
2938.675884
 20
1777.675884
 30
0.0
 40
3.0
100
AcDbArc
 50
163.814171
 51
286.185829
  0
ARC
  5
3EB
100
AcDbEntity
  8
LAY-1
  6
CONTINUOUS
 62
     2
100
AcDbCircle
 10
2938.675884
 20
1812.324116
 30
0.0
 40
3.0
100
AcDbArc
 50
73.814171
 51
196.185829
  0
ARC
  5
3EC
100
AcDbEntity
  8
LAY-1
  6
CONTINUOUS
 62
     2
100
AcDbCircle
 10
2956.0
 20
1819.5
 30
0.0
 40
3.0
100
AcDbArc
 50
28.814171
 51
151.185829
  0
CIRCLE
  5
3ED
100
AcDbEntity
  8
LAY-1
  6
CONTINUOUS
 62
     2
100
AcDbCircle
 10
2956.0
 20
1795.0
 30
0.0
 40
17.0
  0
CIRCLE
  5
3EE
100
AcDbEntity
  8
LAY-1
  6
CONTINUOUS
 62
     2
100
AcDbCircle
 10
2956.0
 20
1795.0
 30
0.0
 40
5.0
  0
CIRCLE
  5
3EF
100
AcDbEntity
  8
LAY-1
  6
CONTINUOUS
 62
     2
100
AcDbCircle
 10
2956.0
 20
1795.0
 30
0.0
 40
3.0
  0
LINE
  5
3F0
100
AcDbEntity
  8
LAY-1
  6
CONTINUOUS
 62
     2
100
AcDbLine
 10
2417.0
 20
1950.0
 30
0.0
 11
2417.0
 21
1897.5
 31
0.0
  0
LINE
  5
3F1
100
AcDbEntity
  8
LAY-1
  6
CONTINUOUS
 62
     2
100
AcDbLine
 10
2402.0
 20
1950.0
 30
0.0
 11
2402.0
 21
1897.5
 31
0.0
  0
LINE
  5
3F2
100
AcDbEntity
  8
LAY-1
  6
CONTINUOUS
 62
     2
100
AcDbLine
 10
2401.0
 20
1928.0
 30
0.0
 11
2401.0
 21
1868.5
 31
0.0
  0
LINE
  5
3F3
100
AcDbEntity
  8
LAY-1
  6
CONTINUOUS
 62
     2
100
AcDbLine
 10
2402.0
 20
1897.5
 30
0.0
 11
2417.0
 21
1897.5
 31
0.0
  0
LINE
  5
3F4
100
AcDbEntity
  8
LAY-1
  6
CONTINUOUS
 62
     2
100
AcDbLine
 10
2402.0
 20
1772.5
 30
0.0
 11
2417.0
 21
1772.5
 31
0.0
  0
LINE
  5
3F5
100
AcDbEntity
  8
LAY-1
  6
CONTINUOUS
 62
     2
100
AcDbLine
 10
2401.0
 20
1868.5
 30
0.0
 11
2402.0
 21
1868.5
 31
0.0
  0
LINE
  5
3F6
100
AcDbEntity
  8
LAY-1
  6
CONTINUOUS
 62
     2
100
AcDbLine
 10
2401.0
 20
1801.5
 30
0.0
 11
2402.0
 21
1801.5
 31
0.0
  0
LINE
  5
3F7
100
AcDbEntity
  8
LAY-1
  6
CONTINUOUS
 62
     2
100
AcDbLine
 10
2402.0
 20
1897.5
 30
0.0
 11
2402.0
 21
1772.5
 31
0.0
  0
LINE
  5
3F8
100
AcDbEntity
  8
LAY-1
  6
CONTINUOUS
 62
     2
100
AcDbLine
 10
2417.0
 20
1897.5
 30
0.0
 11
2417.0
 21
1772.5
 31
0.0
  0
LINE
  5
3F9
100
AcDbEntity
  8
LAY-1
  6
CONTINUOUS
 62
     2
100
AcDbLine
 10
2481.82
 20
1864.96
 30
0.0
 11
2500.18
 21
1864.96
 31
0.0
  0
LINE
  5
3FA
100
AcDbEntity
  8
LAY-1
  6
CONTINUOUS
 62
     2
100
AcDbLine
 10
2504.955286
 20
1894.62
 30
0.0
 11
2496.5
 21
1894.62
 31
0.0
  0
LINE
  5
3FB
100
AcDbEntity
  8
LAY-1
  6
CONTINUOUS
 62
     2
100
AcDbLine
 10
2494.5
 20
1892.62
 30
0.0
 11
2494.5
 21
1884.164714
 31
0.0
  0
ARC
  5
3FC
100
AcDbEntity
  8
LAY-1
  6
CONTINUOUS
 62
     2
100
AcDbCircle
 10
2496.5
 20
1884.164714
 30
0.0
 40
2.0
100
AcDbArc
 50
180.0
 51
291.510188
  0
ARC
  5
3FD
100
AcDbEntity
  8
LAY-1
  6
CONTINUOUS
 62
     2
100
AcDbCircle
 10
2496.5
 20
1892.62
 30
0.0
 40
2.0
100
AcDbArc
 50
90.0
 51
180.0
  0
ARC
  5
3FE
100
AcDbEntity
  8
LAY-1
  6
CONTINUOUS
 62
     2
100
AcDbCircle
 10
2504.955286
 20
1892.62
 30
0.0
 40
2.0
100
AcDbArc
 50
338.489812
 51
90.0
  0
LINE
  5
3FF
100
AcDbEntity
  8
LAY-1
  6
CONTINUOUS
 62
     2
100
AcDbLine
 10
2487.5
 20
1884.164714
 30
0.0
 11
2487.5
 21
1892.62
 31
0.0
  0
LINE
  5
400
100
AcDbEntity
  8
LAY-1
  6
CONTINUOUS
 62
     2
100
AcDbLine
 10
2485.5
 20
1894.62
 30
0.0
 11
2477.044714
 21
1894.62
 31
0.0
  0
ARC
  5
401
100
AcDbEntity
  8
LAY-1
  6
CONTINUOUS
 62
     2
100
AcDbCircle
 10
2477.044714
 20
1892.62
 30
0.0
 40
2.0
100
AcDbArc
 50
90.0
 51
201.510188
  0
ARC
  5
402
100
AcDbEntity
  8
LAY-1
  6
CONTINUOUS
 62
     2
100
AcDbCircle
 10
2485.5
 20
1892.62
 30
0.0
 40
2.0
100
AcDbArc
 50
0.0
 51
90.0
  0
ARC
  5
403
100
AcDbEntity
  8
LAY-1
  6
CONTINUOUS
 62
     2
100
AcDbCircle
 10
2485.5
 20
1884.164714
 30
0.0
 40
2.0
100
AcDbArc
 50
248.489812
 51
0.0
  0
LINE
  5
404
100
AcDbEntity
  8
LAY-1
  6
CONTINUOUS
 62
     2
100
AcDbLine
 10
2477.044714
 20
1901.62
 30
0.0
 11
2485.5
 21
1901.62
 31
0.0
  0
ARC
  5
405
100
AcDbEntity
  8
LAY-1
  6
CONTINUOUS
 62
     2
100
AcDbCircle
 10
2485.5
 20
1903.62
 30
0.0
 40
2.0
100
AcDbArc
 50
270.0
 51
0.0
  0
ARC
  5
406
100
AcDbEntity
  8
LAY-1
  6
CONTINUOUS
 62
     2
100
AcDbCircle
 10
2477.044714
 20
1903.62
 30
0.0
 40
2.0
100
AcDbArc
 50
158.489812
 51
270.0
  0
ARC
  5
407
100
AcDbEntity
  8
LAY-1
  6
CONTINUOUS
 62
     2
100
AcDbCircle
 10
2504.955286
 20
1903.62
 30
0.0
 40
2.0
100
AcDbArc
 50
270.0
 51
21.510188
  0
ARC
  5
408
100
AcDbEntity
  8
LAY-1
  6
CONTINUOUS
 62
     2
100
AcDbCircle
 10
2496.5
 20
1903.62
 30
0.0
 40
2.0
100
AcDbArc
 50
180.0
 51
270.0
  0
LINE
  5
409
100
AcDbEntity
  8
LAY-1
  6
CONTINUOUS
 62
     2
100
AcDbLine
 10
2496.5
 20
1901.62
 30
0.0
 11
2504.955286
 21
1901.62
 31
0.0
  0
ARC
  5
40A
100
AcDbEntity
  8
LAY-1
  6
CONTINUOUS
 62
     2
100
AcDbCircle
 10
2522.729556
 20
1911.262812
 30
0.0
 40
12.0
100
AcDbArc
 50
163.814171
 51
241.185829
  0
ARC
  5
40B
100
AcDbEntity
  8
LAY-1
  6
CONTINUOUS
 62
     2
100
AcDbCircle
 10
2522.729556
 20
1884.977188
 30
0.0
 40
12.0
100
AcDbArc
 50
118.814171
 51
196.185829
  0
ARC
  5
40C
100
AcDbEntity
  8
LAY-1
  6
CONTINUOUS
 62
     2
100
AcDbCircle
 10
2504.142812
 20
1866.390444
 30
0.0
 40
12.0
100
AcDbArc
 50
73.814171
 51
151.185829
  0
ARC
  5
40D
100
AcDbEntity
  8
LAY-1
  6
CONTINUOUS
 62
     2
100
AcDbCircle
 10
2477.857188
 20
1866.390444
 30
0.0
 40
12.0
100
AcDbArc
 50
28.814171
 51
106.185829
  0
ARC
  5
40E
100
AcDbEntity
  8
LAY-1
  6
CONTINUOUS
 62
     2
100
AcDbCircle
 10
2459.270444
 20
1884.977188
 30
0.0
 40
12.0
100
AcDbArc
 50
343.814171
 51
61.185829
  0
ARC
  5
40F
100
AcDbEntity
  8
LAY-1
  6
CONTINUOUS
 62
     2
100
AcDbCircle
 10
2459.270444
 20
1911.262812
 30
0.0
 40
12.0
100
AcDbArc
 50
298.814171
 51
16.185829
  0
ARC
  5
410
100
AcDbEntity
  8
LAY-1
  6
CONTINUOUS
 62
     2
100
AcDbCircle
 10
2515.5
 20
1898.12
 30
0.0
 40
3.0
100
AcDbArc
 50
298.814171
 51
61.185829
  0
ARC
  5
411
100
AcDbEntity
  8
LAY-1
  6
CONTINUOUS
 62
     2
100
AcDbCircle
 10
2508.324116
 20
1880.795884
 30
0.0
 40
3.0
100
AcDbArc
 50
253.814171
 51
16.185829
  0
ARC
  5
412
100
AcDbEntity
  8
LAY-1
  6
CONTINUOUS
 62
     2
100
AcDbCircle
 10
2491.0
 20
1873.62
 30
0.0
 40
3.0
100
AcDbArc
 50
208.814171
 51
331.185829
  0
ARC
  5
413
100
AcDbEntity
  8
LAY-1
  6
CONTINUOUS
 62
     2
100
AcDbCircle
 10
2473.675884
 20
1880.795884
 30
0.0
 40
3.0
100
AcDbArc
 50
163.814171
 51
286.185829
  0
ARC
  5
414
100
AcDbEntity
  8
LAY-1
  6
CONTINUOUS
 62
     2
100
AcDbCircle
 10
2466.5
 20
1898.12
 30
0.0
 40
3.0
100
AcDbArc
 50
118.814171
 51
241.185829
  0
CIRCLE
  5
415
100
AcDbEntity
  8
LAY-1
  6
CONTINUOUS
 62
     2
100
AcDbCircle
 10
2491.0
 20
1898.12
 30
0.0
 40
17.0
  0
CIRCLE
  5
416
100
AcDbEntity
  8
LAY-1
  6
CONTINUOUS
 62
     2
100
AcDbCircle
 10
2491.0
 20
1898.12
 30
0.0
 40
5.0
  0
CIRCLE
  5
417
100
AcDbEntity
  8
LAY-1
  6
CONTINUOUS
 62
     2
100
AcDbCircle
 10
2491.0
 20
1898.12
 30
0.0
 40
3.0
  0
LINE
  5
418
100
AcDbEntity
  8
LAY-1
  6
CONTINUOUS
 62
     2
100
AcDbLine
 10
2501.26
 20
1856.32
 30
0.0
 11
2505.58
 21
1852.0
 31
0.0
  0
LINE
  5
419
100
AcDbEntity
  8
LAY-1
  6
CONTINUOUS
 62
     2
100
AcDbLine
 10
2480.74
 20
1856.32
 30
0.0
 11
2476.42
 21
1852.0
 31
0.0
  0
LINE
  5
41A
100
AcDbEntity
  8
LAY-1
  6
CONTINUOUS
 62
     2
100
AcDbLine
 10
2500.18
 20
1864.96
 30
0.0
 11
2501.26
 21
1864.42
 31
0.0
  0
LINE
  5
41B
100
AcDbEntity
  8
LAY-1
  6
CONTINUOUS
 62
     2
100
AcDbLine
 10
2501.26
 20
1856.32
 30
0.0
 11
2501.26
 21
1864.42
 31
0.0
  0
LINE
  5
41C
100
AcDbEntity
  8
LAY-1
  6
CONTINUOUS
 62
     2
100
AcDbLine
 10
2481.82
 20
1864.96
 30
0.0
 11
2480.74
 21
1864.42
 31
0.0
  0
LINE
  5
41D
100
AcDbEntity
  8
LAY-1
  6
CONTINUOUS
 62
     2
100
AcDbLine
 10
2480.74
 20
1856.32
 30
0.0
 11
2480.74
 21
1864.42
 31
0.0
  0
LINE
  5
41E
100
AcDbEntity
  8
LAY-1
  6
CONTINUOUS
 62
     2
100
AcDbLine
 10
2501.26
 20
1856.32
 30
0.0
 11
2480.74
 21
1856.32
 31
0.0
  0
LINE
  5
41F
100
AcDbEntity
  8
LAY-1
  6
CONTINUOUS
 62
     2
100
AcDbLine
 10
2480.74
 20
1864.42
 30
0.0
 11
2501.26
 21
1864.42
 31
0.0
  0
LINE
  5
420
100
AcDbEntity
  8
LAY-1
  6
CONTINUOUS
 62
     2
100
AcDbLine
 10
2481.82
 20
1864.96
 30
0.0
 11
2482.286047
 21
1877.543256
 31
0.0
  0
LINE
  5
421
100
AcDbEntity
  8
LAY-1
  6
CONTINUOUS
 62
     2
100
AcDbLine
 10
2500.18
 20
1864.96
 30
0.0
 11
2499.713953
 21
1877.543256
 31
0.0
  0
LINE
  5
422
100
AcDbEntity
  8
LAY-1
  6
CONTINUOUS
 62
     2
100
AcDbLine
 10
2492.387227
 20
1870.96
 30
0.0
 11
2499.957778
 21
1870.96
 31
0.0
  0
LINE
  5
423
100
AcDbEntity
  8
LAY-1
  6
CONTINUOUS
 62
     2
100
AcDbLine
 10
2482.042222
 20
1870.96
 30
0.0
 11
2489.612773
 21
1870.96
 31
0.0
  0
LINE
  5
424
100
AcDbEntity
  8
LAY-1
  6
CONTINUOUS
 62
     2
100
AcDbLine
 10
2481.968148
 20
1868.96
 30
0.0
 11
2500.031852
 21
1868.96
 31
0.0
  0
LINE
  5
425
100
AcDbEntity
  8
LAY-1
  6
CONTINUOUS
 62
     2
100
AcDbLine
 10
2481.894074
 20
1866.96
 30
0.0
 11
2500.105926
 21
1866.96
 31
0.0
  0
LINE
  5
426
100
AcDbEntity
  8
LAY-1
  6
CONTINUOUS
 62
     2
100
AcDbLine
 10
2417.0
 20
1852.0
 30
0.0
 11
2537.0
 21
1852.0
 31
0.0
  0
LINE
  5
427
100
AcDbEntity
  8
LAY-1
  6
CONTINUOUS
 62
     2
100
AcDbLine
 10
2417.0
 20
1818.0
 30
0.0
 11
2537.0
 21
1818.0
 31
0.0
  0
LINE
  5
428
100
AcDbEntity
  8
LAY-1
  6
CONTINUOUS
 62
     2
100
AcDbLine
 10
2511.741359
 20
1886.4
 30
0.0
 11
2537.0
 21
1886.4
 31
0.0
  0
LINE
  5
429
100
AcDbEntity
  8
LAY-1
  6
CONTINUOUS
 62
     2
100
AcDbLine
 10
2417.0
 20
1886.4
 30
0.0
 11
2470.258641
 21
1886.4
 31
0.0
  0
LINE
  5
42A
100
AcDbEntity
  8
LAY-1
  6
CONTINUOUS
 62
     2
100
AcDbLine
 10
2541.0
 20
1715.0
 30
0.0
 11
2541.0
 21
1093.0
 31
0.0
  0
LINE
  5
42B
100
AcDbEntity
  8
LAY-1
  6
CONTINUOUS
 62
     2
100
AcDbLine
 10
3131.0
 20
1715.0
 30
0.0
 11
3131.0
 21
1093.0
 31
0.0
  0
LINE
  5
42C
100
AcDbEntity
  8
LAY-1
  6
CONTINUOUS
 62
     2
100
AcDbLine
 10
2976.0
 20
1715.0
 30
0.0
 11
3135.0
 21
1715.0
 31
0.0
  0
LINE
  5
42D
100
AcDbEntity
  8
LAY-1
  6
CONTINUOUS
 62
     2
100
AcDbLine
 10
2936.0
 20
1776.319549
 30
0.0
 11
2936.0
 21
1715.0
 31
0.0
  0
LINE
  5
42E
100
AcDbEntity
  8
LAY-1
  6
CONTINUOUS
 62
     2
100
AcDbLine
 10
2976.0
 20
1776.319549
 30
0.0
 11
2976.0
 21
1715.0
 31
0.0
  0
LINE
  5
42F
100
AcDbEntity
  8
LAY-1
  6
CONTINUOUS
 62
     2
100
AcDbLine
 10
2537.0
 20
1715.0
 30
0.0
 11
2936.0
 21
1715.0
 31
0.0
  0
LINE
  5
430
100
AcDbEntity
  8
LAY-1
  6
CONTINUOUS
 62
     2
100
AcDbLine
 10
2401.0
 20
1868.5
 30
0.0
 11
2401.0
 21
1801.5
 31
0.0
  0
LINE
  5
431
100
AcDbEntity
  8
LAY-1
  6
CONTINUOUS
 62
     2
100
AcDbLine
 10
2506.85
 20
2295.62
 30
0.0
 11
2506.85
 21
2260.62
 31
0.0
  0
LINE
  5
432
100
AcDbEntity
  8
LAY-1
  6
CONTINUOUS
 62
     2
100
AcDbLine
 10
2475.15
 20
2295.62
 30
0.0
 11
2475.15
 21
2260.62
 31
0.0
  0
LINE
  5
433
100
AcDbEntity
  8
LAY-1
  6
CONTINUOUS
 62
     2
100
AcDbLine
 10
2475.15
 20
2260.62
 30
0.0
 11
2506.85
 21
2260.62
 31
0.0
  0
LINE
  5
434
100
AcDbEntity
  8
LAY-1
  6
CONTINUOUS
 62
     2
100
AcDbLine
 10
2475.15
 20
2295.62
 30
0.0
 11
2506.85
 21
2295.62
 31
0.0
  0
LINE
  5
435
100
AcDbEntity
  8
LAY-1
  6
CONTINUOUS
 62
     2
100
AcDbLine
 10
2480.15
 20
2260.62
 30
0.0
 11
2480.15
 21
1995.62
 31
0.0
  0
LINE
  5
436
100
AcDbEntity
  8
LAY-1
  6
CONTINUOUS
 62
     2
100
AcDbLine
 10
2501.85
 20
2260.62
 30
0.0
 11
2501.85
 21
1995.62
 31
0.0
  0
LINE
  5
437
100
AcDbEntity
  8
LAY-1
  6
CONTINUOUS
 62
     2
100
AcDbLine
 10
2508.0
 20
1971.62
 30
0.0
 11
2508.0
 21
1994.62
 31
0.0
  0
ARC
  5
438
100
AcDbEntity
  8
LAY-1
  6
CONTINUOUS
 62
     2
100
AcDbCircle
 10
2503.75
 20
1986.08875
 30
0.0
 40
9.53125
100
AcDbArc
 50
63.51896
 51
116.48104
  0
ARC
  5
439
100
AcDbEntity
  8
LAY-1
  6
CONTINUOUS
 62
     2
100
AcDbCircle
 10
2491.0
 20
1958.995
 30
0.0
 40
36.625
100
AcDbArc
 50
76.580326
 51
103.419674
  0
ARC
  5
43A
100
AcDbEntity
  8
LAY-1
  6
CONTINUOUS
 62
     2
100
AcDbCircle
 10
2478.25
 20
1986.08875
 30
0.0
 40
9.53125
100
AcDbArc
 50
63.51896
 51
116.48104
  0
LINE
  5
43B
100
AcDbEntity
  8
LAY-1
  6
CONTINUOUS
 62
     2
100
AcDbLine
 10
2474.0
 20
1994.62
 30
0.0
 11
2474.0
 21
1971.62
 31
0.0
  0
LINE
  5
43C
100
AcDbEntity
  8
LAY-1
  6
CONTINUOUS
 62
     2
100
AcDbLine
 10
2482.5
 20
1994.62
 30
0.0
 11
2482.5
 21
1971.62
 31
0.0
  0
LINE
  5
43D
100
AcDbEntity
  8
LAY-1
  6
CONTINUOUS
 62
     2
100
AcDbLine
 10
2499.5
 20
1994.62
 30
0.0
 11
2499.5
 21
1971.62
 31
0.0
  0
LINE
  5
43E
100
AcDbEntity
  8
LAY-1
  6
CONTINUOUS
 62
     2
100
AcDbLine
 10
2478.25
 20
1995.62
 30
0.0
 11
2503.75
 21
1995.62
 31
0.0
  0
LINE
  5
43F
100
AcDbEntity
  8
LAY-1
  6
CONTINUOUS
 62
     2
100
AcDbLine
 10
2633.0
 20
2031.6
 30
0.0
 11
2651.0
 21
2031.6
 31
0.0
  0
LINE
  5
440
100
AcDbEntity
  8
LAY-1
  6
CONTINUOUS
 62
     2
100
AcDbLine
 10
2633.0
 20
2018.2
 30
0.0
 11
2651.0
 21
2018.2
 31
0.0
  0
LINE
  5
441
100
AcDbEntity
  8
LAY-1
  6
CONTINUOUS
 62
     2
100
AcDbLine
 10
2633.0
 20
2031.6
 30
0.0
 11
2633.0
 21
2016.6
 31
0.0
  0
LINE
  5
442
100
AcDbEntity
  8
LAY-1
  6
CONTINUOUS
 62
     2
100
AcDbLine
 10
2651.0
 20
2031.6
 30
0.0
 11
2651.0
 21
2016.6
 31
0.0
  0
LINE
  5
443
100
AcDbEntity
  8
LAY-1
  6
CONTINUOUS
 62
     2
100
AcDbLine
 10
2572.0
 20
2016.6
 30
0.0
 11
2712.0
 21
2016.6
 31
0.0
  0
LINE
  5
444
100
AcDbEntity
  8
LAY-1
  6
CONTINUOUS
 62
     2
100
AcDbLine
 10
2572.0
 20
2016.6
 30
0.0
 11
2572.0
 21
2015.0
 31
0.0
  0
LINE
  5
445
100
AcDbEntity
  8
LAY-1
  6
CONTINUOUS
 62
     2
100
AcDbLine
 10
2712.0
 20
2016.6
 30
0.0
 11
2712.0
 21
2015.0
 31
0.0
  0
LINE
  5
446
100
AcDbEntity
  8
LAY-1
  6
CONTINUOUS
 62
     2
100
AcDbLine
 10
2828.0
 20
2030.0
 30
0.0
 11
2844.0
 21
2030.0
 31
0.0
  0
LINE
  5
447
100
AcDbEntity
  8
LAY-1
  6
CONTINUOUS
 62
     2
100
AcDbLine
 10
2832.0
 20
2035.0
 30
0.0
 11
2840.0
 21
2035.0
 31
0.0
  0
LINE
  5
448
100
AcDbEntity
  8
LAY-1
  6
CONTINUOUS
 62
     2
100
AcDbLine
 10
2844.0
 20
2030.0
 30
0.0
 11
2846.0
 21
2015.0
 31
0.0
  0
LINE
  5
449
100
AcDbEntity
  8
LAY-1
  6
CONTINUOUS
 62
     2
100
AcDbLine
 10
2840.0
 20
2035.0
 30
0.0
 11
2844.0
 21
2030.0
 31
0.0
  0
LINE
  5
44A
100
AcDbEntity
  8
LAY-1
  6
CONTINUOUS
 62
     2
100
AcDbLine
 10
2828.0
 20
2030.0
 30
0.0
 11
2826.0
 21
2015.0
 31
0.0
  0
LINE
  5
44B
100
AcDbEntity
  8
LAY-1
  6
CONTINUOUS
 62
     2
100
AcDbLine
 10
2832.0
 20
2035.0
 30
0.0
 11
2828.0
 21
2030.0
 31
0.0
  0
ARC
  5
44C
100
AcDbEntity
  8
LAY-1
  6
CONTINUOUS
 62
     2
100
AcDbCircle
 10
2836.0
 20
2059.5
 30
0.0
 40
4.0
100
AcDbArc
 50
0.0
 51
180.0
  0
LINE
  5
44D
100
AcDbEntity
  8
LAY-1
  6
CONTINUOUS
 62
     2
100
AcDbLine
 10
2832.0
 20
2059.5
 30
0.0
 11
2832.0
 21
2035.0
 31
0.0
  0
LINE
  5
44E
100
AcDbEntity
  8
LAY-1
  6
CONTINUOUS
 62
     2
100
AcDbLine
 10
2840.0
 20
2059.5
 30
0.0
 11
2840.0
 21
2035.0
 31
0.0
  0
LINE
  5
44F
100
AcDbEntity
  8
LAY-1
  6
CONTINUOUS
 62
     2
100
AcDbLine
 10
2402.0
 20
1950.0
 30
0.0
 11
2417.0
 21
1950.0
 31
0.0
  0
LINE
  5
450
100
AcDbEntity
  8
LAY-1
  6
CONTINUOUS
 62
     2
100
AcDbLine
 10
2401.0
 20
1928.0
 30
0.0
 11
2402.0
 21
1928.0
 31
0.0
  0
LINE
  5
451
100
AcDbEntity
  8
LAY-1
  6
CONTINUOUS
 62
     2
100
AcDbLine
 10
2493.886467
 20
1923.62
 30
0.0
 11
2499.65
 21
1923.62
 31
0.0
  0
ARC
  5
452
100
AcDbEntity
  8
LAY-1
  6
CONTINUOUS
 62
     2
100
AcDbCircle
 10
2503.75
 20
1935.15125
 30
0.0
 40
9.53125
100
AcDbArc
 50
243.51896
 51
296.48104
  0
ARC
  5
453
100
AcDbEntity
  8
LAY-1
  6
CONTINUOUS
 62
     2
100
AcDbCircle
 10
2491.0
 20
1962.245
 30
0.0
 40
36.625
100
AcDbArc
 50
256.580326
 51
283.419674
  0
ARC
  5
454
100
AcDbEntity
  8
LAY-1
  6
CONTINUOUS
 62
     2
100
AcDbCircle
 10
2478.25
 20
1935.15125
 30
0.0
 40
9.53125
100
AcDbArc
 50
243.51896
 51
296.48104
  0
ARC
  5
455
100
AcDbEntity
  8
LAY-1
  6
CONTINUOUS
 62
     2
100
AcDbCircle
 10
2503.75
 20
1961.08875
 30
0.0
 40
9.53125
100
AcDbArc
 50
63.51896
 51
116.48104
  0
ARC
  5
456
100
AcDbEntity
  8
LAY-1
  6
CONTINUOUS
 62
     2
100
AcDbCircle
 10
2491.0
 20
1933.995
 30
0.0
 40
36.625
100
AcDbArc
 50
76.580326
 51
103.419674
  0
ARC
  5
457
100
AcDbEntity
  8
LAY-1
  6
CONTINUOUS
 62
     2
100
AcDbCircle
 10
2478.25
 20
1961.08875
 30
0.0
 40
9.53125
100
AcDbArc
 50
63.51896
 51
116.48104
  0
LINE
  5
458
100
AcDbEntity
  8
LAY-1
  6
CONTINUOUS
 62
     2
100
AcDbLine
 10
2508.0
 20
1926.62
 30
0.0
 11
2508.0
 21
1969.62
 31
0.0
  0
LINE
  5
459
100
AcDbEntity
  8
LAY-1
  6
CONTINUOUS
 62
     2
100
AcDbLine
 10
2474.0
 20
1926.62
 30
0.0
 11
2474.0
 21
1969.62
 31
0.0
  0
LINE
  5
45A
100
AcDbEntity
  8
LAY-1
  6
CONTINUOUS
 62
     2
100
AcDbLine
 10
2482.5
 20
1926.62
 30
0.0
 11
2482.5
 21
1969.62
 31
0.0
  0
LINE
  5
45B
100
AcDbEntity
  8
LAY-1
  6
CONTINUOUS
 62
     2
100
AcDbLine
 10
2499.5
 20
1926.62
 30
0.0
 11
2499.5
 21
1969.62
 31
0.0
  0
ARC
  5
45C
100
AcDbEntity
  8
LAY-1
  6
CONTINUOUS
 62
     2
100
AcDbCircle
 10
2503.75
 20
1980.15125
 30
0.0
 40
9.53125
100
AcDbArc
 50
243.51896
 51
296.48104
  0
ARC
  5
45D
100
AcDbEntity
  8
LAY-1
  6
CONTINUOUS
 62
     2
100
AcDbCircle
 10
2491.0
 20
2007.245
 30
0.0
 40
36.625
100
AcDbArc
 50
256.580326
 51
283.419674
  0
ARC
  5
45E
100
AcDbEntity
  8
LAY-1
  6
CONTINUOUS
 62
     2
100
AcDbCircle
 10
2478.25
 20
1980.15125
 30
0.0
 40
9.53125
100
AcDbArc
 50
243.51896
 51
296.48104
  0
LINE
  5
45F
100
AcDbEntity
  8
LAY-1
  6
CONTINUOUS
 62
     2
100
AcDbLine
 10
2478.25
 20
1970.62
 30
0.0
 11
2503.75
 21
1970.62
 31
0.0
  0
LINE
  5
460
100
AcDbEntity
  8
LAY-1
  6
CONTINUOUS
 62
     2
100
AcDbLine
 10
2499.65
 20
1925.62
 30
0.0
 11
2499.65
 21
1918.722354
 31
0.0
  0
LINE
  5
461
100
AcDbEntity
  8
LAY-1
  6
CONTINUOUS
 62
     2
100
AcDbLine
 10
2482.35
 20
1925.62
 30
0.0
 11
2482.35
 21
1918.722354
 31
0.0
  0
LINE
  5
462
100
AcDbEntity
  8
LAY-1
  6
CONTINUOUS
 62
     2
100
AcDbLine
 10
2482.35
 20
1923.62
 30
0.0
 11
2488.113533
 21
1923.62
 31
0.0
  0
LINE
  5
463
100
AcDbEntity
  8
LAY-1
  6
CONTINUOUS
 62
     2
100
AcDbLine
 10
2478.25
 20
1925.62
 30
0.0
 11
2503.75
 21
1925.62
 31
0.0
  0
LINE
  5
464
100
AcDbEntity
  8
LAY-1
  6
CONTINUOUS
 62
     2
100
AcDbLine
 10
2487.5
 20
1903.62
 30
0.0
 11
2487.5
 21
1912.075286
 31
0.0
  0
ARC
  5
465
100
AcDbEntity
  8
LAY-1
  6
CONTINUOUS
 62
     2
100
AcDbCircle
 10
2485.5
 20
1912.075286
 30
0.0
 40
2.0
100
AcDbArc
 50
0.0
 51
111.510188
  0
ARC
  5
466
100
AcDbEntity
  8
LAY-1
  6
CONTINUOUS
 62
     2
100
AcDbCircle
 10
2496.5
 20
1912.075286
 30
0.0
 40
2.0
100
AcDbArc
 50
68.489812
 51
180.0
  0
LINE
  5
467
100
AcDbEntity
  8
LAY-1
  6
CONTINUOUS
 62
     2
100
AcDbLine
 10
2494.5
 20
1912.075286
 30
0.0
 11
2494.5
 21
1903.62
 31
0.0
  0
ARC
  5
468
100
AcDbEntity
  8
LAY-1
  6
CONTINUOUS
 62
     2
100
AcDbCircle
 10
2504.142812
 20
1929.849556
 30
0.0
 40
12.0
100
AcDbArc
 50
208.814171
 51
286.185829
  0
ARC
  5
469
100
AcDbEntity
  8
LAY-1
  6
CONTINUOUS
 62
     2
100
AcDbCircle
 10
2477.857188
 20
1929.849556
 30
0.0
 40
12.0
100
AcDbArc
 50
253.814171
 51
331.185829
  0
ARC
  5
46A
100
AcDbEntity
  8
LAY-1
  6
CONTINUOUS
 62
     2
100
AcDbCircle
 10
2508.324116
 20
1915.444116
 30
0.0
 40
3.0
100
AcDbArc
 50
343.814171
 51
106.185829
  0
ARC
  5
46B
100
AcDbEntity
  8
LAY-1
  6
CONTINUOUS
 62
     2
100
AcDbCircle
 10
2473.675884
 20
1915.444116
 30
0.0
 40
3.0
100
AcDbArc
 50
73.814171
 51
196.185829
  0
ARC
  5
46C
100
AcDbEntity
  8
LAY-1
  6
CONTINUOUS
 62
     2
100
AcDbCircle
 10
2491.0
 20
1922.62
 30
0.0
 40
3.0
100
AcDbArc
 50
28.814171
 51
151.185829
  0
LINE
  5
46D
100
AcDbEntity
  8
LAY-1
  6
CONTINUOUS
 62
     2
100
AcDbLine
 10
2510.889116
 20
1913.6
 30
0.0
 11
2537.0
 21
1913.6
 31
0.0
  0
LINE
  5
46E
100
AcDbEntity
  8
LAY-1
  6
CONTINUOUS
 62
     2
100
AcDbLine
 10
2417.0
 20
1913.6
 30
0.0
 11
2471.110884
 21
1913.6
 31
0.0
  0
INSERT
  5
46F
100
AcDbEntity
  8
LAY-1
  6
CONTINUOUS
 62
     0
100
AcDbBlockReference
  2
SYM-1
 10
4258.0
 20
3782.7
 30
0.0
 41
15.0
 42
15.0
 50
270.0
  0
INSERT
  5
470
100
AcDbEntity
  8
LAY-1
  6
CONTINUOUS
 62
     0
100
AcDbBlockReference
  2
SYM-1
 10
3878.0
 20
4080.45
 30
0.0
 41
15.0
 42
15.0
 50
90.0
  0
LINE
  5
471
100
AcDbEntity
  8
LAY-1
  6
EXLTYPE3
 62
     1
100
AcDbLine
 10
3724.5
 20
3085.5
 30
0.0
 11
3752.1
 21
3085.5
 31
0.0
  0
LINE
  5
472
100
AcDbEntity
  8
LAY-1
  6
EXLTYPE3
 62
     1
100
AcDbLine
 10
3738.0
 20
3071.4
 30
0.0
 11
3738.0
 21
3499.05
 31
0.0
  0
LINE
  5
473
100
AcDbEntity
  8
LAY-1
  6
EXLTYPE3
 62
     1
100
AcDbLine
 10
3724.5
 20
3485.5
 30
0.0
 11
3752.1
 21
3485.5
 31
0.0
  0
LINE
  5
474
100
AcDbEntity
  8
LAY-1
  6
EXLTYPE3
 62
     1
100
AcDbLine
 10
4411.5
 20
3485.5
 30
0.0
 11
4383.9
 21
3485.5
 31
0.0
  0
LINE
  5
475
100
AcDbEntity
  8
LAY-1
  6
EXLTYPE3
 62
     1
100
AcDbLine
 10
4398.0
 20
3071.4
 30
0.0
 11
4398.0
 21
3499.05
 31
0.0
  0
LINE
  5
476
100
AcDbEntity
  8
LAY-1
  6
EXLTYPE3
 62
     1
100
AcDbLine
 10
4411.5
 20
3085.5
 30
0.0
 11
4383.9
 21
3085.5
 31
0.0
  0
CIRCLE
  5
477
100
AcDbEntity
  8
LAY-1
  6
CONTINUOUS
 62
     2
100
AcDbCircle
 10
1397.6
 20
1835.0
 30
0.0
 40
62.5
  0
ARC
  5
478
100
AcDbEntity
  8
LAY-1
  6
CONTINUOUS
 62
     2
100
AcDbCircle
 10
1449.6095
 20
1920.727714
 30
0.0
 40
3.896364
100
AcDbArc
 50
121.046748
 51
227.767781
  0
ARC
  5
479
100
AcDbEntity
  8
LAY-1
  6
CONTINUOUS
 62
     2
100
AcDbCircle
 10
1460.034565
 20
1907.403674
 30
0.0
 40
15.065629
100
AcDbArc
 50
147.622609
 51
211.646269
  0
ARC
  5
47A
100
AcDbEntity
  8
LAY-1
  6
CONTINUOUS
 62
     2
100
AcDbCircle
 10
1460.034565
 20
1888.836326
 30
0.0
 40
15.065629
100
AcDbArc
 50
148.353731
 51
212.377391
  0
ARC
  5
47B
100
AcDbEntity
  8
LAY-1
  6
CONTINUOUS
 62
     2
100
AcDbCircle
 10
1398.35
 20
1898.12
 30
0.0
 40
36.25
100
AcDbArc
 50
350.472717
 51
9.527283
  0
ARC
  5
47C
100
AcDbEntity
  8
LAY-1
  6
CONTINUOUS
 62
     2
100
AcDbCircle
 10
1426.7875
 20
1906.87
 30
0.0
 40
7.8125
100
AcDbArc
 50
339.390307
 51
20.609693
  0
LINE
  5
47D
100
AcDbEntity
  8
LAY-1
  6
CONTINUOUS
 62
     2
100
AcDbLine
 10
1434.1
 20
1892.12
 30
0.0
 11
1428.6
 21
1892.12
 31
0.0
  0
LINE
  5
47E
100
AcDbEntity
  8
LAY-1
  6
CONTINUOUS
 62
     2
100
AcDbLine
 10
1434.1
 20
1904.12
 30
0.0
 11
1428.6
 21
1904.12
 31
0.0
  0
LINE
  5
47F
100
AcDbEntity
  8
LAY-1
  6
CONTINUOUS
 62
     2
100
AcDbLine
 10
1434.1
 20
1909.62
 30
0.0
 11
1428.6
 21
1909.62
 31
0.0
  0
LINE
  5
480
100
AcDbEntity
  8
LAY-1
  6
CONTINUOUS
 62
     2
100
AcDbLine
 10
1434.6
 20
1889.37
 30
0.0
 11
1434.6
 21
1906.87
 31
0.0
  0
LINE
  5
481
100
AcDbEntity
  8
LAY-1
  6
CONTINUOUS
 62
     2
100
AcDbLine
 10
1437.6
 20
1901.12
 30
0.0
 11
1434.6
 21
1901.12
 31
0.0
  0
LINE
  5
482
100
AcDbEntity
  8
LAY-1
  6
CONTINUOUS
 62
     2
100
AcDbLine
 10
1437.6
 20
1895.12
 30
0.0
 11
1434.6
 21
1895.12
 31
0.0
  0
LINE
  5
483
100
AcDbEntity
  8
LAY-1
  6
CONTINUOUS
 62
     2
100
AcDbLine
 10
1428.6
 20
1906.62
 30
0.0
 11
1427.6
 21
1906.62
 31
0.0
  0
LINE
  5
484
100
AcDbEntity
  8
LAY-1
  6
CONTINUOUS
 62
     2
100
AcDbLine
 10
1427.6
 20
1911.12
 30
0.0
 11
1413.6
 21
1911.12
 31
0.0
  0
LINE
  5
485
100
AcDbEntity
  8
LAY-1
  6
CONTINUOUS
 62
     2
100
AcDbLine
 10
1413.6
 20
1911.12
 30
0.0
 11
1411.1
 21
1907.62
 31
0.0
  0
LINE
  5
486
100
AcDbEntity
  8
LAY-1
  6
CONTINUOUS
 62
     2
100
AcDbLine
 10
1444.971438
 20
1895.491438
 30
0.0
 11
1437.6
 21
1895.491438
 31
0.0
  0
LINE
  5
487
100
AcDbEntity
  8
LAY-1
  6
CONTINUOUS
 62
     2
100
AcDbLine
 10
1444.971438
 20
1900.748562
 30
0.0
 11
1437.6
 21
1900.748562
 31
0.0
  0
ARC
  5
488
100
AcDbEntity
  8
LAY-1
  6
CONTINUOUS
 62
     2
100
AcDbCircle
 10
1444.971438
 20
1898.12
 30
0.0
 40
2.628562
100
AcDbArc
 50
270.0
 51
90.0
  0
LINE
  5
489
100
AcDbEntity
  8
LAY-1
  6
CONTINUOUS
 62
     2
100
AcDbLine
 10
1446.045911
 20
1925.62
 30
0.0
 11
1438.1
 21
1925.62
 31
0.0
  0
ARC
  5
48A
100
AcDbEntity
  8
LAY-1
  6
CONTINUOUS
 62
     2
100
AcDbCircle
 10
1446.045911
 20
1924.065911
 30
0.0
 40
1.554089
100
AcDbArc
 50
0.0
 51
90.0
  0
LINE
  5
48B
100
AcDbEntity
  8
LAY-1
  6
CONTINUOUS
 62
     2
100
AcDbLine
 10
1447.6
 20
1924.065911
 30
0.0
 11
1437.6
 21
1924.065911
 31
0.0
  0
LINE
  5
48C
100
AcDbEntity
  8
LAY-1
  6
CONTINUOUS
 62
     2
100
AcDbLine
 10
1445.741326
 20
1914.607855
 30
0.0
 11
1437.6
 21
1914.607855
 31
0.0
  0
LINE
  5
48D
100
AcDbEntity
  8
LAY-1
  6
CONTINUOUS
 62
     2
100
AcDbLine
 10
1445.741326
 20
1918.325204
 30
0.0
 11
1437.6
 21
1918.325204
 31
0.0
  0
ARC
  5
48E
100
AcDbEntity
  8
LAY-1
  6
CONTINUOUS
 62
     2
100
AcDbCircle
 10
1445.741326
 20
1916.46653
 30
0.0
 40
1.858674
100
AcDbArc
 50
270.0
 51
90.0
  0
ARC
  5
48F
100
AcDbEntity
  8
LAY-1
  6
CONTINUOUS
 62
     2
100
AcDbCircle
 10
1438.1
 20
1925.12
 30
0.0
 40
0.5
100
AcDbArc
 50
90.0
 51
180.0
  0
ARC
  5
490
100
AcDbEntity
  8
LAY-1
  6
CONTINUOUS
 62
     2
100
AcDbCircle
 10
1445.741326
 20
1879.77347
 30
0.0
 40
1.858674
100
AcDbArc
 50
270.0
 51
90.0
  0
ARC
  5
491
100
AcDbEntity
  8
LAY-1
  6
CONTINUOUS
 62
     2
100
AcDbCircle
 10
1426.7875
 20
1889.37
 30
0.0
 40
7.8125
100
AcDbArc
 50
339.390307
 51
20.609693
  0
LINE
  5
492
100
AcDbEntity
  8
LAY-1
  6
CONTINUOUS
 62
     2
100
AcDbLine
 10
1411.1
 20
1915.12
 30
0.0
 11
1411.1
 21
1896.024585
 31
0.0
  0
LINE
  5
493
100
AcDbEntity
  8
LAY-1
  6
CONTINUOUS
 62
     2
100
AcDbLine
 10
1384.1
 20
1915.12
 30
0.0
 11
1384.1
 21
1896.024585
 31
0.0
  0
LINE
  5
494
100
AcDbEntity
  8
LAY-1
  6
CONTINUOUS
 62
     2
100
AcDbLine
 10
1411.1
 20
1915.12
 30
0.0
 11
1384.1
 21
1915.12
 31
0.0
  0
LINE
  5
495
100
AcDbEntity
  8
LAY-1
  6
CONTINUOUS
 62
     1
100
AcDbLine
 10
1406.25
 20
1925.921447
 30
0.0
 11
1404.75
 21
1923.921447
 31
0.0
  0
LINE
  5
496
100
AcDbEntity
  8
LAY-1
  6
CONTINUOUS
 62
     1
100
AcDbLine
 10
1388.95
 20
1925.921447
 30
0.0
 11
1390.45
 21
1923.921447
 31
0.0
  0
ARC
  5
497
100
AcDbEntity
  8
LAY-1
  6
CONTINUOUS
 62
     2
100
AcDbCircle
 10
1410.35
 20
1935.452697
 30
0.0
 40
9.53125
100
AcDbArc
 50
243.51896
 51
296.48104
  0
ARC
  5
498
100
AcDbEntity
  8
LAY-1
  6
CONTINUOUS
 62
     2
100
AcDbCircle
 10
1397.6
 20
1962.546447
 30
0.0
 40
36.625
100
AcDbArc
 50
256.580326
 51
283.419674
  0
ARC
  5
499
100
AcDbEntity
  8
LAY-1
  6
CONTINUOUS
 62
     2
100
AcDbCircle
 10
1384.85
 20
1935.452697
 30
0.0
 40
9.53125
100
AcDbArc
 50
243.51896
 51
296.48104
  0
ARC
  5
49A
100
AcDbEntity
  8
LAY-1
  6
CONTINUOUS
 62
     2
100
AcDbCircle
 10
1410.35
 20
1961.390197
 30
0.0
 40
9.53125
100
AcDbArc
 50
63.51896
 51
116.48104
  0
ARC
  5
49B
100
AcDbEntity
  8
LAY-1
  6
CONTINUOUS
 62
     2
100
AcDbCircle
 10
1397.6
 20
1934.296447
 30
0.0
 40
36.625
100
AcDbArc
 50
76.580326
 51
103.419674
  0
ARC
  5
49C
100
AcDbEntity
  8
LAY-1
  6
CONTINUOUS
 62
     2
100
AcDbCircle
 10
1384.85
 20
1961.390197
 30
0.0
 40
9.53125
100
AcDbArc
 50
63.51896
 51
116.48104
  0
LINE
  5
49D
100
AcDbEntity
  8
LAY-1
  6
CONTINUOUS
 62
     2
100
AcDbLine
 10
1414.6
 20
1971.921447
 30
0.0
 11
1414.6
 21
1994.921447
 31
0.0
  0
LINE
  5
49E
100
AcDbEntity
  8
LAY-1
  6
CONTINUOUS
 62
     2
100
AcDbLine
 10
1414.6
 20
1926.921447
 30
0.0
 11
1414.6
 21
1969.921447
 31
0.0
  0
LINE
  5
49F
100
AcDbEntity
  8
LAY-1
  6
CONTINUOUS
 62
     2
100
AcDbLine
 10
1380.6
 20
1926.921447
 30
0.0
 11
1380.6
 21
1969.921447
 31
0.0
  0
LINE
  5
4A0
100
AcDbEntity
  8
LAY-1
  6
CONTINUOUS
 62
     2
100
AcDbLine
 10
1389.1
 20
1926.921447
 30
0.0
 11
1389.1
 21
1969.921447
 31
0.0
  0
LINE
  5
4A1
100
AcDbEntity
  8
LAY-1
  6
CONTINUOUS
 62
     2
100
AcDbLine
 10
1406.1
 20
1926.921447
 30
0.0
 11
1406.1
 21
1969.921447
 31
0.0
  0
ARC
  5
4A2
100
AcDbEntity
  8
LAY-1
  6
CONTINUOUS
 62
     2
100
AcDbCircle
 10
1410.35
 20
1980.452697
 30
0.0
 40
9.53125
100
AcDbArc
 50
243.51896
 51
296.48104
  0
ARC
  5
4A3
100
AcDbEntity
  8
LAY-1
  6
CONTINUOUS
 62
     2
100
AcDbCircle
 10
1397.6
 20
2007.546447
 30
0.0
 40
36.625
100
AcDbArc
 50
256.580326
 51
283.419674
  0
ARC
  5
4A4
100
AcDbEntity
  8
LAY-1
  6
CONTINUOUS
 62
     2
100
AcDbCircle
 10
1384.85
 20
1980.452697
 30
0.0
 40
9.53125
100
AcDbArc
 50
243.51896
 51
296.48104
  0
LINE
  5
4A5
100
AcDbEntity
  8
LAY-1
  6
CONTINUOUS
 62
     2
100
AcDbLine
 10
1384.85
 20
1970.921447
 30
0.0
 11
1410.35
 21
1970.921447
 31
0.0
  0
ARC
  5
4A6
100
AcDbEntity
  8
LAY-1
  6
CONTINUOUS
 62
     2
100
AcDbCircle
 10
1410.35
 20
1986.390197
 30
0.0
 40
9.53125
100
AcDbArc
 50
63.51896
 51
116.48104
  0
ARC
  5
4A7
100
AcDbEntity
  8
LAY-1
  6
CONTINUOUS
 62
     2
100
AcDbCircle
 10
1397.6
 20
1959.296447
 30
0.0
 40
36.625
100
AcDbArc
 50
76.580326
 51
103.419674
  0
ARC
  5
4A8
100
AcDbEntity
  8
LAY-1
  6
CONTINUOUS
 62
     2
100
AcDbCircle
 10
1384.85
 20
1986.390197
 30
0.0
 40
9.53125
100
AcDbArc
 50
63.51896
 51
116.48104
  0
LINE
  5
4A9
100
AcDbEntity
  8
LAY-1
  6
CONTINUOUS
 62
     2
100
AcDbLine
 10
1380.6
 20
1994.921447
 30
0.0
 11
1380.6
 21
1971.921447
 31
0.0
  0
LINE
  5
4AA
100
AcDbEntity
  8
LAY-1
  6
CONTINUOUS
 62
     2
100
AcDbLine
 10
1389.1
 20
1994.921447
 30
0.0
 11
1389.1
 21
1971.921447
 31
0.0
  0
LINE
  5
4AB
100
AcDbEntity
  8
LAY-1
  6
CONTINUOUS
 62
     2
100
AcDbLine
 10
1406.1
 20
1994.921447
 30
0.0
 11
1406.1
 21
1971.921447
 31
0.0
  0
LINE
  5
4AC
100
AcDbEntity
  8
LAY-1
  6
CONTINUOUS
 62
     2
100
AcDbLine
 10
1384.85
 20
1925.921447
 30
0.0
 11
1410.35
 21
1925.921447
 31
0.0
  0
LINE
  5
4AD
100
AcDbEntity
  8
LAY-1
  6
CONTINUOUS
 62
     2
100
AcDbLine
 10
1384.85
 20
1995.921447
 30
0.0
 11
1410.35
 21
1995.921447
 31
0.0
  0
LINE
  5
4AE
100
AcDbEntity
  8
LAY-1
  6
CONTINUOUS
 62
     2
100
AcDbLine
 10
1406.25
 20
1925.921447
 30
0.0
 11
1406.25
 21
1915.12
 31
0.0
  0
LINE
  5
4AF
100
AcDbEntity
  8
LAY-1
  6
CONTINUOUS
 62
     1
100
AcDbLine
 10
1404.75
 20
1923.921447
 30
0.0
 11
1404.75
 21
1915.12
 31
0.0
  0
LINE
  5
4B0
100
AcDbEntity
  8
LAY-1
  6
CONTINUOUS
 62
     1
100
AcDbLine
 10
1390.45
 20
1923.921447
 30
0.0
 11
1390.45
 21
1915.12
 31
0.0
  0
LINE
  5
4B1
100
AcDbEntity
  8
LAY-1
  6
CONTINUOUS
 62
     2
100
AcDbLine
 10
1388.95
 20
1925.921447
 30
0.0
 11
1388.95
 21
1915.12
 31
0.0
  0
LINE
  5
4B2
100
AcDbEntity
  8
LAY-1
  6
CONTINUOUS
 62
     2
100
AcDbLine
 10
1388.95
 20
1923.921447
 30
0.0
 11
1397.6
 21
1923.921447
 31
0.0
  0
LINE
  5
4B3
100
AcDbEntity
  8
LAY-1
  6
CONTINUOUS
 62
     2
100
AcDbLine
 10
1397.6
 20
1923.921447
 30
0.0
 11
1406.25
 21
1923.921447
 31
0.0
  0
LINE
  5
4B4
100
AcDbEntity
  8
LAY-1
  6
CONTINUOUS
 62
     2
100
AcDbLine
 10
1428.6
 20
1889.270158
 30
0.0
 11
1428.6
 21
1909.62
 31
0.0
  0
LINE
  5
4B5
100
AcDbEntity
  8
LAY-1
  6
CONTINUOUS
 62
     2
100
AcDbLine
 10
1413.6
 20
1895.417299
 30
0.0
 11
1413.6
 21
1911.12
 31
0.0
  0
LINE
  5
4B6
100
AcDbEntity
  8
LAY-1
  6
CONTINUOUS
 62
     2
100
AcDbLine
 10
1434.1
 20
1886.62
 30
0.0
 11
1432.836708
 21
1886.62
 31
0.0
  0
LINE
  5
4B7
100
AcDbEntity
  8
LAY-1
  6
CONTINUOUS
 62
     2
100
AcDbLine
 10
1427.6
 20
1889.82928
 30
0.0
 11
1427.6
 21
1911.12
 31
0.0
  0
LINE
  5
4B8
100
AcDbEntity
  8
LAY-1
  6
CONTINUOUS
 62
     2
100
AcDbLine
 10
1428.6
 20
1889.62
 30
0.0
 11
1427.979361
 21
1889.62
 31
0.0
  0
ARC
  5
4B9
100
AcDbEntity
  8
LAY-1
  6
CONTINUOUS
 62
     2
100
AcDbCircle
 10
1449.6095
 20
1875.512286
 30
0.0
 40
3.896364
100
AcDbArc
 50
132.232219
 51
190.288561
  0
LINE
  5
4BA
100
AcDbEntity
  8
LAY-1
  6
CONTINUOUS
 62
     2
100
AcDbLine
 10
1447.6
 20
1872.5
 30
0.0
 11
1447.6
 21
1924.065911
 31
0.0
  0
LINE
  5
4BB
100
AcDbEntity
  8
LAY-1
  6
CONTINUOUS
 62
     2
100
AcDbLine
 10
1445.741326
 20
1877.914796
 30
0.0
 11
1443.037543
 21
1877.914796
 31
0.0
  0
LINE
  5
4BC
100
AcDbEntity
  8
LAY-1
  6
CONTINUOUS
 62
     2
100
AcDbLine
 10
1437.6
 20
1883.023432
 30
0.0
 11
1437.6
 21
1925.12
 31
0.0
  0
LINE
  5
4BD
100
AcDbEntity
  8
LAY-1
  6
CONTINUOUS
 62
     2
100
AcDbLine
 10
1445.741326
 20
1881.632145
 30
0.0
 11
1439.213617
 21
1881.632145
 31
0.0
  0
CIRCLE
  5
4BE
100
AcDbEntity
  8
LAY-1
  6
CONTINUOUS
 62
     2
100
AcDbCircle
 10
1429.419805
 20
1803.180195
 30
0.0
 40
9.5
  0
CIRCLE
  5
4BF
100
AcDbEntity
  8
LAY-1
  6
CONTINUOUS
 62
     2
100
AcDbCircle
 10
1365.780195
 20
1803.180195
 30
0.0
 40
9.5
  0
CIRCLE
  5
4C0
100
AcDbEntity
  8
LAY-1
  6
CONTINUOUS
 62
     2
100
AcDbCircle
 10
1397.6
 20
1835.0
 30
0.0
 40
13.6
  0
CIRCLE
  5
4C1
100
AcDbEntity
  8
LAY-1
  6
CONTINUOUS
 62
     2
100
AcDbCircle
 10
1429.419805
 20
1866.819805
 30
0.0
 40
9.5
  0
CIRCLE
  5
4C2
100
AcDbEntity
  8
LAY-1
  6
CONTINUOUS
 62
     2
100
AcDbCircle
 10
1365.780195
 20
1866.819805
 30
0.0
 40
9.5
  0
CIRCLE
  5
4C3
100
AcDbEntity
  8
LAY-1
  6
CONTINUOUS
 62
     2
100
AcDbCircle
 10
1397.6
 20
1835.0
 30
0.0
 40
33.5
  0
CIRCLE
  5
4C4
100
AcDbEntity
  8
LAY-1
  6
CONTINUOUS
 62
     2
100
AcDbCircle
 10
1095.116504
 20
1873.483496
 30
0.0
 40
7.5
  0
CIRCLE
  5
4C5
100
AcDbEntity
  8
LAY-1
  6
CONTINUOUS
 62
     2
100
AcDbCircle
 10
1042.083496
 20
1873.483496
 30
0.0
 40
7.5
  0
CIRCLE
  5
4C6
100
AcDbEntity
  8
LAY-1
  6
CONTINUOUS
 62
     2
100
AcDbCircle
 10
1068.6
 20
1900.0
 30
0.0
 40
10.7
  0
CIRCLE
  5
4C7
100
AcDbEntity
  8
LAY-1
  6
CONTINUOUS
 62
     2
100
AcDbCircle
 10
1095.116504
 20
1926.516504
 30
0.0
 40
7.5
  0
CIRCLE
  5
4C8
100
AcDbEntity
  8
LAY-1
  6
CONTINUOUS
 62
     2
100
AcDbCircle
 10
1042.083496
 20
1926.516504
 30
0.0
 40
7.5
  0
CIRCLE
  5
4C9
100
AcDbEntity
  8
LAY-1
  6
CONTINUOUS
 62
     2
100
AcDbCircle
 10
1068.6
 20
1900.0
 30
0.0
 40
28.0
  0
LINE
  5
4CA
100
AcDbEntity
  8
LAY-1
  6
CONTINUOUS
 62
     2
100
AcDbLine
 10
1408.45
 20
2260.921447
 30
0.0
 11
1408.45
 21
1995.921447
 31
0.0
  0
LINE
  5
4CB
100
AcDbEntity
  8
LAY-1
  6
CONTINUOUS
 62
     2
100
AcDbLine
 10
1386.75
 20
2260.921447
 30
0.0
 11
1386.75
 21
1995.921447
 31
0.0
  0
LINE
  5
4CC
100
AcDbEntity
  8
LAY-1
  6
CONTINUOUS
 62
     2
100
AcDbLine
 10
963.6
 20
2015.0
 30
0.0
 11
1386.75
 21
2015.0
 31
0.0
  0
LINE
  5
4CD
100
AcDbEntity
  8
LAY-1
  6
CONTINUOUS
 62
     2
100
AcDbLine
 10
1408.45
 20
2015.0
 30
0.0
 11
1551.6
 21
2015.0
 31
0.0
  0
LINE
  5
4CE
100
AcDbEntity
  8
LAY-1
  6
EXLTYPE3
 62
     1
100
AcDbLine
 10
1321.65
 20
1835.0
 30
0.0
 11
1467.45
 21
1835.0
 31
0.0
  0
LINE
  5
4CF
100
AcDbEntity
  8
LAY-1
  6
EXLTYPE3
 62
     1
100
AcDbLine
 10
1397.6
 20
2305.921447
 30
0.0
 11
1397.6
 21
1759.5
 31
0.0
  0
LINE
  5
4D0
100
AcDbEntity
  8
LAY-1
  6
EXLTYPE3
 62
     1
100
AcDbLine
 10
1003.8
 20
1900.0
 30
0.0
 11
1133.85
 21
1900.0
 31
0.0
  0
LINE
  5
4D1
100
AcDbEntity
  8
LAY-1
  6
EXLTYPE3
 62
     1
100
AcDbLine
 10
1068.6
 20
1837.35
 30
0.0
 11
1068.6
 21
1957.65
 31
0.0
  0
TEXT
  5
4D2
100
AcDbEntity
  8
LAY-1
  6
CONTINUOUS
 62
     3
100
AcDbText
 10
4786.44
 20
812.46
 30
0.0
 40
60.0
  1
２０１８年　５月３０日
 41
0.84
  7
EXCADSTD
 72
     5
 11
5446.44
 21
812.46
 31
0.0
100
AcDbText
  0
TEXT
  5
4D3
100
AcDbEntity
  8
LAY-1
  6
CONTINUOUS
 62
     3
100
AcDbText
 10
4754.808
 20
729.66
 30
0.0
 40
60.0
  1
ＶＨ－２００Ｆ
 41
0.84
  7
EXCADSTD
 72
     5
 11
5174.808
 21
729.66
 31
0.0
100
AcDbText
  0
LINE
  5
4D4
100
AcDbEntity
  8
LAY-1
  6
CONTINUOUS
 62
     2
100
AcDbLine
 10
2541.0
 20
1093.0
 30
0.0
 11
3131.0
 21
1093.0
 31
0.0
  0
LINE
  5
4D5
100
AcDbEntity
  8
LAY-1
  6
CONTINUOUS
 62
     2
100
AcDbLine
 10
3718.0
 20
3570.5
 30
0.0
 11
3718.0
 21
3000.5
 31
0.0
  0
LINE
  5
4D6
100
AcDbEntity
  8
LAY-1
  6
CONTINUOUS
 62
     2
100
AcDbLine
 10
1083.6
 20
1093.0
 30
0.0
 11
1547.6
 21
1093.0
 31
0.0
  0
LINE
  5
4D7
100
AcDbEntity
  8
LAY-1
  6
EXLTYPE3
 62
     1
100
AcDbLine
 10
5569.0
 20
1129.8
 30
0.0
 11
5575.0
 21
1129.8
 31
0.0
  0
LINE
  5
4D8
100
AcDbEntity
  8
LAY-1
  6
EXLTYPE3
 62
     1
100
AcDbLine
 10
5574.5
 20
1130.3
 30
0.0
 11
5574.5
 21
1128.3
 31
0.0
  0
LINE
  5
4D9
100
AcDbEntity
  8
LAY-1
  6
EXLTYPE3
 62
     1
100
AcDbLine
 10
5569.5
 20
1130.3
 30
0.0
 11
5569.5
 21
1128.3
 31
0.0
  0
LINE
  5
4DA
100
AcDbEntity
  8
LAY-1
  6
CONTINUOUS
 62
     2
100
AcDbLine
 10
5516.5
 20
1105.85
 30
0.0
 11
5539.5
 21
1105.85
 31
0.0
  0
LINE
  5
4DB
100
AcDbEntity
  8
LAY-1
  6
CONTINUOUS
 62
     2
100
AcDbLine
 10
5516.5
 20
1084.15
 30
0.0
 11
5539.5
 21
1084.15
 31
0.0
  0
LINE
  5
4DC
100
AcDbEntity
  8
LAY-1
  6
CONTINUOUS
 62
     2
100
AcDbLine
 10
5581.5
 20
1105.0
 30
0.0
 11
5581.5
 21
1085.0
 31
0.0
  0
LINE
  5
4DD
100
AcDbEntity
  8
LAY-1
  6
CONTINUOUS
 62
     2
100
AcDbLine
 10
5604.5
 20
1107.5
 30
0.0
 11
5604.5
 21
1082.5
 31
0.0
  0
LINE
  5
4DE
100
AcDbEntity
  8
LAY-1
  6
CONTINUOUS
 62
     2
100
AcDbLine
 10
5591.5
 20
1107.5
 30
0.0
 11
5591.5
 21
1082.5
 31
0.0
  0
ARC
  5
4DF
100
AcDbEntity
  8
LAY-1
  6
CONTINUOUS
 62
     2
100
AcDbCircle
 10
5608.541667
 20
1090.0
 30
0.0
 40
17.041667
100
AcDbArc
 50
162.938469
 51
197.061531
  0
ARC
  5
4E0
100
AcDbEntity
  8
LAY-1
  6
CONTINUOUS
 62
     2
100
AcDbCircle
 10
5587.458333
 20
1090.0
 30
0.0
 40
17.041667
100
AcDbArc
 50
342.938469
 51
17.061531
  0
LINE
  5
4E1
100
AcDbEntity
  8
LAY-1
  6
CONTINUOUS
 62
     2
100
AcDbLine
 10
5539.5
 20
1107.5
 30
0.0
 11
5539.5
 21
1082.5
 31
0.0
  0
ARC
  5
4E2
100
AcDbEntity
  8
LAY-1
  6
CONTINUOUS
 62
     2
100
AcDbCircle
 10
5556.541667
 20
1090.0
 30
0.0
 40
17.041667
100
AcDbArc
 50
162.938469
 51
197.061531
  0
LINE
  5
4E3
100
AcDbEntity
  8
LAY-1
  6
CONTINUOUS
 62
     2
100
AcDbLine
 10
5558.5
 20
1111.0
 30
0.0
 11
5558.5
 21
1079.0
 31
0.0
  0
LINE
  5
4E4
100
AcDbEntity
  8
LAY-1
  6
CONTINUOUS
 62
     2
100
AcDbLine
 10
5555.5
 20
1111.0
 30
0.0
 11
5555.5
 21
1079.0
 31
0.0
  0
LINE
  5
4E5
100
AcDbEntity
  8
LAY-1
  6
CONTINUOUS
 62
     2
100
AcDbLine
 10
5552.5
 20
1111.0
 30
0.0
 11
5552.5
 21
1079.0
 31
0.0
  0
LINE
  5
4E6
100
AcDbEntity
  8
LAY-1
  6
CONTINUOUS
 62
     2
100
AcDbLine
 10
5558.5
 20
1081.0
 30
0.0
 11
5581.5
 21
1082.0
 31
0.0
  0
LINE
  5
4E7
100
AcDbEntity
  8
LAY-1
  6
CONTINUOUS
 62
     2
100
AcDbLine
 10
5540.25
 20
1085.0
 30
0.0
 11
5552.5
 21
1085.0
 31
0.0
  0
LINE
  5
4E8
100
AcDbEntity
  8
LAY-1
  6
CONTINUOUS
 62
     2
100
AcDbLine
 10
5540.25
 20
1080.0
 30
0.0
 11
5552.5
 21
1080.0
 31
0.0
  0
ARC
  5
4E9
100
AcDbEntity
  8
LAY-1
  6
CONTINUOUS
 62
     2
100
AcDbCircle
 10
5544.041667
 20
1082.5
 30
0.0
 40
4.541667
100
AcDbArc
 50
146.601512
 51
213.398488
  0
LINE
  5
4EA
100
AcDbEntity
  8
LAY-1
  6
CONTINUOUS
 62
     2
100
AcDbLine
 10
5552.5
 20
1079.0
 30
0.0
 11
5558.5
 21
1079.0
 31
0.0
  0
LINE
  5
4EB
100
AcDbEntity
  8
LAY-1
  6
CONTINUOUS
 62
     2
100
AcDbLine
 10
5603.75
 20
1085.0
 30
0.0
 11
5592.25
 21
1085.0
 31
0.0
  0
LINE
  5
4EC
100
AcDbEntity
  8
LAY-1
  6
CONTINUOUS
 62
     2
100
AcDbLine
 10
5592.25
 20
1080.0
 30
0.0
 11
5603.75
 21
1080.0
 31
0.0
  0
ARC
  5
4ED
100
AcDbEntity
  8
LAY-1
  6
CONTINUOUS
 62
     2
100
AcDbCircle
 10
5596.041667
 20
1082.5
 30
0.0
 40
4.541667
100
AcDbArc
 50
146.601512
 51
213.398488
  0
ARC
  5
4EE
100
AcDbEntity
  8
LAY-1
  6
CONTINUOUS
 62
     2
100
AcDbCircle
 10
5599.958333
 20
1082.5
 30
0.0
 40
4.541667
100
AcDbArc
 50
326.601512
 51
33.398488
  0
LINE
  5
4EF
100
AcDbEntity
  8
LAY-1
  6
CONTINUOUS
 62
     2
100
AcDbLine
 10
5581.5
 20
1082.0
 30
0.0
 11
5591.5
 21
1082.0
 31
0.0
  0
LINE
  5
4F0
100
AcDbEntity
  8
LAY-1
  6
CONTINUOUS
 62
     2
100
AcDbLine
 10
5558.5
 20
1109.0
 30
0.0
 11
5564.5
 21
1108.73913
 31
0.0
  0
LINE
  5
4F1
100
AcDbEntity
  8
LAY-1
  6
CONTINUOUS
 62
     2
100
AcDbLine
 10
5540.25
 20
1105.0
 30
0.0
 11
5552.5
 21
1105.0
 31
0.0
  0
LINE
  5
4F2
100
AcDbEntity
  8
LAY-1
  6
CONTINUOUS
 62
     2
100
AcDbLine
 10
5540.25
 20
1110.0
 30
0.0
 11
5552.5
 21
1110.0
 31
0.0
  0
ARC
  5
4F3
100
AcDbEntity
  8
LAY-1
  6
CONTINUOUS
 62
     2
100
AcDbCircle
 10
5556.541667
 20
1100.0
 30
0.0
 40
17.041667
100
AcDbArc
 50
162.938469
 51
197.061531
  0
ARC
  5
4F4
100
AcDbEntity
  8
LAY-1
  6
CONTINUOUS
 62
     2
100
AcDbCircle
 10
5544.041667
 20
1107.5
 30
0.0
 40
4.541667
100
AcDbArc
 50
146.601512
 51
213.398488
  0
LINE
  5
4F5
100
AcDbEntity
  8
LAY-1
  6
CONTINUOUS
 62
     2
100
AcDbLine
 10
5552.5
 20
1111.0
 30
0.0
 11
5558.5
 21
1111.0
 31
0.0
  0
LINE
  5
4F6
100
AcDbEntity
  8
LAY-1
  6
CONTINUOUS
 62
     2
100
AcDbLine
 10
5592.25
 20
1110.0
 30
0.0
 11
5603.75
 21
1110.0
 31
0.0
  0
LINE
  5
4F7
100
AcDbEntity
  8
LAY-1
  6
CONTINUOUS
 62
     2
100
AcDbLine
 10
5603.75
 20
1105.0
 30
0.0
 11
5592.25
 21
1105.0
 31
0.0
  0
ARC
  5
4F8
100
AcDbEntity
  8
LAY-1
  6
CONTINUOUS
 62
     2
100
AcDbCircle
 10
5608.541667
 20
1100.0
 30
0.0
 40
17.041667
100
AcDbArc
 50
162.938469
 51
197.061531
  0
ARC
  5
4F9
100
AcDbEntity
  8
LAY-1
  6
CONTINUOUS
 62
     2
100
AcDbCircle
 10
5596.041667
 20
1107.5
 30
0.0
 40
4.541667
100
AcDbArc
 50
146.601512
 51
213.398488
  0
ARC
  5
4FA
100
AcDbEntity
  8
LAY-1
  6
CONTINUOUS
 62
     2
100
AcDbCircle
 10
5599.958333
 20
1107.5
 30
0.0
 40
4.541667
100
AcDbArc
 50
326.601512
 51
33.398488
  0
ARC
  5
4FB
100
AcDbEntity
  8
LAY-1
  6
CONTINUOUS
 62
     2
100
AcDbCircle
 10
5587.458333
 20
1100.0
 30
0.0
 40
17.041667
100
AcDbArc
 50
342.938469
 51
17.061531
  0
LINE
  5
4FC
100
AcDbEntity
  8
LAY-1
  6
CONTINUOUS
 62
     2
100
AcDbLine
 10
5581.5
 20
1108.0
 30
0.0
 11
5591.5
 21
1108.0
 31
0.0
  0
ARC
  5
4FD
100
AcDbEntity
  8
LAY-1
  6
CONTINUOUS
 62
     2
100
AcDbCircle
 10
5572.342715
 20
1116.295483
 30
0.0
 40
10.890668
100
AcDbArc
 50
223.934647
 51
311.086247
  0
LINE
  5
4FE
100
AcDbEntity
  8
LAY-1
  6
CONTINUOUS
 62
     2
100
AcDbLine
 10
5579.5
 20
1108.086957
 30
0.0
 11
5581.5
 21
1108.0
 31
0.0
  0
LINE
  5
4FF
100
AcDbEntity
  8
LAY-1
  6
CONTINUOUS
 62
     2
100
AcDbLine
 10
5565.5
 20
1120.0
 30
0.0
 11
5578.5
 21
1120.0
 31
0.0
  0
LINE
  5
500
100
AcDbEntity
  8
LAY-1
  6
CONTINUOUS
 62
     2
100
AcDbLine
 10
5578.5
 20
1120.0
 30
0.0
 11
5578.5
 21
1113.5
 31
0.0
  0
LINE
  5
501
100
AcDbEntity
  8
LAY-1
  6
CONTINUOUS
 62
     2
100
AcDbLine
 10
5565.5
 20
1120.0
 30
0.0
 11
5565.5
 21
1113.5
 31
0.0
  0
LINE
  5
502
100
AcDbEntity
  8
LAY-1
  6
CONTINUOUS
 62
     2
100
AcDbLine
 10
5565.5
 20
1113.5
 30
0.0
 11
5564.5
 21
1108.73913
 31
0.0
  0
LINE
  5
503
100
AcDbEntity
  8
LAY-1
  6
CONTINUOUS
 62
     2
100
AcDbLine
 10
5578.5
 20
1113.5
 30
0.0
 11
5579.5
 21
1108.086957
 31
0.0
  0
LINE
  5
504
100
AcDbEntity
  8
LAY-1
  6
CONTINUOUS
 62
     2
100
AcDbLine
 10
5575.0
 20
1127.8
 30
0.0
 11
5575.0
 21
1124.8
 31
0.0
  0
LINE
  5
505
100
AcDbEntity
  8
LAY-1
  6
CONTINUOUS
 62
     2
100
AcDbLine
 10
5569.0
 20
1127.8
 30
0.0
 11
5569.0
 21
1124.8
 31
0.0
  0
LINE
  5
506
100
AcDbEntity
  8
LAY-1
  6
CONTINUOUS
 62
     2
100
AcDbLine
 10
5569.0
 20
1121.0
 30
0.0
 11
5569.0
 21
1120.0
 31
0.0
  0
LINE
  5
507
100
AcDbEntity
  8
LAY-1
  6
CONTINUOUS
 62
     2
100
AcDbLine
 10
5575.0
 20
1121.0
 30
0.0
 11
5575.0
 21
1120.0
 31
0.0
  0
ARC
  5
508
100
AcDbEntity
  8
LAY-1
  6
CONTINUOUS
 62
     2
100
AcDbCircle
 10
5567.5
 20
1125.8
 30
0.0
 40
2.5
100
AcDbArc
 50
53.130102
 51
126.869898
  0
ARC
  5
509
100
AcDbEntity
  8
LAY-1
  6
CONTINUOUS
 62
     2
100
AcDbCircle
 10
5572.0
 20
1119.05
 30
0.0
 40
9.25
100
AcDbArc
 50
71.075356
 51
108.924644
  0
ARC
  5
50A
100
AcDbEntity
  8
LAY-1
  6
CONTINUOUS
 62
     2
100
AcDbCircle
 10
5576.5
 20
1125.8
 30
0.0
 40
2.5
100
AcDbArc
 50
53.130102
 51
126.869898
  0
ARC
  5
50B
100
AcDbEntity
  8
LAY-1
  6
CONTINUOUS
 62
     2
100
AcDbCircle
 10
5567.5
 20
1126.8
 30
0.0
 40
2.5
100
AcDbArc
 50
233.130102
 51
306.869898
  0
ARC
  5
50C
100
AcDbEntity
  8
LAY-1
  6
CONTINUOUS
 62
     2
100
AcDbCircle
 10
5572.0
 20
1133.55
 30
0.0
 40
9.25
100
AcDbArc
 50
251.075356
 51
288.924644
  0
ARC
  5
50D
100
AcDbEntity
  8
LAY-1
  6
CONTINUOUS
 62
     2
100
AcDbCircle
 10
5576.5
 20
1126.8
 30
0.0
 40
2.5
100
AcDbArc
 50
233.130102
 51
306.869898
  0
LINE
  5
50E
100
AcDbEntity
  8
LAY-1
  6
CONTINUOUS
 62
     2
100
AcDbLine
 10
5578.0
 20
1127.8
 30
0.0
 11
5578.0
 21
1124.8
 31
0.0
  0
LINE
  5
50F
100
AcDbEntity
  8
LAY-1
  6
CONTINUOUS
 62
     2
100
AcDbLine
 10
5567.5
 20
1128.3
 30
0.0
 11
5576.5
 21
1128.3
 31
0.0
  0
LINE
  5
510
100
AcDbEntity
  8
LAY-1
  6
CONTINUOUS
 62
     2
100
AcDbLine
 10
5566.0
 20
1127.8
 30
0.0
 11
5566.0
 21
1124.8
 31
0.0
  0
LINE
  5
511
100
AcDbEntity
  8
LAY-1
  6
CONTINUOUS
 62
     2
100
AcDbLine
 10
5569.5
 20
1130.3
 30
0.0
 11
5574.5
 21
1130.3
 31
0.0
  0
LINE
  5
512
100
AcDbEntity
  8
LAY-1
  6
CONTINUOUS
 62
     2
100
AcDbLine
 10
5569.0
 20
1128.3
 30
0.0
 11
5569.0
 21
1129.8
 31
0.0
  0
LINE
  5
513
100
AcDbEntity
  8
LAY-1
  6
CONTINUOUS
 62
     2
100
AcDbLine
 10
5575.0
 20
1128.3
 30
0.0
 11
5575.0
 21
1129.8
 31
0.0
  0
LINE
  5
514
100
AcDbEntity
  8
LAY-1
  6
CONTINUOUS
 62
     2
100
AcDbLine
 10
5569.0
 20
1129.8
 30
0.0
 11
5569.5
 21
1130.3
 31
0.0
  0
LINE
  5
515
100
AcDbEntity
  8
LAY-1
  6
CONTINUOUS
 62
     2
100
AcDbLine
 10
5574.5
 20
1130.3
 30
0.0
 11
5575.0
 21
1129.8
 31
0.0
  0
LINE
  5
516
100
AcDbEntity
  8
LAY-1
  6
CONTINUOUS
 62
     2
100
AcDbLine
 10
5516.5
 20
1110.0
 30
0.0
 11
5516.5
 21
1080.0
 31
0.0
  0
LINE
  5
517
100
AcDbEntity
  8
LAY-1
  6
CONTINUOUS
 62
     2
100
AcDbLine
 10
5516.5
 20
1080.0
 30
0.0
 11
5464.5
 21
1080.0
 31
0.0
  0
LINE
  5
518
100
AcDbEntity
  8
LAY-1
  6
CONTINUOUS
 62
     2
100
AcDbLine
 10
5516.5
 20
1110.0
 30
0.0
 11
5494.5
 21
1110.0
 31
0.0
  0
LINE
  5
519
100
AcDbEntity
  8
LAY-1
  6
CONTINUOUS
 62
     2
100
AcDbLine
 10
5537.5
 20
1084.15
 30
0.0
 11
5537.5
 21
1105.85
 31
0.0
  0
LINE
  5
51A
100
AcDbEntity
  8
LAY-1
  6
CONTINUOUS
 62
     2
100
AcDbLine
 10
5535.5
 20
1084.15
 30
0.0
 11
5535.5
 21
1105.85
 31
0.0
  0
LINE
  5
51B
100
AcDbEntity
  8
LAY-1
  6
CONTINUOUS
 62
     2
100
AcDbLine
 10
5533.5
 20
1084.15
 30
0.0
 11
5533.5
 21
1105.85
 31
0.0
  0
LINE
  5
51C
100
AcDbEntity
  8
LAY-1
  6
CONTINUOUS
 62
     2
100
AcDbLine
 10
5564.0
 20
1121.0
 30
0.0
 11
5580.0
 21
1121.0
 31
0.0
  0
LINE
  5
51D
100
AcDbEntity
  8
LAY-1
  6
CONTINUOUS
 62
     2
100
AcDbLine
 10
5564.0
 20
1123.3
 30
0.0
 11
5580.0
 21
1123.3
 31
0.0
  0
LINE
  5
51E
100
AcDbEntity
  8
LAY-1
  6
CONTINUOUS
 62
     2
100
AcDbLine
 10
5564.0
 20
1124.3
 30
0.0
 11
5580.0
 21
1124.3
 31
0.0
  0
LINE
  5
51F
100
AcDbEntity
  8
LAY-1
  6
CONTINUOUS
 62
     2
100
AcDbLine
 10
5564.0
 20
1124.3
 30
0.0
 11
5564.0
 21
1121.0
 31
0.0
  0
LINE
  5
520
100
AcDbEntity
  8
LAY-1
  6
CONTINUOUS
 62
     2
100
AcDbLine
 10
5580.0
 20
1124.3
 30
0.0
 11
5580.0
 21
1121.0
 31
0.0
  0
LINE
  5
521
100
AcDbEntity
  8
LAY-1
  6
CONTINUOUS
 62
     2
100
AcDbLine
 10
5566.0
 20
1143.3
 30
0.0
 11
5578.0
 21
1143.3
 31
0.0
  0
LINE
  5
522
100
AcDbEntity
  8
LAY-1
  6
CONTINUOUS
 62
     2
100
AcDbLine
 10
5578.0
 20
1143.3
 30
0.0
 11
5578.0
 21
1141.0
 31
0.0
  0
LINE
  5
523
100
AcDbEntity
  8
LAY-1
  6
CONTINUOUS
 62
     2
100
AcDbLine
 10
5566.0
 20
1143.3
 30
0.0
 11
5566.0
 21
1141.0
 31
0.0
  0
LINE
  5
524
100
AcDbEntity
  8
LAY-1
  6
CONTINUOUS
 62
     2
100
AcDbLine
 10
5578.0
 20
1141.0
 30
0.0
 11
5580.0
 21
1124.3
 31
0.0
  0
LINE
  5
525
100
AcDbEntity
  8
LAY-1
  6
CONTINUOUS
 62
     2
100
AcDbLine
 10
5566.0
 20
1141.0
 30
0.0
 11
5564.0
 21
1124.3
 31
0.0
  0
LINE
  5
526
100
AcDbEntity
  8
LAY-1
  6
CONTINUOUS
 62
     2
100
AcDbLine
 10
5518.5
 20
1084.15
 30
0.0
 11
5518.5
 21
1105.85
 31
0.0
  0
LINE
  5
527
100
AcDbEntity
  8
LAY-1
  6
CONTINUOUS
 62
     2
100
AcDbLine
 10
5520.5
 20
1084.15
 30
0.0
 11
5520.5
 21
1105.85
 31
0.0
  0
LINE
  5
528
100
AcDbEntity
  8
LAY-1
  6
CONTINUOUS
 62
     2
100
AcDbLine
 10
5522.5
 20
1084.15
 30
0.0
 11
5522.5
 21
1105.85
 31
0.0
  0
LINE
  5
529
100
AcDbEntity
  8
LAY-1
  6
CONTINUOUS
 62
     2
100
AcDbLine
 10
5620.5
 20
1088.140657
 30
0.0
 11
5610.5
 21
1088.140657
 31
0.0
  0
LINE
  5
52A
100
AcDbEntity
  8
LAY-1
  6
CONTINUOUS
 62
     2
100
AcDbLine
 10
5620.5
 20
1102.140657
 30
0.0
 11
5610.5
 21
1102.140657
 31
0.0
  0
LINE
  5
52B
100
AcDbEntity
  8
LAY-1
  6
CONTINUOUS
 62
     2
100
AcDbLine
 10
5610.5
 20
1105.990657
 30
0.0
 11
5604.5
 21
1105.990657
 31
0.0
  0
LINE
  5
52C
100
AcDbEntity
  8
LAY-1
  6
CONTINUOUS
 62
     2
100
AcDbLine
 10
5610.5
 20
1084.290657
 30
0.0
 11
5604.5
 21
1084.290657
 31
0.0
  0
LINE
  5
52D
100
AcDbEntity
  8
LAY-1
  6
CONTINUOUS
 62
     2
100
AcDbLine
 10
5606.5
 20
1084.290657
 30
0.0
 11
5606.5
 21
1105.990657
 31
0.0
  0
LINE
  5
52E
100
AcDbEntity
  8
LAY-1
  6
CONTINUOUS
 62
     2
100
AcDbLine
 10
5608.5
 20
1084.290657
 30
0.0
 11
5608.5
 21
1105.990657
 31
0.0
  0
LINE
  5
52F
100
AcDbEntity
  8
LAY-1
  6
CONTINUOUS
 62
     2
100
AcDbLine
 10
5610.5
 20
1084.290657
 30
0.0
 11
5610.5
 21
1105.990657
 31
0.0
  0
LINE
  5
530
100
AcDbEntity
  8
LAY-1
  6
CONTINUOUS
 62
     2
100
AcDbLine
 10
5620.5
 20
1088.140657
 30
0.0
 11
5620.5
 21
1102.140657
 31
0.0
  0
LINE
  5
531
100
AcDbEntity
  8
LAY-1
  6
CONTINUOUS
 62
     2
100
AcDbLine
 10
2519.0
 20
1110.0
 30
0.0
 11
2541.0
 21
1110.0
 31
0.0
  0
LINE
  5
532
100
AcDbEntity
  8
LAY-1
  6
CONTINUOUS
 62
     2
100
AcDbLine
 10
2519.0
 20
1080.0
 30
0.0
 11
2571.0
 21
1080.0
 31
0.0
  0
LINE
  5
533
100
AcDbEntity
  8
LAY-1
  6
CONTINUOUS
 62
     2
100
AcDbLine
 10
2519.0
 20
1110.0
 30
0.0
 11
2519.0
 21
1080.0
 31
0.0
  0
LINE
  5
534
100
AcDbEntity
  8
LAY-1
  6
CONTINUOUS
 62
     2
100
AcDbLine
 10
2461.0
 20
1130.3
 30
0.0
 11
2460.5
 21
1129.8
 31
0.0
  0
LINE
  5
535
100
AcDbEntity
  8
LAY-1
  6
CONTINUOUS
 62
     2
100
AcDbLine
 10
2466.5
 20
1129.8
 30
0.0
 11
2466.0
 21
1130.3
 31
0.0
  0
LINE
  5
536
100
AcDbEntity
  8
LAY-1
  6
CONTINUOUS
 62
     2
100
AcDbLine
 10
2460.5
 20
1128.3
 30
0.0
 11
2460.5
 21
1129.8
 31
0.0
  0
LINE
  5
537
100
AcDbEntity
  8
LAY-1
  6
CONTINUOUS
 62
     2
100
AcDbLine
 10
2466.5
 20
1128.3
 30
0.0
 11
2466.5
 21
1129.8
 31
0.0
  0
LINE
  5
538
100
AcDbEntity
  8
LAY-1
  6
CONTINUOUS
 62
     2
100
AcDbLine
 10
2466.0
 20
1130.3
 30
0.0
 11
2461.0
 21
1130.3
 31
0.0
  0
LINE
  5
539
100
AcDbEntity
  8
LAY-1
  6
CONTINUOUS
 62
     2
100
AcDbLine
 10
2469.5
 20
1127.8
 30
0.0
 11
2469.5
 21
1124.8
 31
0.0
  0
LINE
  5
53A
100
AcDbEntity
  8
LAY-1
  6
CONTINUOUS
 62
     2
100
AcDbLine
 10
2468.0
 20
1128.3
 30
0.0
 11
2459.0
 21
1128.3
 31
0.0
  0
LINE
  5
53B
100
AcDbEntity
  8
LAY-1
  6
CONTINUOUS
 62
     2
100
AcDbLine
 10
2457.5
 20
1127.8
 30
0.0
 11
2457.5
 21
1124.8
 31
0.0
  0
ARC
  5
53C
100
AcDbEntity
  8
LAY-1
  6
CONTINUOUS
 62
     2
100
AcDbCircle
 10
2459.0
 20
1126.8
 30
0.0
 40
2.5
100
AcDbArc
 50
233.130102
 51
306.869898
  0
ARC
  5
53D
100
AcDbEntity
  8
LAY-1
  6
CONTINUOUS
 62
     2
100
AcDbCircle
 10
2463.5
 20
1133.55
 30
0.0
 40
9.25
100
AcDbArc
 50
251.075356
 51
288.924644
  0
ARC
  5
53E
100
AcDbEntity
  8
LAY-1
  6
CONTINUOUS
 62
     2
100
AcDbCircle
 10
2468.0
 20
1126.8
 30
0.0
 40
2.5
100
AcDbArc
 50
233.130102
 51
306.869898
  0
ARC
  5
53F
100
AcDbEntity
  8
LAY-1
  6
CONTINUOUS
 62
     2
100
AcDbCircle
 10
2459.0
 20
1125.8
 30
0.0
 40
2.5
100
AcDbArc
 50
53.130102
 51
126.869898
  0
ARC
  5
540
100
AcDbEntity
  8
LAY-1
  6
CONTINUOUS
 62
     2
100
AcDbCircle
 10
2463.5
 20
1119.05
 30
0.0
 40
9.25
100
AcDbArc
 50
71.075356
 51
108.924644
  0
ARC
  5
541
100
AcDbEntity
  8
LAY-1
  6
CONTINUOUS
 62
     2
100
AcDbCircle
 10
2468.0
 20
1125.8
 30
0.0
 40
2.5
100
AcDbArc
 50
53.130102
 51
126.869898
  0
LINE
  5
542
100
AcDbEntity
  8
LAY-1
  6
CONTINUOUS
 62
     2
100
AcDbLine
 10
2460.5
 20
1121.0
 30
0.0
 11
2460.5
 21
1120.0
 31
0.0
  0
LINE
  5
543
100
AcDbEntity
  8
LAY-1
  6
CONTINUOUS
 62
     2
100
AcDbLine
 10
2466.5
 20
1121.0
 30
0.0
 11
2466.5
 21
1120.0
 31
0.0
  0
LINE
  5
544
100
AcDbEntity
  8
LAY-1
  6
CONTINUOUS
 62
     2
100
AcDbLine
 10
2466.5
 20
1127.8
 30
0.0
 11
2466.5
 21
1124.8
 31
0.0
  0
LINE
  5
545
100
AcDbEntity
  8
LAY-1
  6
CONTINUOUS
 62
     2
100
AcDbLine
 10
2460.5
 20
1127.8
 30
0.0
 11
2460.5
 21
1124.8
 31
0.0
  0
LINE
  5
546
100
AcDbEntity
  8
LAY-1
  6
CONTINUOUS
 62
     2
100
AcDbLine
 10
2457.0
 20
1113.5
 30
0.0
 11
2456.0
 21
1108.086957
 31
0.0
  0
LINE
  5
547
100
AcDbEntity
  8
LAY-1
  6
CONTINUOUS
 62
     2
100
AcDbLine
 10
2470.0
 20
1113.5
 30
0.0
 11
2471.0
 21
1108.73913
 31
0.0
  0
LINE
  5
548
100
AcDbEntity
  8
LAY-1
  6
CONTINUOUS
 62
     2
100
AcDbLine
 10
2470.0
 20
1120.0
 30
0.0
 11
2470.0
 21
1113.5
 31
0.0
  0
LINE
  5
549
100
AcDbEntity
  8
LAY-1
  6
CONTINUOUS
 62
     2
100
AcDbLine
 10
2457.0
 20
1120.0
 30
0.0
 11
2457.0
 21
1113.5
 31
0.0
  0
LINE
  5
54A
100
AcDbEntity
  8
LAY-1
  6
CONTINUOUS
 62
     2
100
AcDbLine
 10
2470.0
 20
1120.0
 30
0.0
 11
2457.0
 21
1120.0
 31
0.0
  0
LINE
  5
54B
100
AcDbEntity
  8
LAY-1
  6
CONTINUOUS
 62
     2
100
AcDbLine
 10
2456.0
 20
1108.086957
 30
0.0
 11
2454.0
 21
1108.0
 31
0.0
  0
ARC
  5
54C
100
AcDbEntity
  8
LAY-1
  6
CONTINUOUS
 62
     2
100
AcDbCircle
 10
2463.157285
 20
1116.295483
 30
0.0
 40
10.890668
100
AcDbArc
 50
228.913753
 51
316.065353
  0
LINE
  5
54D
100
AcDbEntity
  8
LAY-1
  6
CONTINUOUS
 62
     2
100
AcDbLine
 10
2454.0
 20
1108.0
 30
0.0
 11
2444.0
 21
1108.0
 31
0.0
  0
ARC
  5
54E
100
AcDbEntity
  8
LAY-1
  6
CONTINUOUS
 62
     2
100
AcDbCircle
 10
2448.041667
 20
1100.0
 30
0.0
 40
17.041667
100
AcDbArc
 50
162.938469
 51
197.061531
  0
ARC
  5
54F
100
AcDbEntity
  8
LAY-1
  6
CONTINUOUS
 62
     2
100
AcDbCircle
 10
2435.541667
 20
1107.5
 30
0.0
 40
4.541667
100
AcDbArc
 50
146.601512
 51
213.398488
  0
ARC
  5
550
100
AcDbEntity
  8
LAY-1
  6
CONTINUOUS
 62
     2
100
AcDbCircle
 10
2439.458333
 20
1107.5
 30
0.0
 40
4.541667
100
AcDbArc
 50
326.601512
 51
33.398488
  0
ARC
  5
551
100
AcDbEntity
  8
LAY-1
  6
CONTINUOUS
 62
     2
100
AcDbCircle
 10
2426.958333
 20
1100.0
 30
0.0
 40
17.041667
100
AcDbArc
 50
342.938469
 51
17.061531
  0
LINE
  5
552
100
AcDbEntity
  8
LAY-1
  6
CONTINUOUS
 62
     2
100
AcDbLine
 10
2431.75
 20
1105.0
 30
0.0
 11
2443.25
 21
1105.0
 31
0.0
  0
LINE
  5
553
100
AcDbEntity
  8
LAY-1
  6
CONTINUOUS
 62
     2
100
AcDbLine
 10
2443.25
 20
1110.0
 30
0.0
 11
2431.75
 21
1110.0
 31
0.0
  0
LINE
  5
554
100
AcDbEntity
  8
LAY-1
  6
CONTINUOUS
 62
     2
100
AcDbLine
 10
2483.0
 20
1111.0
 30
0.0
 11
2477.0
 21
1111.0
 31
0.0
  0
ARC
  5
555
100
AcDbEntity
  8
LAY-1
  6
CONTINUOUS
 62
     2
100
AcDbCircle
 10
2491.458333
 20
1107.5
 30
0.0
 40
4.541667
100
AcDbArc
 50
326.601512
 51
33.398488
  0
ARC
  5
556
100
AcDbEntity
  8
LAY-1
  6
CONTINUOUS
 62
     2
100
AcDbCircle
 10
2478.958333
 20
1100.0
 30
0.0
 40
17.041667
100
AcDbArc
 50
342.938469
 51
17.061531
  0
LINE
  5
557
100
AcDbEntity
  8
LAY-1
  6
CONTINUOUS
 62
     2
100
AcDbLine
 10
2495.25
 20
1110.0
 30
0.0
 11
2483.0
 21
1110.0
 31
0.0
  0
LINE
  5
558
100
AcDbEntity
  8
LAY-1
  6
CONTINUOUS
 62
     2
100
AcDbLine
 10
2495.25
 20
1105.0
 30
0.0
 11
2483.0
 21
1105.0
 31
0.0
  0
LINE
  5
559
100
AcDbEntity
  8
LAY-1
  6
CONTINUOUS
 62
     2
100
AcDbLine
 10
2477.0
 20
1109.0
 30
0.0
 11
2471.0
 21
1108.73913
 31
0.0
  0
LINE
  5
55A
100
AcDbEntity
  8
LAY-1
  6
CONTINUOUS
 62
     2
100
AcDbLine
 10
2454.0
 20
1082.0
 30
0.0
 11
2444.0
 21
1082.0
 31
0.0
  0
ARC
  5
55B
100
AcDbEntity
  8
LAY-1
  6
CONTINUOUS
 62
     2
100
AcDbCircle
 10
2435.541667
 20
1082.5
 30
0.0
 40
4.541667
100
AcDbArc
 50
146.601512
 51
213.398488
  0
ARC
  5
55C
100
AcDbEntity
  8
LAY-1
  6
CONTINUOUS
 62
     2
100
AcDbCircle
 10
2439.458333
 20
1082.5
 30
0.0
 40
4.541667
100
AcDbArc
 50
326.601512
 51
33.398488
  0
LINE
  5
55D
100
AcDbEntity
  8
LAY-1
  6
CONTINUOUS
 62
     2
100
AcDbLine
 10
2443.25
 20
1080.0
 30
0.0
 11
2431.75
 21
1080.0
 31
0.0
  0
LINE
  5
55E
100
AcDbEntity
  8
LAY-1
  6
CONTINUOUS
 62
     2
100
AcDbLine
 10
2431.75
 20
1085.0
 30
0.0
 11
2443.25
 21
1085.0
 31
0.0
  0
LINE
  5
55F
100
AcDbEntity
  8
LAY-1
  6
CONTINUOUS
 62
     2
100
AcDbLine
 10
2483.0
 20
1079.0
 30
0.0
 11
2477.0
 21
1079.0
 31
0.0
  0
ARC
  5
560
100
AcDbEntity
  8
LAY-1
  6
CONTINUOUS
 62
     2
100
AcDbCircle
 10
2491.458333
 20
1082.5
 30
0.0
 40
4.541667
100
AcDbArc
 50
326.601512
 51
33.398488
  0
LINE
  5
561
100
AcDbEntity
  8
LAY-1
  6
CONTINUOUS
 62
     2
100
AcDbLine
 10
2495.25
 20
1080.0
 30
0.0
 11
2483.0
 21
1080.0
 31
0.0
  0
LINE
  5
562
100
AcDbEntity
  8
LAY-1
  6
CONTINUOUS
 62
     2
100
AcDbLine
 10
2495.25
 20
1085.0
 30
0.0
 11
2483.0
 21
1085.0
 31
0.0
  0
LINE
  5
563
100
AcDbEntity
  8
LAY-1
  6
CONTINUOUS
 62
     2
100
AcDbLine
 10
2477.0
 20
1081.0
 30
0.0
 11
2454.0
 21
1082.0
 31
0.0
  0
LINE
  5
564
100
AcDbEntity
  8
LAY-1
  6
CONTINUOUS
 62
     2
100
AcDbLine
 10
2483.0
 20
1111.0
 30
0.0
 11
2483.0
 21
1079.0
 31
0.0
  0
LINE
  5
565
100
AcDbEntity
  8
LAY-1
  6
CONTINUOUS
 62
     2
100
AcDbLine
 10
2480.0
 20
1111.0
 30
0.0
 11
2480.0
 21
1079.0
 31
0.0
  0
LINE
  5
566
100
AcDbEntity
  8
LAY-1
  6
CONTINUOUS
 62
     2
100
AcDbLine
 10
2477.0
 20
1111.0
 30
0.0
 11
2477.0
 21
1079.0
 31
0.0
  0
ARC
  5
567
100
AcDbEntity
  8
LAY-1
  6
CONTINUOUS
 62
     2
100
AcDbCircle
 10
2478.958333
 20
1090.0
 30
0.0
 40
17.041667
100
AcDbArc
 50
342.938469
 51
17.061531
  0
LINE
  5
568
100
AcDbEntity
  8
LAY-1
  6
CONTINUOUS
 62
     2
100
AcDbLine
 10
2496.0
 20
1107.5
 30
0.0
 11
2496.0
 21
1082.5
 31
0.0
  0
ARC
  5
569
100
AcDbEntity
  8
LAY-1
  6
CONTINUOUS
 62
     2
100
AcDbCircle
 10
2448.041667
 20
1090.0
 30
0.0
 40
17.041667
100
AcDbArc
 50
162.938469
 51
197.061531
  0
ARC
  5
56A
100
AcDbEntity
  8
LAY-1
  6
CONTINUOUS
 62
     2
100
AcDbCircle
 10
2426.958333
 20
1090.0
 30
0.0
 40
17.041667
100
AcDbArc
 50
342.938469
 51
17.061531
  0
LINE
  5
56B
100
AcDbEntity
  8
LAY-1
  6
CONTINUOUS
 62
     2
100
AcDbLine
 10
2444.0
 20
1107.5
 30
0.0
 11
2444.0
 21
1082.5
 31
0.0
  0
LINE
  5
56C
100
AcDbEntity
  8
LAY-1
  6
CONTINUOUS
 62
     2
100
AcDbLine
 10
2431.0
 20
1107.5
 30
0.0
 11
2431.0
 21
1082.5
 31
0.0
  0
LINE
  5
56D
100
AcDbEntity
  8
LAY-1
  6
CONTINUOUS
 62
     2
100
AcDbLine
 10
2454.0
 20
1105.0
 30
0.0
 11
2454.0
 21
1085.0
 31
0.0
  0
LINE
  5
56E
100
AcDbEntity
  8
LAY-1
  6
CONTINUOUS
 62
     2
100
AcDbLine
 10
2519.0
 20
1084.15
 30
0.0
 11
2496.0
 21
1084.15
 31
0.0
  0
LINE
  5
56F
100
AcDbEntity
  8
LAY-1
  6
CONTINUOUS
 62
     2
100
AcDbLine
 10
2519.0
 20
1105.85
 30
0.0
 11
2496.0
 21
1105.85
 31
0.0
  0
LINE
  5
570
100
AcDbEntity
  8
LAY-1
  6
CONTINUOUS
 62
     2
100
AcDbLine
 10
2513.0
 20
1084.15
 30
0.0
 11
2513.0
 21
1105.85
 31
0.0
  0
LINE
  5
571
100
AcDbEntity
  8
LAY-1
  6
CONTINUOUS
 62
     2
100
AcDbLine
 10
2515.0
 20
1084.15
 30
0.0
 11
2515.0
 21
1105.85
 31
0.0
  0
LINE
  5
572
100
AcDbEntity
  8
LAY-1
  6
CONTINUOUS
 62
     2
100
AcDbLine
 10
2517.0
 20
1084.15
 30
0.0
 11
2517.0
 21
1105.85
 31
0.0
  0
LINE
  5
573
100
AcDbEntity
  8
LAY-1
  6
CONTINUOUS
 62
     2
100
AcDbLine
 10
2469.5
 20
1141.0
 30
0.0
 11
2471.5
 21
1124.3
 31
0.0
  0
LINE
  5
574
100
AcDbEntity
  8
LAY-1
  6
CONTINUOUS
 62
     2
100
AcDbLine
 10
2457.5
 20
1141.0
 30
0.0
 11
2455.5
 21
1124.3
 31
0.0
  0
LINE
  5
575
100
AcDbEntity
  8
LAY-1
  6
CONTINUOUS
 62
     2
100
AcDbLine
 10
2469.5
 20
1143.3
 30
0.0
 11
2469.5
 21
1141.0
 31
0.0
  0
LINE
  5
576
100
AcDbEntity
  8
LAY-1
  6
CONTINUOUS
 62
     2
100
AcDbLine
 10
2457.5
 20
1143.3
 30
0.0
 11
2457.5
 21
1141.0
 31
0.0
  0
LINE
  5
577
100
AcDbEntity
  8
LAY-1
  6
CONTINUOUS
 62
     2
100
AcDbLine
 10
2469.5
 20
1143.3
 30
0.0
 11
2457.5
 21
1143.3
 31
0.0
  0
LINE
  5
578
100
AcDbEntity
  8
LAY-1
  6
CONTINUOUS
 62
     2
100
AcDbLine
 10
2466.0
 20
1130.3
 30
0.0
 11
2466.0
 21
1128.3
 31
0.0
  0
LINE
  5
579
100
AcDbEntity
  8
LAY-1
  6
CONTINUOUS
 62
     2
100
AcDbLine
 10
2461.0
 20
1130.3
 30
0.0
 11
2461.0
 21
1128.3
 31
0.0
  0
LINE
  5
57A
100
AcDbEntity
  8
LAY-1
  6
CONTINUOUS
 62
     2
100
AcDbLine
 10
2466.5
 20
1129.8
 30
0.0
 11
2460.5
 21
1129.8
 31
0.0
  0
LINE
  5
57B
100
AcDbEntity
  8
LAY-1
  6
CONTINUOUS
 62
     2
100
AcDbLine
 10
2455.5
 20
1124.3
 30
0.0
 11
2455.5
 21
1121.0
 31
0.0
  0
LINE
  5
57C
100
AcDbEntity
  8
LAY-1
  6
CONTINUOUS
 62
     2
100
AcDbLine
 10
2471.5
 20
1124.3
 30
0.0
 11
2471.5
 21
1121.0
 31
0.0
  0
LINE
  5
57D
100
AcDbEntity
  8
LAY-1
  6
CONTINUOUS
 62
     2
100
AcDbLine
 10
2471.5
 20
1124.3
 30
0.0
 11
2455.5
 21
1124.3
 31
0.0
  0
LINE
  5
57E
100
AcDbEntity
  8
LAY-1
  6
CONTINUOUS
 62
     2
100
AcDbLine
 10
2471.5
 20
1123.3
 30
0.0
 11
2455.5
 21
1123.3
 31
0.0
  0
LINE
  5
57F
100
AcDbEntity
  8
LAY-1
  6
CONTINUOUS
 62
     2
100
AcDbLine
 10
2471.5
 20
1121.0
 30
0.0
 11
2455.5
 21
1121.0
 31
0.0
  0
LINE
  5
580
100
AcDbEntity
  8
LAY-1
  6
CONTINUOUS
 62
     2
100
AcDbLine
 10
2502.0
 20
1084.15
 30
0.0
 11
2502.0
 21
1105.85
 31
0.0
  0
LINE
  5
581
100
AcDbEntity
  8
LAY-1
  6
CONTINUOUS
 62
     2
100
AcDbLine
 10
2500.0
 20
1084.15
 30
0.0
 11
2500.0
 21
1105.85
 31
0.0
  0
LINE
  5
582
100
AcDbEntity
  8
LAY-1
  6
CONTINUOUS
 62
     2
100
AcDbLine
 10
2498.0
 20
1084.15
 30
0.0
 11
2498.0
 21
1105.85
 31
0.0
  0
LINE
  5
583
100
AcDbEntity
  8
LAY-1
  6
CONTINUOUS
 62
     2
100
AcDbLine
 10
2415.0
 20
1101.859343
 30
0.0
 11
2425.0
 21
1101.859343
 31
0.0
  0
LINE
  5
584
100
AcDbEntity
  8
LAY-1
  6
CONTINUOUS
 62
     2
100
AcDbLine
 10
2415.0
 20
1087.859343
 30
0.0
 11
2425.0
 21
1087.859343
 31
0.0
  0
LINE
  5
585
100
AcDbEntity
  8
LAY-1
  6
CONTINUOUS
 62
     2
100
AcDbLine
 10
2425.0
 20
1084.009343
 30
0.0
 11
2431.0
 21
1084.009343
 31
0.0
  0
LINE
  5
586
100
AcDbEntity
  8
LAY-1
  6
CONTINUOUS
 62
     2
100
AcDbLine
 10
2425.0
 20
1105.709343
 30
0.0
 11
2431.0
 21
1105.709343
 31
0.0
  0
LINE
  5
587
100
AcDbEntity
  8
LAY-1
  6
CONTINUOUS
 62
     2
100
AcDbLine
 10
2429.0
 20
1105.709343
 30
0.0
 11
2429.0
 21
1084.009343
 31
0.0
  0
LINE
  5
588
100
AcDbEntity
  8
LAY-1
  6
CONTINUOUS
 62
     2
100
AcDbLine
 10
2427.0
 20
1105.709343
 30
0.0
 11
2427.0
 21
1084.009343
 31
0.0
  0
LINE
  5
589
100
AcDbEntity
  8
LAY-1
  6
CONTINUOUS
 62
     2
100
AcDbLine
 10
2425.0
 20
1105.709343
 30
0.0
 11
2425.0
 21
1084.009343
 31
0.0
  0
LINE
  5
58A
100
AcDbEntity
  8
LAY-1
  6
CONTINUOUS
 62
     2
100
AcDbLine
 10
2415.0
 20
1101.859343
 30
0.0
 11
2415.0
 21
1087.859343
 31
0.0
  0
ARC
  5
58B
100
AcDbEntity
  8
LAY-1
  6
CONTINUOUS
 62
     2
100
AcDbCircle
 10
1078.6
 20
1116.400855
 30
0.0
 40
2.0
100
AcDbArc
 50
289.983107
 51
0.0
  0
LINE
  5
58C
100
AcDbEntity
  8
LAY-1
  6
CONTINUOUS
 62
     2
100
AcDbLine
 10
1079.283486
 20
1114.521268
 30
0.0
 11
1075.1
 21
1113.0
 31
0.0
  0
LINE
  5
58D
100
AcDbEntity
  8
LAY-1
  6
CONTINUOUS
 62
     2
100
AcDbLine
 10
1077.6
 20
1121.3
 30
0.0
 11
1080.6
 21
1121.3
 31
0.0
  0
LINE
  5
58E
100
AcDbEntity
  8
LAY-1
  6
CONTINUOUS
 62
     2
100
AcDbLine
 10
1077.6
 20
1121.3
 30
0.0
 11
1077.6
 21
1118.0
 31
0.0
  0
LINE
  5
58F
100
AcDbEntity
  8
LAY-1
  6
CONTINUOUS
 62
     2
100
AcDbLine
 10
1080.6
 20
1121.3
 30
0.0
 11
1080.6
 21
1116.400855
 31
0.0
  0
LINE
  5
590
100
AcDbEntity
  8
LAY-1
  6
CONTINUOUS
 62
     2
100
AcDbLine
 10
1076.6
 20
1119.0
 30
0.0
 11
1060.6
 21
1119.0
 31
0.0
  0
LINE
  5
591
100
AcDbEntity
  8
LAY-1
  6
CONTINUOUS
 62
     2
100
AcDbLine
 10
1076.6
 20
1121.3
 30
0.0
 11
1060.6
 21
1121.3
 31
0.0
  0
LINE
  5
592
100
AcDbEntity
  8
LAY-1
  6
CONTINUOUS
 62
     2
100
AcDbLine
 10
1062.1
 20
1111.5
 30
0.0
 11
1061.348963
 21
1107.434602
 31
0.0
  0
LINE
  5
593
100
AcDbEntity
  8
LAY-1
  6
CONTINUOUS
 62
     2
100
AcDbLine
 10
1075.1
 20
1111.5
 30
0.0
 11
1075.966191
 21
1107.376178
 31
0.0
  0
LINE
  5
594
100
AcDbEntity
  8
LAY-1
  6
CONTINUOUS
 62
     2
100
AcDbLine
 10
1075.1
 20
1118.0
 30
0.0
 11
1075.1
 21
1111.5
 31
0.0
  0
LINE
  5
595
100
AcDbEntity
  8
LAY-1
  6
CONTINUOUS
 62
     2
100
AcDbLine
 10
1062.1
 20
1118.0
 30
0.0
 11
1062.1
 21
1111.5
 31
0.0
  0
ARC
  5
596
100
AcDbEntity
  8
LAY-1
  6
CONTINUOUS
 62
     2
100
AcDbCircle
 10
1064.1
 20
1124.8
 30
0.0
 40
2.5
100
AcDbArc
 50
233.130102
 51
306.869898
  0
ARC
  5
597
100
AcDbEntity
  8
LAY-1
  6
CONTINUOUS
 62
     2
100
AcDbCircle
 10
1064.1
 20
1123.8
 30
0.0
 40
2.5
100
AcDbArc
 50
53.130102
 51
126.869898
  0
LINE
  5
598
100
AcDbEntity
  8
LAY-1
  6
CONTINUOUS
 62
     2
100
AcDbLine
 10
1077.6
 20
1118.0
 30
0.0
 11
1062.1
 21
1118.0
 31
0.0
  0
LINE
  5
599
100
AcDbEntity
  8
LAY-1
  6
CONTINUOUS
 62
     2
100
AcDbLine
 10
1065.6
 20
1126.3
 30
0.0
 11
1065.6
 21
1127.8
 31
0.0
  0
LINE
  5
59A
100
AcDbEntity
  8
LAY-1
  6
CONTINUOUS
 62
     2
100
AcDbLine
 10
1071.6
 20
1126.3
 30
0.0
 11
1071.6
 21
1127.8
 31
0.0
  0
LINE
  5
59B
100
AcDbEntity
  8
LAY-1
  6
CONTINUOUS
 62
     2
100
AcDbLine
 10
1066.1
 20
1128.3
 30
0.0
 11
1065.6
 21
1127.8
 31
0.0
  0
LINE
  5
59C
100
AcDbEntity
  8
LAY-1
  6
CONTINUOUS
 62
     2
100
AcDbLine
 10
1071.1
 20
1128.3
 30
0.0
 11
1066.1
 21
1128.3
 31
0.0
  0
LINE
  5
59D
100
AcDbEntity
  8
LAY-1
  6
CONTINUOUS
 62
     2
100
AcDbLine
 10
1071.6
 20
1127.8
 30
0.0
 11
1071.1
 21
1128.3
 31
0.0
  0
LINE
  5
59E
100
AcDbEntity
  8
LAY-1
  6
CONTINUOUS
 62
     2
100
AcDbLine
 10
1074.6
 20
1125.8
 30
0.0
 11
1074.6
 21
1122.8
 31
0.0
  0
LINE
  5
59F
100
AcDbEntity
  8
LAY-1
  6
CONTINUOUS
 62
     2
100
AcDbLine
 10
1073.1
 20
1126.3
 30
0.0
 11
1064.1
 21
1126.3
 31
0.0
  0
LINE
  5
5A0
100
AcDbEntity
  8
LAY-1
  6
CONTINUOUS
 62
     2
100
AcDbLine
 10
1071.6
 20
1125.8
 30
0.0
 11
1071.6
 21
1122.8
 31
0.0
  0
LINE
  5
5A1
100
AcDbEntity
  8
LAY-1
  6
CONTINUOUS
 62
     2
100
AcDbLine
 10
1065.6
 20
1125.8
 30
0.0
 11
1065.6
 21
1122.8
 31
0.0
  0
ARC
  5
5A2
100
AcDbEntity
  8
LAY-1
  6
CONTINUOUS
 62
     2
100
AcDbCircle
 10
1068.6
 20
1131.55
 30
0.0
 40
9.25
100
AcDbArc
 50
251.075356
 51
288.924644
  0
ARC
  5
5A3
100
AcDbEntity
  8
LAY-1
  6
CONTINUOUS
 62
     2
100
AcDbCircle
 10
1073.1
 20
1124.8
 30
0.0
 40
2.5
100
AcDbArc
 50
233.130102
 51
306.869898
  0
ARC
  5
5A4
100
AcDbEntity
  8
LAY-1
  6
CONTINUOUS
 62
     2
100
AcDbCircle
 10
1068.6
 20
1117.05
 30
0.0
 40
9.25
100
AcDbArc
 50
71.075356
 51
108.924644
  0
ARC
  5
5A5
100
AcDbEntity
  8
LAY-1
  6
CONTINUOUS
 62
     2
100
AcDbCircle
 10
1073.1
 20
1123.8
 30
0.0
 40
2.5
100
AcDbArc
 50
53.130102
 51
126.869898
  0
LINE
  5
5A6
100
AcDbEntity
  8
LAY-1
  6
CONTINUOUS
 62
     2
100
AcDbLine
 10
1071.6
 20
1119.0
 30
0.0
 11
1071.6
 21
1118.0
 31
0.0
  0
LINE
  5
5A7
100
AcDbEntity
  8
LAY-1
  6
CONTINUOUS
 62
     2
100
AcDbLine
 10
1065.6
 20
1119.0
 30
0.0
 11
1065.6
 21
1118.0
 31
0.0
  0
LINE
  5
5A8
100
AcDbEntity
  8
LAY-1
  6
CONTINUOUS
 62
     2
100
AcDbLine
 10
1062.6
 20
1125.8
 30
0.0
 11
1062.6
 21
1122.8
 31
0.0
  0
LINE
  5
5A9
100
AcDbEntity
  8
LAY-1
  6
CONTINUOUS
 62
     2
100
AcDbLine
 10
1060.6
 20
1119.0
 30
0.0
 11
1052.6
 21
1119.0
 31
0.0
  0
LINE
  5
5AA
100
AcDbEntity
  8
LAY-1
  6
CONTINUOUS
 62
     2
100
AcDbLine
 10
1060.6
 20
1121.3
 30
0.0
 11
1054.395786
 21
1121.3
 31
0.0
  0
LINE
  5
5AB
100
AcDbEntity
  8
LAY-1
  6
CONTINUOUS
 62
     2
100
AcDbLine
 10
1076.6
 20
1122.3
 30
0.0
 11
1060.6
 21
1122.3
 31
0.0
  0
LINE
  5
5AC
100
AcDbEntity
  8
LAY-1
  6
CONTINUOUS
 62
     2
100
AcDbLine
 10
1076.6
 20
1122.3
 30
0.0
 11
1076.6
 21
1119.0
 31
0.0
  0
LINE
  5
5AD
100
AcDbEntity
  8
LAY-1
  6
CONTINUOUS
 62
     2
100
AcDbLine
 10
1071.1
 20
1128.3
 30
0.0
 11
1071.1
 21
1126.3
 31
0.0
  0
LINE
  5
5AE
100
AcDbEntity
  8
LAY-1
  6
CONTINUOUS
 62
     2
100
AcDbLine
 10
1066.1
 20
1128.3
 30
0.0
 11
1066.1
 21
1126.3
 31
0.0
  0
LINE
  5
5AF
100
AcDbEntity
  8
LAY-1
  6
CONTINUOUS
 62
     2
100
AcDbLine
 10
1071.6
 20
1127.8
 30
0.0
 11
1065.6
 21
1127.8
 31
0.0
  0
LINE
  5
5B0
100
AcDbEntity
  8
LAY-1
  6
CONTINUOUS
 62
     2
100
AcDbLine
 10
1060.6
 20
1122.3
 30
0.0
 11
1060.6
 21
1119.0
 31
0.0
  0
LINE
  5
5B1
100
AcDbEntity
  8
LAY-1
  6
CONTINUOUS
 62
     2
100
AcDbLine
 10
1047.6
 20
1139.0
 30
0.0
 11
1052.6
 21
1119.0
 31
0.0
  0
LINE
  5
5B2
100
AcDbEntity
  8
LAY-1
  6
CONTINUOUS
 62
     2
100
AcDbLine
 10
1049.395786
 20
1141.3
 30
0.0
 11
1054.395786
 21
1121.3
 31
0.0
  0
LINE
  5
5B3
100
AcDbEntity
  8
LAY-1
  6
CONTINUOUS
 62
     2
100
AcDbLine
 10
1049.395786
 20
1141.3
 30
0.0
 11
989.6
 21
1141.3
 31
0.0
  0
LINE
  5
5B4
100
AcDbEntity
  8
LAY-1
  6
CONTINUOUS
 62
     2
100
AcDbLine
 10
1047.6
 20
1139.0
 30
0.0
 11
989.6
 21
1139.0
 31
0.0
  0
LINE
  5
5B5
100
AcDbEntity
  8
LAY-1
  6
CONTINUOUS
 62
     2
100
AcDbLine
 10
989.6
 20
1141.3
 30
0.0
 11
989.6
 21
1139.0
 31
0.0
  0
CIRCLE
  5
5B6
100
AcDbEntity
  8
LAY-1
  6
CONTINUOUS
 62
     2
100
AcDbCircle
 10
1068.6
 20
1093.0
 30
0.0
 40
16.153491
  0
CIRCLE
  5
5B7
100
AcDbEntity
  8
LAY-1
  6
CONTINUOUS
 62
     2
100
AcDbCircle
 10
1068.6
 20
1093.0
 30
0.0
 40
15.0
  0
LINE
  5
5B8
100
AcDbEntity
  8
LAY-1
  6
CONTINUOUS
 62
     2
100
AcDbLine
 10
967.6
 20
1093.0
 30
0.0
 11
1053.6
 21
1093.0
 31
0.0
  0
LINE
  5
5B9
100
AcDbEntity
  8
LAY-5
  6
CONTINUOUS
 62
     1
100
AcDbLine
 10
4411.5
 20
3085.5
 30
0.0
 11
4667.5
 21
3085.5
 31
0.0
  0
LINE
  5
5BA
100
AcDbEntity
  8
LAY-5
  6
CONTINUOUS
 62
     1
100
AcDbLine
 10
4411.5
 20
3485.5
 30
0.0
 11
4667.5
 21
3485.5
 31
0.0
  0
TEXT
  5
5BB
100
AcDbEntity
  8
LAY-5
  6
CONTINUOUS
 62
     3
100
AcDbText
 10
4666.0
 20
3173.0
 30
0.0
 40
75.0
  1
４００
 50
90.0
 41
0.84
  7
EXCADSTD
 72
     5
 11
4666.0
 21
3398.0
 31
0.0
100
AcDbText
  0
LINE
  5
5BC
100
AcDbEntity
  8
LAY-5
  6
CONTINUOUS
 62
     1
100
AcDbLine
 10
4667.0
 20
3085.5
 30
0.0
 11
4667.0
 21
3485.5
 31
0.0
  0
LINE
  5
5BD
100
AcDbEntity
  8
LAY-5
  6
CONTINUOUS
 62
     1
100
AcDbLine
 10
4654.5
 20
3160.5
 30
0.0
 11
4667.0
 21
3085.5
 31
0.0
  0
LINE
  5
5BE
100
AcDbEntity
  8
LAY-5
  6
CONTINUOUS
 62
     1
100
AcDbLine
 10
4667.0
 20
3085.5
 30
0.0
 11
4679.5
 21
3160.5
 31
0.0
  0
LINE
  5
5BF
100
AcDbEntity
  8
LAY-5
  6
CONTINUOUS
 62
     1
100
AcDbLine
 10
4679.5
 20
3410.5
 30
0.0
 11
4667.0
 21
3485.5
 31
0.0
  0
LINE
  5
5C0
100
AcDbEntity
  8
LAY-5
  6
CONTINUOUS
 62
     1
100
AcDbLine
 10
4667.0
 20
3485.5
 30
0.0
 11
4654.5
 21
3410.5
 31
0.0
  0
LINE
  5
5C1
100
AcDbEntity
  8
LAY-5
  6
CONTINUOUS
 62
     1
100
AcDbLine
 10
4398.0
 20
3590.5
 30
0.0
 11
4826.5
 21
3590.5
 31
0.0
  0
LINE
  5
5C2
100
AcDbEntity
  8
LAY-5
  6
CONTINUOUS
 62
     1
100
AcDbLine
 10
4398.0
 20
2980.5
 30
0.0
 11
4826.5
 21
2980.5
 31
0.0
  0
TEXT
  5
5C3
100
AcDbEntity
  8
LAY-5
  6
CONTINUOUS
 62
     3
100
AcDbText
 10
4825.0
 20
3173.0
 30
0.0
 40
75.0
  1
６１０
 50
90.0
 41
0.84
  7
EXCADSTD
 72
     5
 11
4825.0
 21
3398.0
 31
0.0
100
AcDbText
  0
LINE
  5
5C4
100
AcDbEntity
  8
LAY-5
  6
CONTINUOUS
 62
     1
100
AcDbLine
 10
4826.0
 20
3590.5
 30
0.0
 11
4826.0
 21
2980.5
 31
0.0
  0
LINE
  5
5C5
100
AcDbEntity
  8
LAY-5
  6
CONTINUOUS
 62
     1
100
AcDbLine
 10
4838.5
 20
3515.5
 30
0.0
 11
4826.0
 21
3590.5
 31
0.0
  0
LINE
  5
5C6
100
AcDbEntity
  8
LAY-5
  6
CONTINUOUS
 62
     1
100
AcDbLine
 10
4826.0
 20
3590.5
 30
0.0
 11
4813.5
 21
3515.5
 31
0.0
  0
LINE
  5
5C7
100
AcDbEntity
  8
LAY-5
  6
CONTINUOUS
 62
     1
100
AcDbLine
 10
4813.5
 20
3055.5
 30
0.0
 11
4826.0
 21
2980.5
 31
0.0
  0
LINE
  5
5C8
100
AcDbEntity
  8
LAY-5
  6
CONTINUOUS
 62
     1
100
AcDbLine
 10
4826.0
 20
2980.5
 30
0.0
 11
4838.5
 21
3055.5
 31
0.0
  0
LINE
  5
5C9
100
AcDbEntity
  8
LAY-5
  6
CONTINUOUS
 62
     1
100
AcDbLine
 10
3738.0
 20
3071.4
 30
0.0
 11
3738.0
 21
2727.5
 31
0.0
  0
LINE
  5
5CA
100
AcDbEntity
  8
LAY-5
  6
CONTINUOUS
 62
     1
100
AcDbLine
 10
4398.0
 20
3071.4
 30
0.0
 11
4398.0
 21
2727.5
 31
0.0
  0
TEXT
  5
5CB
100
AcDbEntity
  8
LAY-5
  6
CONTINUOUS
 62
     3
100
AcDbText
 10
3955.5
 20
2729.0
 30
0.0
 40
75.0
  1
６６０
 41
0.84
  7
EXCADSTD
 72
     5
 11
4180.5
 21
2729.0
 31
0.0
100
AcDbText
  0
LINE
  5
5CC
100
AcDbEntity
  8
LAY-5
  6
CONTINUOUS
 62
     1
100
AcDbLine
 10
3738.0
 20
2728.0
 30
0.0
 11
4398.0
 21
2728.0
 31
0.0
  0
LINE
  5
5CD
100
AcDbEntity
  8
LAY-5
  6
CONTINUOUS
 62
     1
100
AcDbLine
 10
3813.0
 20
2740.5
 30
0.0
 11
3738.0
 21
2728.0
 31
0.0
  0
LINE
  5
5CE
100
AcDbEntity
  8
LAY-5
  6
CONTINUOUS
 62
     1
100
AcDbLine
 10
3738.0
 20
2728.0
 30
0.0
 11
3813.0
 21
2715.5
 31
0.0
  0
LINE
  5
5CF
100
AcDbEntity
  8
LAY-5
  6
CONTINUOUS
 62
     1
100
AcDbLine
 10
4323.0
 20
2715.5
 30
0.0
 11
4398.0
 21
2728.0
 31
0.0
  0
LINE
  5
5D0
100
AcDbEntity
  8
LAY-5
  6
CONTINUOUS
 62
     1
100
AcDbLine
 10
4398.0
 20
2728.0
 30
0.0
 11
4323.0
 21
2740.5
 31
0.0
  0
LINE
  5
5D1
100
AcDbEntity
  8
LAY-5
  6
CONTINUOUS
 62
     1
100
AcDbLine
 10
3718.0
 20
3000.5
 30
0.0
 11
3718.0
 21
2584.5
 31
0.0
  0
LINE
  5
5D2
100
AcDbEntity
  8
LAY-5
  6
CONTINUOUS
 62
     1
100
AcDbLine
 10
4418.0
 20
3000.5
 30
0.0
 11
4418.0
 21
2584.5
 31
0.0
  0
TEXT
  5
5D3
100
AcDbEntity
  8
LAY-5
  6
CONTINUOUS
 62
     3
100
AcDbText
 10
3955.5
 20
2586.0
 30
0.0
 40
75.0
  1
７００
 41
0.84
  7
EXCADSTD
 72
     5
 11
4180.5
 21
2586.0
 31
0.0
100
AcDbText
  0
LINE
  5
5D4
100
AcDbEntity
  8
LAY-5
  6
CONTINUOUS
 62
     1
100
AcDbLine
 10
3718.0
 20
2585.0
 30
0.0
 11
4418.0
 21
2585.0
 31
0.0
  0
LINE
  5
5D5
100
AcDbEntity
  8
LAY-5
  6
CONTINUOUS
 62
     1
100
AcDbLine
 10
3793.0
 20
2597.5
 30
0.0
 11
3718.0
 21
2585.0
 31
0.0
  0
LINE
  5
5D6
100
AcDbEntity
  8
LAY-5
  6
CONTINUOUS
 62
     1
100
AcDbLine
 10
3718.0
 20
2585.0
 30
0.0
 11
3793.0
 21
2572.5
 31
0.0
  0
LINE
  5
5D7
100
AcDbEntity
  8
LAY-5
  6
CONTINUOUS
 62
     1
100
AcDbLine
 10
4343.0
 20
2572.5
 30
0.0
 11
4418.0
 21
2585.0
 31
0.0
  0
LINE
  5
5D8
100
AcDbEntity
  8
LAY-5
  6
CONTINUOUS
 62
     1
100
AcDbLine
 10
4418.0
 20
2585.0
 30
0.0
 11
4343.0
 21
2597.5
 31
0.0
  0
LINE
  5
5D9
100
AcDbEntity
  8
LAY-5
  6
CONTINUOUS
 62
     1
100
AcDbLine
 10
1467.45
 20
1835.0
 30
0.0
 11
1898.5
 21
1835.0
 31
0.0
  0
LINE
  5
5DA
100
AcDbEntity
  8
LAY-5
  6
CONTINUOUS
 62
     1
100
AcDbLine
 10
1607.6
 20
1035.0
 30
0.0
 11
1898.5
 21
1035.0
 31
0.0
  0
TEXT
  5
5DB
100
AcDbEntity
  8
LAY-5
  6
CONTINUOUS
 62
     3
100
AcDbText
 10
1897.0
 20
1322.5
 30
0.0
 40
75.0
  1
８００
 50
90.0
 41
0.84
  7
EXCADSTD
 72
     5
 11
1897.0
 21
1547.5
 31
0.0
100
AcDbText
  0
LINE
  5
5DC
100
AcDbEntity
  8
LAY-5
  6
CONTINUOUS
 62
     1
100
AcDbLine
 10
1898.0
 20
1835.0
 30
0.0
 11
1898.0
 21
1035.0
 31
0.0
  0
LINE
  5
5DD
100
AcDbEntity
  8
LAY-5
  6
CONTINUOUS
 62
     1
100
AcDbLine
 10
1910.5
 20
1760.0
 30
0.0
 11
1898.0
 21
1835.0
 31
0.0
  0
LINE
  5
5DE
100
AcDbEntity
  8
LAY-5
  6
CONTINUOUS
 62
     1
100
AcDbLine
 10
1898.0
 20
1835.0
 30
0.0
 11
1885.5
 21
1760.0
 31
0.0
  0
LINE
  5
5DF
100
AcDbEntity
  8
LAY-5
  6
CONTINUOUS
 62
     1
100
AcDbLine
 10
1885.5
 20
1110.0
 30
0.0
 11
1898.0
 21
1035.0
 31
0.0
  0
LINE
  5
5E0
100
AcDbEntity
  8
LAY-5
  6
CONTINUOUS
 62
     1
100
AcDbLine
 10
1898.0
 20
1035.0
 30
0.0
 11
1910.5
 21
1110.0
 31
0.0
  0
LINE
  5
5E1
100
AcDbEntity
  8
LAY-5
  6
CONTINUOUS
 62
     1
100
AcDbLine
 10
1003.8
 20
1900.0
 30
0.0
 11
800.5
 21
1900.0
 31
0.0
  0
LINE
  5
5E2
100
AcDbEntity
  8
LAY-5
  6
CONTINUOUS
 62
     1
100
AcDbLine
 10
907.6
 20
1035.0
 30
0.0
 11
800.5
 21
1035.0
 31
0.0
  0
TEXT
  5
5E3
100
AcDbEntity
  8
LAY-5
  6
CONTINUOUS
 62
     3
100
AcDbText
 10
800.0
 20
1355.0
 30
0.0
 40
75.0
  1
８６５
 50
90.0
 41
0.84
  7
EXCADSTD
 72
     5
 11
800.0
 21
1580.0
 31
0.0
100
AcDbText
  0
LINE
  5
5E4
100
AcDbEntity
  8
LAY-5
  6
CONTINUOUS
 62
     1
100
AcDbLine
 10
801.0
 20
1900.0
 30
0.0
 11
801.0
 21
1035.0
 31
0.0
  0
LINE
  5
5E5
100
AcDbEntity
  8
LAY-5
  6
CONTINUOUS
 62
     1
100
AcDbLine
 10
813.5
 20
1825.0
 30
0.0
 11
801.0
 21
1900.0
 31
0.0
  0
LINE
  5
5E6
100
AcDbEntity
  8
LAY-5
  6
CONTINUOUS
 62
     1
100
AcDbLine
 10
801.0
 20
1900.0
 30
0.0
 11
788.5
 21
1825.0
 31
0.0
  0
LINE
  5
5E7
100
AcDbEntity
  8
LAY-5
  6
CONTINUOUS
 62
     1
100
AcDbLine
 10
788.5
 20
1110.0
 30
0.0
 11
801.0
 21
1035.0
 31
0.0
  0
LINE
  5
5E8
100
AcDbEntity
  8
LAY-5
  6
CONTINUOUS
 62
     1
100
AcDbLine
 10
801.0
 20
1035.0
 30
0.0
 11
813.5
 21
1110.0
 31
0.0
  0
LINE
  5
5E9
100
AcDbEntity
  8
LAY-5
  6
CONTINUOUS
 62
     1
100
AcDbLine
 10
907.6
 20
1035.0
 30
0.0
 11
662.5
 21
1035.0
 31
0.0
  0
LINE
  5
5EA
100
AcDbEntity
  8
LAY-5
  6
CONTINUOUS
 62
     1
100
AcDbLine
 10
963.6
 20
2015.0
 30
0.0
 11
662.5
 21
2015.0
 31
0.0
  0
TEXT
  5
5EB
100
AcDbEntity
  8
LAY-5
  6
CONTINUOUS
 62
     3
100
AcDbText
 10
662.0
 20
1412.5
 30
0.0
 40
75.0
  1
９８０
 50
90.0
 41
0.84
  7
EXCADSTD
 72
     5
 11
662.0
 21
1637.5
 31
0.0
100
AcDbText
  0
LINE
  5
5EC
100
AcDbEntity
  8
LAY-5
  6
CONTINUOUS
 62
     1
100
AcDbLine
 10
663.0
 20
1035.0
 30
0.0
 11
663.0
 21
2015.0
 31
0.0
  0
LINE
  5
5ED
100
AcDbEntity
  8
LAY-5
  6
CONTINUOUS
 62
     1
100
AcDbLine
 10
650.5
 20
1110.0
 30
0.0
 11
663.0
 21
1035.0
 31
0.0
  0
LINE
  5
5EE
100
AcDbEntity
  8
LAY-5
  6
CONTINUOUS
 62
     1
100
AcDbLine
 10
663.0
 20
1035.0
 30
0.0
 11
675.5
 21
1110.0
 31
0.0
  0
LINE
  5
5EF
100
AcDbEntity
  8
LAY-5
  6
CONTINUOUS
 62
     1
100
AcDbLine
 10
675.5
 20
1940.0
 30
0.0
 11
663.0
 21
2015.0
 31
0.0
  0
LINE
  5
5F0
100
AcDbEntity
  8
LAY-5
  6
CONTINUOUS
 62
     1
100
AcDbLine
 10
663.0
 20
2015.0
 30
0.0
 11
650.5
 21
1940.0
 31
0.0
  0
POLYLINE
  5
5F1
100
AcDbEntity
  8
LAY-5
  6
CONTINUOUS
 62
     1
100
AcDb2dPolyline
 66
     1
 10
0.0
 20
0.0
 30
0.0
 70
   128
  0
VERTEX
  5
5F2
100
AcDbEntity
  8
LAY-5
  6
CONTINUOUS
 62
     1
100
AcDbVertex
100
AcDb2dVertex
 10
1051.587734
 20
1947.016835
 30
0.0
  0
VERTEX
  5
5F3
100
AcDbEntity
  8
LAY-5
  6
CONTINUOUS
 62
     1
100
AcDbVertex
100
AcDb2dVertex
 10
890.870158
 20
2658.0
 30
0.0
  0
VERTEX
  5
5F4
100
AcDbEntity
  8
LAY-5
  6
CONTINUOUS
 62
     1
100
AcDbVertex
100
AcDb2dVertex
 10
2072.870158
 20
2658.0
 30
0.0
  0
SEQEND
  5
5F5
100
AcDbEntity
  8
LAY-5
  6
CONTINUOUS
 62
     1
  0
LINE
  5
5F6
100
AcDbEntity
  8
LAY-5
  6
CONTINUOUS
 62
     1
100
AcDbLine
 10
1022.858858
 20
2017.415001
 30
0.0
 11
1051.587734
 21
1947.016835
 31
0.0
  0
LINE
  5
5F7
100
AcDbEntity
  8
LAY-5
  6
CONTINUOUS
 62
     1
100
AcDbLine
 10
1051.587734
 20
1947.016835
 30
0.0
 11
1047.243608
 21
2022.927168
 31
0.0
  0
TEXT
  5
5F8
100
AcDbEntity
  8
LAY-5
  6
CONTINUOUS
 62
     3
100
AcDbText
 10
956.870158
 20
2658.3
 30
0.0
 40
75.0
  1
ＪＩＳ ２０Ｋ ２０Ａフランジ
 41
0.803911
  7
EXCADSTD
 72
     5
 11
2006.870158
 21
2658.3
 31
0.0
100
AcDbText
  0
POLYLINE
  5
5F9
100
AcDbEntity
  8
LAY-5
  6
CONTINUOUS
 62
     1
100
AcDb2dPolyline
 66
     1
 10
0.0
 20
0.0
 30
0.0
 70
   128
  0
VERTEX
  5
5FA
100
AcDbEntity
  8
LAY-5
  6
CONTINUOUS
 62
     1
100
AcDbVertex
100
AcDb2dVertex
 10
1360.836662
 20
1885.544109
 30
0.0
  0
VERTEX
  5
5FB
100
AcDbEntity
  8
LAY-5
  6
CONTINUOUS
 62
     1
100
AcDbVertex
100
AcDb2dVertex
 10
1217.870158
 20
2518.0
 30
0.0
  0
VERTEX
  5
5FC
100
AcDbEntity
  8
LAY-5
  6
CONTINUOUS
 62
     1
100
AcDbVertex
100
AcDb2dVertex
 10
2399.870158
 20
2518.0
 30
0.0
  0
SEQEND
  5
5FD
100
AcDbEntity
  8
LAY-5
  6
CONTINUOUS
 62
     1
  0
LINE
  5
5FE
100
AcDbEntity
  8
LAY-5
  6
CONTINUOUS
 62
     1
100
AcDbLine
 10
1332.107787
 20
1955.942275
 30
0.0
 11
1360.836662
 21
1885.544109
 31
0.0
  0
LINE
  5
5FF
100
AcDbEntity
  8
LAY-5
  6
CONTINUOUS
 62
     1
100
AcDbLine
 10
1360.836662
 20
1885.544109
 30
0.0
 11
1356.492536
 21
1961.454442
 31
0.0
  0
TEXT
  5
600
100
AcDbEntity
  8
LAY-5
  6
CONTINUOUS
 62
     3
100
AcDbText
 10
1283.870158
 20
2518.3
 30
0.0
 40
75.0
  1
ＪＩＳ ２０Ｋ ２５Ａフランジ
 41
0.803911
  7
EXCADSTD
 72
     5
 11
2333.870158
 21
2518.3
 31
0.0
100
AcDbText
  0
TEXT
  5
601
100
AcDbEntity
  8
LAY-5
  6
CONTINUOUS
 62
     3
100
AcDbText
 10
3113.0
 20
2900.3
 30
0.0
 40
75.0
  1
４－φ１５
 41
0.84
  7
EXCADSTD
 72
     5
 11
3488.0
 21
2900.3
 31
0.0
100
AcDbText
  0
POLYLINE
  5
602
100
AcDbEntity
  8
LAY-5
  6
CONTINUOUS
 62
     1
100
AcDb2dPolyline
 66
     1
 10
0.0
 20
0.0
 30
0.0
 70
   128
  0
VERTEX
  5
603
100
AcDbEntity
  8
LAY-5
  6
CONTINUOUS
 62
     1
100
AcDbVertex
100
AcDb2dVertex
 10
3733.427169
 20
3079.55532
 30
0.0
  0
VERTEX
  5
604
100
AcDbEntity
  8
LAY-5
  6
CONTINUOUS
 62
     1
100
AcDbVertex
100
AcDb2dVertex
 10
3502.5
 20
2900.0
 30
0.0
  0
VERTEX
  5
605
100
AcDbEntity
  8
LAY-5
  6
CONTINUOUS
 62
     1
100
AcDbVertex
100
AcDb2dVertex
 10
3104.5
 20
2900.0
 30
0.0
  0
SEQEND
  5
606
100
AcDbEntity
  8
LAY-5
  6
CONTINUOUS
 62
     1
  0
LINE
  5
607
100
AcDbEntity
  8
LAY-5
  6
CONTINUOUS
 62
     1
100
AcDbLine
 10
3681.891758
 20
3023.650478
 30
0.0
 11
3733.427169
 21
3079.55532
 31
0.0
  0
LINE
  5
608
100
AcDbEntity
  8
LAY-5
  6
CONTINUOUS
 62
     1
100
AcDbLine
 10
3733.427169
 20
3079.55532
 30
0.0
 11
3666.546156
 21
3043.386549
 31
0.0
  0
ENDSEC
  0
SECTION
  2
OBJECTS
  0
DICTIONARY
  5
19
100
AcDbDictionary
  3
ACAD_GROUP
350
1A
  3
ACAD_MLINESTYLE
350
1B
  0
DICTIONARY
  5
1A
102
{ACAD_REACTORS
330
19
102
}
100
AcDbDictionary
  0
DICTIONARY
  5
1B
102
{ACAD_REACTORS
330
19
102
}
100
AcDbDictionary
  3
STANDARD
350
1C
  0
MLINESTYLE
  5
1C
102
{ACAD_REACTORS
330
1B
102
}
100
AcDbMlineStyle
  2
Standard
 70
     0
  3

 62
     0
 51
90.0
 52
90.0
 71
     2
 49
0.5
 62
   256
  6
ByLayer
 49
-0.5
 62
   256
  6
ByLayer
  0
ENDSEC
  0
EOF
