  0
SECTION
  2
HEADER
  9
$ACADVER
  1
AC1014
  9
$ACADMAINTVER
 70
     0
  9
$DWGCODEPAGE
  3
ANSI_932
  9
$INSBASE
 10
0.0
 20
0.0
 30
0.0
  9
$EXTMIN
 10
265.0
 20
238.0
 30
0.0
  9
$EXTMAX
 10
3950.8
 20
2778.5
 30
0.0
  9
$LIMMIN
 10
0.0
 20
0.0
  9
$LIMMAX
 10
420.0
 20
297.0
  9
$ORTHOMODE
 70
     0
  9
$REGENMODE
 70
     1
  9
$FILLMODE
 70
     1
  9
$QTEXTMODE
 70
     0
  9
$MIRRTEXT
 70
     1
  9
$DRAGMODE
 70
     2
  9
$LTSCALE
 40
1.0
  9
$OSMODE
 70
     0
  9
$ATTMODE
 70
     1
  9
$TEXTSIZE
 40
0.2
  9
$TRACEWID
 40
0.05
  9
$TEXTSTYLE
  7
STANDARD
  9
$CLAYER
  8
LAY-1
  9
$CELTYPE
  6
CONTINUOUS
  9
$CECOLOR
 62
   256
  9
$CELTSCALE
 40
1.0
  9
$DELOBJ
 70
     1
  9
$DISPSILH
 70
     0
  9
$DIMSCALE
 40
1.0
  9
$DIMASZ
 40
0.18
  9
$DIMEXO
 40
0.0625
  9
$DIMDLI
 40
0.38
  9
$DIMRND
 40
0.0
  9
$DIMDLE
 40
0.0
  9
$DIMEXE
 40
0.18
  9
$DIMTP
 40
0.0
  9
$DIMTM
 40
0.0
  9
$DIMTXT
 40
0.18
  9
$DIMCEN
 40
0.09
  9
$DIMTSZ
 40
0.0
  9
$DIMTOL
 70
     0
  9
$DIMLIM
 70
     0
  9
$DIMTIH
 70
     1
  9
$DIMTOH
 70
     1
  9
$DIMSE1
 70
     0
  9
$DIMSE2
 70
     0
  9
$DIMTAD
 70
     0
  9
$DIMZIN
 70
     0
  9
$DIMBLK
  1

  9
$DIMASO
 70
     1
  9
$DIMSHO
 70
     1
  9
$DIMPOST
  1

  9
$DIMAPOST
  1

  9
$DIMALT
 70
     0
  9
$DIMALTD
 70
     2
  9
$DIMALTF
 40
25.4
  9
$DIMLFAC
 40
1.0
  9
$DIMTOFL
 70
     0
  9
$DIMTVP
 40
0.0
  9
$DIMTIX
 70
     0
  9
$DIMSOXD
 70
     0
  9
$DIMSAH
 70
     0
  9
$DIMBLK1
  1

  9
$DIMBLK2
  1

  9
$DIMSTYLE
  2
STANDARD
  9
$DIMCLRD
 70
     0
  9
$DIMCLRE
 70
     0
  9
$DIMCLRT
 70
     0
  9
$DIMTFAC
 40
1.0
  9
$DIMGAP
 40
0.09
  9
$DIMJUST
 70
     0
  9
$DIMSD1
 70
     0
  9
$DIMSD2
 70
     0
  9
$DIMTOLJ
 70
     1
  9
$DIMTZIN
 70
     0
  9
$DIMALTZ
 70
     0
  9
$DIMALTTZ
 70
     0
  9
$DIMFIT
 70
     3
  9
$DIMUPT
 70
     0
  9
$DIMUNIT
 70
     2
  9
$DIMDEC
 70
     4
  9
$DIMTDEC
 70
     4
  9
$DIMALTU
 70
     2
  9
$DIMALTTD
 70
     2
  9
$DIMTXSTY
  7
STANDARD
  9
$DIMAUNIT
 70
     0
  9
$LUNITS
 70
     2
  9
$LUPREC
 70
     4
  9
$SKETCHINC
 40
0.1
  9
$FILLETRAD
 40
0.0
  9
$AUNITS
 70
     0
  9
$AUPREC
 70
     0
  9
$MENU
  1
acad
  9
$ELEVATION
 40
0.0
  9
$PELEVATION
 40
0.0
  9
$THICKNESS
 40
0.0
  9
$LIMCHECK
 70
     0
  9
$BLIPMODE
 70
     1
  9
$CHAMFERA
 40
0.0
  9
$CHAMFERB
 40
0.0
  9
$CHAMFERC
 40
0.0
  9
$CHAMFERD
 40
0.0
  9
$SKPOLY
 70
     0
  9
$TDCREATE
 40
2458244.144865185
  9
$TDUPDATE
 40
2458244.144865185
  9
$TDINDWG
 40
0.0000000000
  9
$TDUSRTIMER
 40
0.0000000000
  9
$USRTIMER
 70
     1
  9
$ANGBASE
 50
0.0
  9
$ANGDIR
 70
     0
  9
$PDMODE
 70
     0
  9
$PDSIZE
 40
0.0
  9
$PLINEWID
 40
0.0
  9
$COORDS
 70
     1
  9
$SPLFRAME
 70
     0
  9
$SPLINETYPE
 70
     6
  9
$SPLINESEGS
 70
     8
  9
$ATTDIA
 70
     0
  9
$ATTREQ
 70
     1
  9
$HANDLING
 70
     1
  9
$HANDSEED
  5
605
  9
$SURFTAB1
 70
     6
  9
$SURFTAB2
 70
     6
  9
$SURFTYPE
 70
     6
  9
$SURFU
 70
     6
  9
$SURFV
 70
     6
  9
$UCSNAME
  2

  9
$UCSORG
 10
0.0
 20
0.0
 30
0.0
  9
$UCSXDIR
 10
1.0
 20
0.0
 30
0.0
  9
$UCSYDIR
 10
0.0
 20
1.0
 30
0.0
  9
$PUCSNAME
  2

  9
$PUCSORG
 10
0.0
 20
0.0
 30
0.0
  9
$PUCSXDIR
 10
1.0
 20
0.0
 30
0.0
  9
$PUCSYDIR
 10
0.0
 20
1.0
 30
0.0
  9
$USERI1
 70
     0
  9
$USERI2
 70
     0
  9
$USERI3
 70
     0
  9
$USERI4
 70
     0
  9
$USERI5
 70
     0
  9
$USERR1
 40
0.0
  9
$USERR2
 40
0.0
  9
$USERR3
 40
0.0
  9
$USERR4
 40
0.0
  9
$USERR5
 40
0.0
  9
$WORLDVIEW
 70
     1
  9
$SHADEDGE
 70
     3
  9
$SHADEDIF
 70
    70
  9
$TILEMODE
 70
     1
  9
$MAXACTVP
 70
    16
  9
$PINSBASE
 10
0.0
 20
0.0
 30
0.0
  9
$PLIMCHECK
 70
     0
  9
$PEXTMIN
 10
1.000000E+20
 20
1.000000E+20
 30
1.000000E+20
  9
$PEXTMAX
 10
-1.000000E+20
 20
-1.000000E+20
 30
-1.000000E+20
  9
$PLIMMIN
 10
0.0
 20
0.0
  9
$PLIMMAX
 10
12.0
 20
9.0
  9
$UNITMODE
 70
     0
  9
$VISRETAIN
 70
     0
  9
$PLINEGEN
 70
     1
  9
$PSLTSCALE
 70
     0
  9
$TREEDEPTH
 70
  3020
  9
$PICKSTYLE
 70
     1
  9
$CMLSTYLE
  2
Standard
  9
$CMLJUST
 70
     0
  9
$CMLSCALE
 40
1.0
  9
$PROXYGRAPHICS
 70
     0
  9
$MEASUREMENT
 70
     0
  0
ENDSEC
  0
SECTION
  2
CLASSES
  0
CLASS
  1
LWPOLYLINE
  2
AcDbPolyline
  3
"AutoCAD"
 90
        0
280
     0
281
     1
  0
CLASS
  1
IMAGE
  2
AcDbRasterImage
  3
ISM
 90
      127
280
     0
281
     1
  0
CLASS
  1
OLE2FRAME
  2
AcDbOle2Frame
  3
""
 90
        0
280
     0
281
     1
  0
CLASS
  1
HATCH
  2
AcDbHatch
  3
"ACAD_SEDONA"
 90
        0
280
     0
281
     1
  0
CLASS
  1
DICTIONARYVAR
  2
AcDbDictionaryVar
  3
"AutoCAD"
 90
        0
280
     0
281
     0
  0
CLASS
  1
RASTERVARIABLES
  2
AcDbRasterVariables
  3
ISM
 90
        0
280
     0
281
     0
  0
CLASS
  1
IMAGEDEF
  2
AcDbRasterImageDef
  3
ISM
 90
        0
280
     0
281
     0
  0
CLASS
  1
IMAGEDEF_REACTOR
  2
AcDbRasterImageDefReactor
  3
ISM
 90
        1
280
     0
281
     0
  0
CLASS
  1
IDBUFFER
  2
AcDbIdBuffer
  3
"Acad"
 90
        0
280
     0
281
     0
  0
CLASS
  1
SPATIAL_FILTER
  2
AcDbSpatialFilter
  3
"Acad"
 90
        0
280
     0
281
     0
  0
CLASS
  1
XRECORD
  2
AcDbXrecord
  3
"<Built In>"
 90
        0
280
     0
281
     0
  0
CLASS
  1
SORTENTSTABLE
  2
AcDbSortentsTable
  3
"AutoCAD"
 90
        0
280
     0
281
     0
  0
CLASS
  1
LAYER_INDEX
  2
AcDbLayerIndex
  3
"Acad"
 90
        0
280
     0
281
     0
  0
CLASS
  1
SPATIAL_INDEX
  2
AcDbSpatialIndex
  3
"Acad"
 90
        0
280
     0
281
     0
  0
CLASS
  1
OBJECT_PTR
  2
CAseDLPNTableRecord
  3
"ASE-LPNTableRecord"
 90
        1
280
     0
281
     0
  0
CLASS
  1
LAYOUT
  2
AcDbLayout
  3
"AutoCAD 2000"
 90
        0
280
     0
281
     0
  0
CLASS
  1
PLOTSETTINGS
  2
AcDbPlotSettings
  3
"AutoCAD 2000"
 90
        0
280
     0
281
     0
  0
CLASS
  1
ACDBDICTIONARYWDFLT
  2
AcDbDictionaryWithDefault
  3
"AutoCAD 2000"
 90
        0
280
     0
281
     0
  0
CLASS
  1
ACDBPLACEHOLDER
  2
AcDbPlaceHolder
  3
"AutoCAD 2000"
 90
        0
280
     0
281
     0
  0
CLASS
  1
VBA_PROJECT
  2
AcDbVbaProject
  3
"acadvba"
 90
        0
280
     0
281
     0
  0
CLASS
  1
WIPEOUT
  2
AcDbWipeout
  3
WipeOut|AutoCAD Express Tool|expresstools@autodesk.com
 90
      127
280
     0
281
     1
  0
CLASS
  1
WIPEOUTVARIABLES
  2
AcDbWipeoutVariables
  3
WipeOut|AutoCAD Express Tool|expresstools@autodesk.com
 90
        0
280
     0
281
     0
  0
CLASS
  1
RTEXT
  2
RText
  3
RText|AutoCAD Express Tool|expresstools@autodesk.com
 90
        0
280
     0
281
     1
  0
CLASS
  1
ARCALIGNEDTEXT
  2
AcDbArcAlignedText
  3
ATEXT|AutoCAD Express Tool|expresstools@autodesk.com
 90
        0
280
     0
281
     1
  0
ENDSEC
  0
SECTION
  2
TABLES
  0
TABLE
  2
VPORT
  5
7
100
AcDbSymbolTable
 70
     1
  0
VPORT
  5
15
100
AcDbSymbolTableRecord
100
AcDbViewportTableRecord
  2
*ACTIVE
 70
     0
 10
0.0
 20
0.0
 11
1.0
 21
1.0
 12
2107.9
 22
1508.25
 13
0.0
 23
0.0
 14
1.0
 24
1.0
 15
0.0
 25
0.0
 16
0.0
 26
0.0
 36
1.0
 17
0.0
 27
0.0
 37
0.0
 40
2540.5
 41
1.722533
 42
50.0
 43
0.0
 44
0.0
 50
0.0
 51
0.0
 71
     0
 72
  1000
 73
     1
 74
     1
 75
     0
 76
     0
 77
     0
 78
     0
  0
ENDTAB
  0
TABLE
  2
LTYPE
  5
4
100
AcDbSymbolTable
 70
     9
  0
LTYPE
  5
11
100
AcDbSymbolTableRecord
100
AcDbLinetypeTableRecord
  2
BYBLOCK
 70
    64
  3

 72
    65
 73
     0
 40
0.0
  0
LTYPE
  5
12
100
AcDbSymbolTableRecord
100
AcDbLinetypeTableRecord
  2
BYLAYER
 70
    64
  3

 72
    65
 73
     0
 40
0.0
  0
LTYPE
  5
13
100
AcDbSymbolTableRecord
100
AcDbLinetypeTableRecord
  2
CONTINUOUS
 70
    64
  3
実線
 72
    65
 73
     0
 40
0.0
  0
LTYPE
  5
1D
100
AcDbSymbolTableRecord
100
AcDbLinetypeTableRecord
  2
EXLTYPE1
 70
    64
  3
破線
 72
    65
 73
     2
 40
4.0
 49
3.0
 74
     0
 49
-1.0
 74
     0
  0
LTYPE
  5
1E
100
AcDbSymbolTableRecord
100
AcDbLinetypeTableRecord
  2
EXLTYPE2
 70
    64
  3
点線
 72
    65
 73
     2
 40
2.0
 49
1.0
 74
     0
 49
-1.0
 74
     0
  0
LTYPE
  5
1F
100
AcDbSymbolTableRecord
100
AcDbLinetypeTableRecord
  2
EXLTYPE3
 70
    64
  3
一点鎖線
 72
    65
 73
     4
 40
33.0
 49
30.0
 74
     0
 49
-1.0
 74
     0
 49
1.0
 74
     0
 49
-1.0
 74
     0
  0
LTYPE
  5
20
100
AcDbSymbolTableRecord
100
AcDbLinetypeTableRecord
  2
EXLTYPE4
 70
    64
  3
二点鎖線
 72
    65
 73
     6
 40
35.0
 49
30.0
 74
     0
 49
-1.0
 74
     0
 49
1.0
 74
     0
 49
-1.0
 74
     0
 49
1.0
 74
     0
 49
-1.0
 74
     0
  0
LTYPE
  5
21
100
AcDbSymbolTableRecord
100
AcDbLinetypeTableRecord
  2
EXLTYPE5
 70
    64
  3
三点鎖線
 72
    65
 73
     8
 40
37.0
 49
30.0
 74
     0
 49
-1.0
 74
     0
 49
1.0
 74
     0
 49
-1.0
 74
     0
 49
1.0
 74
     0
 49
-1.0
 74
     0
 49
1.0
 74
     0
 49
-1.0
 74
     0
  0
LTYPE
  5
22
100
AcDbSymbolTableRecord
100
AcDbLinetypeTableRecord
  2
EXLTYPE6
 70
    64
  3
四点鎖線
 72
    65
 73
    10
 40
39.0
 49
30.0
 74
     0
 49
-1.0
 74
     0
 49
1.0
 74
     0
 49
-1.0
 74
     0
 49
1.0
 74
     0
 49
-1.0
 74
     0
 49
1.0
 74
     0
 49
-1.0
 74
     0
 49
1.0
 74
     0
 49
-1.0
 74
     0
  0
ENDTAB
  0
TABLE
  2
LAYER
  5
2
100
AcDbSymbolTable
 70
     4
  0
LAYER
  5
14
100
AcDbSymbolTableRecord
100
AcDbLayerTableRecord
  2
0
 70
     0
 62
     7
  6
CONTINUOUS
  0
LAYER
  5
25
100
AcDbSymbolTableRecord
100
AcDbLayerTableRecord
  2
LAY-1
 70
    64
 62
     3
  6
CONTINUOUS
  0
LAYER
  5
26
100
AcDbSymbolTableRecord
100
AcDbLayerTableRecord
  2
LAY-2
 70
    64
 62
     7
  6
CONTINUOUS
  0
LAYER
  5
27
100
AcDbSymbolTableRecord
100
AcDbLayerTableRecord
  2
LAY-5
 70
    64
 62
     1
  6
CONTINUOUS
  0
ENDTAB
  0
TABLE
  2
STYLE
  5
3
100
AcDbSymbolTable
 70
     3
  0
STYLE
  5
17
100
AcDbSymbolTableRecord
100
AcDbTextStyleTableRecord
  2
STANDARD
 70
     0
 40
0.0
 41
1.0
 50
0.0
 71
     0
 42
0.0
  3
monotxt
  4
extfont
  0
STYLE
  5
23
100
AcDbSymbolTableRecord
100
AcDbTextStyleTableRecord
  2
EXCADSTD
 70
    64
 40
0.0
 41
1.0
 50
0.0
 71
     0
 42
0.2
  3
monotxt
  4
extfont
  0
STYLE
  5
24
100
AcDbSymbolTableRecord
100
AcDbTextStyleTableRecord
  2
EXCADVERT
 70
    68
 40
0.0
 41
1.0
 50
0.0
 71
     0
 42
0.286885
  3
monotxt
  4
extfont
  0
ENDTAB
  0
TABLE
  2
VIEW
  5
5
100
AcDbSymbolTable
 70
     0
  0
ENDTAB
  0
TABLE
  2
UCS
  5
6
100
AcDbSymbolTable
 70
     0
  0
ENDTAB
  0
TABLE
  2
APPID
  5
8
100
AcDbSymbolTable
 70
     1
  0
APPID
  5
16
100
AcDbSymbolTableRecord
100
AcDbRegAppTableRecord
  2
ACAD
 70
     0
  0
ENDTAB
  0
TABLE
  2
DIMSTYLE
  5
9
100
AcDbSymbolTable
 70
     1
  0
DIMSTYLE
105
18
100
AcDbSymbolTableRecord
100
AcDbDimStyleTableRecord
  2
STANDARD
 70
     0
  3

  4

  5

  6

  7

 40
1.0
 41
0.18
 42
0.0625
 43
0.38
 44
0.18
 45
0.0
 46
0.0
 47
0.0
 48
0.0
 71
     0
 72
     0
 73
     1
 74
     1
 75
     0
 76
     0
 77
     0
 78
     0
140
0.18
141
0.09
142
0.0
143
25.4
144
1.0
145
0.0
146
1.0
147
0.09
170
     0
171
     2
172
     1
173
     0
174
     0
175
     0
176
     0
177
     0
178
     0
270
     2
271
     4
272
     4
273
     2
274
     2
275
     0
280
     0
281
     0
282
     0
283
     1
284
     0
285
     0
286
     0
287
     3
288
     0
340
17
  0
ENDTAB
  0
TABLE
  2
BLOCK_RECORD
  5
1
100
AcDbSymbolTable
 70
    15
  0
BLOCK_RECORD
  5
A
100
AcDbSymbolTableRecord
100
AcDbBlockTableRecord
  2
*MODEL_SPACE
  0
BLOCK_RECORD
  5
B
100
AcDbSymbolTableRecord
100
AcDbBlockTableRecord
  2
*PAPER_SPACE
  0
BLOCK_RECORD
  5
28
100
AcDbSymbolTableRecord
100
AcDbBlockTableRecord
  2
_EX_NORM
  0
BLOCK_RECORD
  5
29
100
AcDbSymbolTableRecord
100
AcDbBlockTableRecord
  2
_EX_BNORM
  0
BLOCK_RECORD
  5
2A
100
AcDbSymbolTableRecord
100
AcDbBlockTableRecord
  2
_EX_BCIR
  0
BLOCK_RECORD
  5
2B
100
AcDbSymbolTableRecord
100
AcDbBlockTableRecord
  2
_EX_RCIVIL
  0
BLOCK_RECORD
  5
2C
100
AcDbSymbolTableRecord
100
AcDbBlockTableRecord
  2
_EX_SLANT
  0
BLOCK_RECORD
  5
2D
100
AcDbSymbolTableRecord
100
AcDbBlockTableRecord
  2
_EX_NONE
  0
BLOCK_RECORD
  5
2E
100
AcDbSymbolTableRecord
100
AcDbBlockTableRecord
  2
_EX_CIVIL
  0
BLOCK_RECORD
  5
2F
100
AcDbSymbolTableRecord
100
AcDbBlockTableRecord
  2
_EX_WCIR
  0
BLOCK_RECORD
  5
30
100
AcDbSymbolTableRecord
100
AcDbBlockTableRecord
  2
_EX_WCIR2
  0
BLOCK_RECORD
  5
31
100
AcDbSymbolTableRecord
100
AcDbBlockTableRecord
  2
_EX_WNORM
  0
BLOCK_RECORD
  5
32
100
AcDbSymbolTableRecord
100
AcDbBlockTableRecord
  2
_EX_NNORM
  0
BLOCK_RECORD
  5
33
100
AcDbSymbolTableRecord
100
AcDbBlockTableRecord
  2
_EX_BBOX
  0
BLOCK_RECORD
  5
34
100
AcDbSymbolTableRecord
100
AcDbBlockTableRecord
  2
_EX_WBOX
  0
BLOCK_RECORD
  5
35
100
AcDbSymbolTableRecord
100
AcDbBlockTableRecord
  2
_EX_INTEGRAL
  0
BLOCK_RECORD
  5
36
100
AcDbSymbolTableRecord
100
AcDbBlockTableRecord
  2
SYM-1
  0
ENDTAB
  0
ENDSEC
  0
SECTION
  2
BLOCKS
  0
BLOCK
  5
D
100
AcDbEntity
  8
0
100
AcDbBlockBegin
  2
*MODEL_SPACE
 70
     0
 10
0.0
 20
0.0
 30
0.0
  3
*MODEL_SPACE
  1

  0
ENDBLK
  5
E
100
AcDbEntity
  8
0
100
AcDbBlockEnd
  0
BLOCK
  5
F
100
AcDbEntity
 67
     1
  8
0
100
AcDbBlockBegin
  2
*PAPER_SPACE
 70
     0
 10
0.0
 20
0.0
 30
0.0
  3
*PAPER_SPACE
  1

  0
ENDBLK
  5
10
100
AcDbEntity
 67
     1
  8
0
100
AcDbBlockEnd
  0
BLOCK
  5
37
100
AcDbEntity
  8
0
100
AcDbBlockBegin
  2
_EX_NORM
 70
     0
 10
0.0
 20
0.0
 30
0.0
  3
_EX_NORM
  1

  0
LINE
  5
38
100
AcDbEntity
  8
0
  6
CONTINUOUS
 62
     0
100
AcDbLine
 10
0.0
 20
0.0
 30
0.0
 11
-1.0
 21
0.0
 31
0.0
  0
LINE
  5
39
100
AcDbEntity
  8
0
  6
CONTINUOUS
 62
     0
100
AcDbLine
 10
0.0
 20
0.0
 30
0.0
 11
-1.0
 21
0.166667
 31
0.0
  0
LINE
  5
3A
100
AcDbEntity
  8
0
  6
CONTINUOUS
 62
     0
100
AcDbLine
 10
0.0
 20
0.0
 30
0.0
 11
-1.0
 21
-0.166667
 31
0.0
  0
ENDBLK
  5
3B
100
AcDbEntity
  8
0
100
AcDbBlockEnd
  0
BLOCK
  5
3C
100
AcDbEntity
  8
0
100
AcDbBlockBegin
  2
_EX_BNORM
 70
     0
 10
0.0
 20
0.0
 30
0.0
  3
_EX_BNORM
  1

  0
LINE
  5
3D
100
AcDbEntity
  8
0
  6
CONTINUOUS
 62
     0
100
AcDbLine
 10
0.0
 20
0.0
 30
0.0
 11
-1.0
 21
0.0
 31
0.0
  0
LINE
  5
3E
100
AcDbEntity
  8
0
  6
CONTINUOUS
 62
     0
100
AcDbLine
 10
0.0
 20
0.0
 30
0.0
 11
-1.0
 21
0.166667
 31
0.0
  0
LINE
  5
3F
100
AcDbEntity
  8
0
  6
CONTINUOUS
 62
     0
100
AcDbLine
 10
0.0
 20
0.0
 30
0.0
 11
-1.0
 21
-0.166667
 31
0.0
  0
LINE
  5
40
100
AcDbEntity
  8
0
  6
CONTINUOUS
 62
     0
100
AcDbLine
 10
0.0
 20
0.0
 30
0.0
 11
-1.0
 21
0.083333
 31
0.0
  0
LINE
  5
41
100
AcDbEntity
  8
0
  6
CONTINUOUS
 62
     0
100
AcDbLine
 10
0.0
 20
0.0
 30
0.0
 11
-1.0
 21
-0.083333
 31
0.0
  0
LINE
  5
42
100
AcDbEntity
  8
0
  6
CONTINUOUS
 62
     0
100
AcDbLine
 10
-1.0
 20
0.166667
 30
0.0
 11
-1.0
 21
-0.166667
 31
0.0
  0
ENDBLK
  5
43
100
AcDbEntity
  8
0
100
AcDbBlockEnd
  0
BLOCK
  5
44
100
AcDbEntity
  8
0
100
AcDbBlockBegin
  2
_EX_BCIR
 70
     0
 10
0.0
 20
0.0
 30
0.0
  3
_EX_BCIR
  1

  0
LINE
  5
45
100
AcDbEntity
  8
0
  6
CONTINUOUS
 62
     0
100
AcDbLine
 10
0.0
 20
0.0
 30
0.0
 11
-1.0
 21
0.0
 31
0.0
  0
CIRCLE
  5
46
100
AcDbEntity
  8
0
  6
CONTINUOUS
 62
     0
100
AcDbCircle
 10
0.0
 20
0.0
 30
0.0
 40
0.5
  0
CIRCLE
  5
47
100
AcDbEntity
  8
0
  6
CONTINUOUS
 62
     0
100
AcDbCircle
 10
0.0
 20
0.0
 30
0.0
 40
0.25
  0
ENDBLK
  5
48
100
AcDbEntity
  8
0
100
AcDbBlockEnd
  0
BLOCK
  5
49
100
AcDbEntity
  8
0
100
AcDbBlockBegin
  2
_EX_RCIVIL
 70
     0
 10
0.0
 20
0.0
 30
0.0
  3
_EX_RCIVIL
  1

  0
LINE
  5
4A
100
AcDbEntity
  8
0
  6
CONTINUOUS
 62
     0
100
AcDbLine
 10
0.0
 20
0.0
 30
0.0
 11
-1.0
 21
0.0
 31
0.0
  0
LINE
  5
4B
100
AcDbEntity
  8
0
  6
CONTINUOUS
 62
     0
100
AcDbLine
 10
-1.0
 20
-0.25
 30
0.0
 11
0.0
 21
-0.25
 31
0.0
  0
LINE
  5
4C
100
AcDbEntity
  8
0
  6
CONTINUOUS
 62
     0
100
AcDbLine
 10
-1.0
 20
-0.125
 30
0.0
 11
0.0
 21
-0.125
 31
0.0
  0
ENDBLK
  5
4D
100
AcDbEntity
  8
0
100
AcDbBlockEnd
  0
BLOCK
  5
4E
100
AcDbEntity
  8
0
100
AcDbBlockBegin
  2
_EX_SLANT
 70
     0
 10
0.0
 20
0.0
 30
0.0
  3
_EX_SLANT
  1

  0
LINE
  5
4F
100
AcDbEntity
  8
0
  6
CONTINUOUS
 62
     0
100
AcDbLine
 10
0.0
 20
0.0
 30
0.0
 11
-1.0
 21
0.0
 31
0.0
  0
LINE
  5
50
100
AcDbEntity
  8
0
  6
CONTINUOUS
 62
     0
100
AcDbLine
 10
0.707107
 20
0.707107
 30
0.0
 11
-0.707107
 21
-0.707107
 31
0.0
  0
ENDBLK
  5
51
100
AcDbEntity
  8
0
100
AcDbBlockEnd
  0
BLOCK
  5
52
100
AcDbEntity
  8
0
100
AcDbBlockBegin
  2
_EX_NONE
 70
     0
 10
0.0
 20
0.0
 30
0.0
  3
_EX_NONE
  1

  0
LINE
  5
53
100
AcDbEntity
  8
0
  6
CONTINUOUS
 62
     0
100
AcDbLine
 10
0.0
 20
0.0
 30
0.0
 11
-1.0
 21
0.0
 31
0.0
  0
ENDBLK
  5
54
100
AcDbEntity
  8
0
100
AcDbBlockEnd
  0
BLOCK
  5
55
100
AcDbEntity
  8
0
100
AcDbBlockBegin
  2
_EX_CIVIL
 70
     0
 10
0.0
 20
0.0
 30
0.0
  3
_EX_CIVIL
  1

  0
LINE
  5
56
100
AcDbEntity
  8
0
  6
CONTINUOUS
 62
     0
100
AcDbLine
 10
0.0
 20
0.0
 30
0.0
 11
-1.0
 21
0.0
 31
0.0
  0
LINE
  5
57
100
AcDbEntity
  8
0
  6
CONTINUOUS
 62
     0
100
AcDbLine
 10
-1.0
 20
0.25
 30
0.0
 11
0.0
 21
0.25
 31
0.0
  0
LINE
  5
58
100
AcDbEntity
  8
0
  6
CONTINUOUS
 62
     0
100
AcDbLine
 10
-1.0
 20
0.125
 30
0.0
 11
0.0
 21
0.125
 31
0.0
  0
ENDBLK
  5
59
100
AcDbEntity
  8
0
100
AcDbBlockEnd
  0
BLOCK
  5
5A
100
AcDbEntity
  8
0
100
AcDbBlockBegin
  2
_EX_WCIR
 70
     0
 10
0.0
 20
0.0
 30
0.0
  3
_EX_WCIR
  1

  0
LINE
  5
5B
100
AcDbEntity
  8
0
  6
CONTINUOUS
 62
     0
100
AcDbLine
 10
0.0
 20
0.0
 30
0.0
 11
-1.0
 21
0.0
 31
0.0
  0
CIRCLE
  5
5C
100
AcDbEntity
  8
0
  6
CONTINUOUS
 62
     0
100
AcDbCircle
 10
0.0
 20
0.0
 30
0.0
 40
0.5
  0
ENDBLK
  5
5D
100
AcDbEntity
  8
0
100
AcDbBlockEnd
  0
BLOCK
  5
5E
100
AcDbEntity
  8
0
100
AcDbBlockBegin
  2
_EX_WCIR2
 70
     0
 10
0.0
 20
0.0
 30
0.0
  3
_EX_WCIR2
  1

  0
LINE
  5
5F
100
AcDbEntity
  8
0
  6
CONTINUOUS
 62
     0
100
AcDbLine
 10
-0.5
 20
0.0
 30
0.0
 11
-1.0
 21
0.0
 31
0.0
  0
CIRCLE
  5
60
100
AcDbEntity
  8
0
  6
CONTINUOUS
 62
     0
100
AcDbCircle
 10
0.0
 20
0.0
 30
0.0
 40
0.5
  0
ENDBLK
  5
61
100
AcDbEntity
  8
0
100
AcDbBlockEnd
  0
BLOCK
  5
62
100
AcDbEntity
  8
0
100
AcDbBlockBegin
  2
_EX_WNORM
 70
     0
 10
0.0
 20
0.0
 30
0.0
  3
_EX_WNORM
  1

  0
LINE
  5
63
100
AcDbEntity
  8
0
  6
CONTINUOUS
 62
     0
100
AcDbLine
 10
-1.0
 20
0.0
 30
0.0
 11
-1.0
 21
0.0
 31
0.0
  0
LINE
  5
64
100
AcDbEntity
  8
0
  6
CONTINUOUS
 62
     0
100
AcDbLine
 10
0.0
 20
0.0
 30
0.0
 11
-1.0
 21
0.166667
 31
0.0
  0
LINE
  5
65
100
AcDbEntity
  8
0
  6
CONTINUOUS
 62
     0
100
AcDbLine
 10
0.0
 20
0.0
 30
0.0
 11
-1.0
 21
-0.166667
 31
0.0
  0
LINE
  5
66
100
AcDbEntity
  8
0
  6
CONTINUOUS
 62
     0
100
AcDbLine
 10
-1.0
 20
0.166667
 30
0.0
 11
-1.0
 21
-0.166667
 31
0.0
  0
ENDBLK
  5
67
100
AcDbEntity
  8
0
100
AcDbBlockEnd
  0
BLOCK
  5
68
100
AcDbEntity
  8
0
100
AcDbBlockBegin
  2
_EX_NNORM
 70
     0
 10
0.0
 20
0.0
 30
0.0
  3
_EX_NNORM
  1

  0
LINE
  5
69
100
AcDbEntity
  8
0
  6
CONTINUOUS
 62
     0
100
AcDbLine
 10
0.0
 20
0.0
 30
0.0
 11
-1.0
 21
0.0
 31
0.0
  0
LINE
  5
6A
100
AcDbEntity
  8
0
  6
CONTINUOUS
 62
     0
100
AcDbLine
 10
0.0
 20
0.0
 30
0.0
 11
-1.0
 21
0.166667
 31
0.0
  0
LINE
  5
6B
100
AcDbEntity
  8
0
  6
CONTINUOUS
 62
     0
100
AcDbLine
 10
0.0
 20
0.0
 30
0.0
 11
-1.0
 21
-0.166667
 31
0.0
  0
LINE
  5
6C
100
AcDbEntity
  8
0
  6
CONTINUOUS
 62
     0
100
AcDbLine
 10
-1.0
 20
0.166667
 30
0.0
 11
-1.0
 21
-0.166667
 31
0.0
  0
ENDBLK
  5
6D
100
AcDbEntity
  8
0
100
AcDbBlockEnd
  0
BLOCK
  5
6E
100
AcDbEntity
  8
0
100
AcDbBlockBegin
  2
_EX_BBOX
 70
     0
 10
0.0
 20
0.0
 30
0.0
  3
_EX_BBOX
  1

  0
LINE
  5
6F
100
AcDbEntity
  8
0
  6
CONTINUOUS
 62
     0
100
AcDbLine
 10
0.0
 20
0.0
 30
0.0
 11
-1.0
 21
0.0
 31
0.0
  0
LINE
  5
70
100
AcDbEntity
  8
0
  6
CONTINUOUS
 62
     0
100
AcDbLine
 10
-0.5
 20
0.5
 30
0.0
 11
0.5
 21
0.5
 31
0.0
  0
LINE
  5
71
100
AcDbEntity
  8
0
  6
CONTINUOUS
 62
     0
100
AcDbLine
 10
0.5
 20
0.5
 30
0.0
 11
0.5
 21
-0.5
 31
0.0
  0
LINE
  5
72
100
AcDbEntity
  8
0
  6
CONTINUOUS
 62
     0
100
AcDbLine
 10
0.5
 20
-0.5
 30
0.0
 11
-0.5
 21
-0.5
 31
0.0
  0
LINE
  5
73
100
AcDbEntity
  8
0
  6
CONTINUOUS
 62
     0
100
AcDbLine
 10
-0.5
 20
-0.5
 30
0.0
 11
-0.5
 21
0.5
 31
0.0
  0
LINE
  5
74
100
AcDbEntity
  8
0
  6
CONTINUOUS
 62
     0
100
AcDbLine
 10
-0.25
 20
0.25
 30
0.0
 11
0.25
 21
0.25
 31
0.0
  0
LINE
  5
75
100
AcDbEntity
  8
0
  6
CONTINUOUS
 62
     0
100
AcDbLine
 10
0.25
 20
0.25
 30
0.0
 11
0.25
 21
-0.25
 31
0.0
  0
LINE
  5
76
100
AcDbEntity
  8
0
  6
CONTINUOUS
 62
     0
100
AcDbLine
 10
0.25
 20
-0.25
 30
0.0
 11
-0.25
 21
-0.25
 31
0.0
  0
LINE
  5
77
100
AcDbEntity
  8
0
  6
CONTINUOUS
 62
     0
100
AcDbLine
 10
-0.25
 20
-0.25
 30
0.0
 11
-0.25
 21
0.25
 31
0.0
  0
ENDBLK
  5
78
100
AcDbEntity
  8
0
100
AcDbBlockEnd
  0
BLOCK
  5
79
100
AcDbEntity
  8
0
100
AcDbBlockBegin
  2
_EX_WBOX
 70
     0
 10
0.0
 20
0.0
 30
0.0
  3
_EX_WBOX
  1

  0
LINE
  5
7A
100
AcDbEntity
  8
0
  6
CONTINUOUS
 62
     0
100
AcDbLine
 10
-0.5
 20
0.0
 30
0.0
 11
-1.0
 21
0.0
 31
0.0
  0
LINE
  5
7B
100
AcDbEntity
  8
0
  6
CONTINUOUS
 62
     0
100
AcDbLine
 10
-0.5
 20
0.5
 30
0.0
 11
0.5
 21
0.5
 31
0.0
  0
LINE
  5
7C
100
AcDbEntity
  8
0
  6
CONTINUOUS
 62
     0
100
AcDbLine
 10
0.5
 20
0.5
 30
0.0
 11
0.5
 21
-0.5
 31
0.0
  0
LINE
  5
7D
100
AcDbEntity
  8
0
  6
CONTINUOUS
 62
     0
100
AcDbLine
 10
0.5
 20
-0.5
 30
0.0
 11
-0.5
 21
-0.5
 31
0.0
  0
LINE
  5
7E
100
AcDbEntity
  8
0
  6
CONTINUOUS
 62
     0
100
AcDbLine
 10
-0.5
 20
-0.5
 30
0.0
 11
-0.5
 21
0.5
 31
0.0
  0
ENDBLK
  5
7F
100
AcDbEntity
  8
0
100
AcDbBlockEnd
  0
BLOCK
  5
80
100
AcDbEntity
  8
0
100
AcDbBlockBegin
  2
_EX_INTEGRAL
 70
     0
 10
0.0
 20
0.0
 30
0.0
  3
_EX_INTEGRAL
  1

  0
LINE
  5
81
100
AcDbEntity
  8
0
  6
CONTINUOUS
 62
     0
100
AcDbLine
 10
0.0
 20
0.0
 30
0.0
 11
-1.0
 21
0.0
 31
0.0
  0
ARC
  5
82
100
AcDbEntity
  8
0
  6
CONTINUOUS
 62
     0
100
AcDbCircle
 10
0.542115
 20
0.164992
 30
0.0
 40
0.56667
100
AcDbArc
 50
73.07249
 51
196.927513
  0
ARC
  5
83
100
AcDbEntity
  8
0
  6
CONTINUOUS
 62
     0
100
AcDbCircle
 10
-0.542115
 20
-0.164992
 30
0.0
 40
0.56667
100
AcDbArc
 50
253.072487
 51
16.927513
  0
ENDBLK
  5
84
100
AcDbEntity
  8
0
100
AcDbBlockEnd
  0
BLOCK
  5
85
100
AcDbEntity
  8
0
100
AcDbBlockBegin
  2
SYM-1
 70
     0
 10
0.0
 20
0.0
 30
0.0
  3
SYM-1
  1

  0
LINE
  5
86
100
AcDbEntity
  8
0
  6
CONTINUOUS
 62
     2
100
AcDbLine
 10
-5.85
 20
2.15
 30
0.0
 11
-5.85
 21
5.85
 31
0.0
  0
LINE
  5
87
100
AcDbEntity
  8
0
  6
CONTINUOUS
 62
     2
100
AcDbLine
 10
-5.85
 20
5.85
 30
0.0
 11
0.0
 21
0.0
 31
0.0
  0
LINE
  5
88
100
AcDbEntity
  8
0
  6
CONTINUOUS
 62
     2
100
AcDbLine
 10
-5.85
 20
-2.15
 30
0.0
 11
-5.85
 21
-5.85
 31
0.0
  0
LINE
  5
89
100
AcDbEntity
  8
0
  6
CONTINUOUS
 62
     2
100
AcDbLine
 10
-5.85
 20
-5.85
 30
0.0
 11
0.0
 21
0.0
 31
0.0
  0
LINE
  5
8A
100
AcDbEntity
  8
0
  6
CONTINUOUS
 62
     2
100
AcDbLine
 10
-19.85
 20
2.15
 30
0.0
 11
-5.85
 21
2.15
 31
0.0
  0
LINE
  5
8B
100
AcDbEntity
  8
0
  6
CONTINUOUS
 62
     2
100
AcDbLine
 10
-19.85
 20
-2.15
 30
0.0
 11
-5.85
 21
-2.15
 31
0.0
  0
LINE
  5
8C
100
AcDbEntity
  8
0
  6
CONTINUOUS
 62
     2
100
AcDbLine
 10
-19.85
 20
2.15
 30
0.0
 11
-19.85
 21
-2.15
 31
0.0
  0
ENDBLK
  5
8D
100
AcDbEntity
  8
0
100
AcDbBlockEnd
  0
ENDSEC
  0
SECTION
  2
ENTITIES
  0
TEXT
  5
8E
100
AcDbEntity
  8
LAY-1
  6
CONTINUOUS
 62
     3
100
AcDbText
 10
3252.88
 20
399.92
 30
0.0
 40
40.0
  1
型式
 41
0.984714
  7
EXCADSTD
 72
     5
 11
3338.840812
 21
399.92
 31
0.0
100
AcDbText
  0
TEXT
  5
8F
100
AcDbEntity
  8
LAY-1
  6
CONTINUOUS
 62
     3
100
AcDbText
 10
3251.92
 20
343.6
 30
0.0
 40
40.0
  1
品名
 41
0.984714
  7
EXCADSTD
 72
     5
 11
3337.880812
 21
343.6
 31
0.0
100
AcDbText
  0
LINE
  5
90
100
AcDbEntity
  8
LAY-1
  6
CONTINUOUS
 62
     4
100
AcDbLine
 10
3234.0
 20
286.8
 30
0.0
 11
3950.8
 21
286.8
 31
0.0
  0
LINE
  5
91
100
AcDbEntity
  8
LAY-1
  6
CONTINUOUS
 62
     1
100
AcDbLine
 10
3234.0
 20
335.6
 30
0.0
 11
3950.8
 21
335.6
 31
0.0
  0
TEXT
  5
92
100
AcDbEntity
  8
LAY-1
  6
CONTINUOUS
 62
     3
100
AcDbText
 10
3488.72
 20
292.08
 30
0.0
 40
40.0
  1
外観図
 41
1.47392
  7
EXCADSTD
 72
     5
 11
3699.279998
 21
292.08
 31
0.0
100
AcDbText
  0
LINE
  5
93
100
AcDbEntity
  8
LAY-1
  6
CONTINUOUS
 62
     4
100
AcDbLine
 10
3234.0
 20
503.6
 30
0.0
 11
3950.8
 21
503.6
 31
0.0
  0
LINE
  5
94
100
AcDbEntity
  8
LAY-1
  6
CONTINUOUS
 62
     1
100
AcDbLine
 10
3234.0
 20
391.6
 30
0.0
 11
3950.8
 21
391.6
 31
0.0
  0
LINE
  5
95
100
AcDbEntity
  8
LAY-1
  6
CONTINUOUS
 62
     1
100
AcDbLine
 10
3234.0
 20
447.6
 30
0.0
 11
3950.8
 21
447.6
 31
0.0
  0
LINE
  5
96
100
AcDbEntity
  8
LAY-1
  6
CONTINUOUS
 62
     1
100
AcDbLine
 10
3354.0
 20
503.6
 30
0.0
 11
3354.0
 21
335.6
 31
0.0
  0
LINE
  5
97
100
AcDbEntity
  8
LAY-1
  6
CONTINUOUS
 62
     4
100
AcDbLine
 10
3234.0
 20
238.0
 30
0.0
 11
3950.8
 21
238.0
 31
0.0
  0
LINE
  5
98
100
AcDbEntity
  8
LAY-1
  6
CONTINUOUS
 62
     4
100
AcDbLine
 10
3950.8
 20
238.0
 30
0.0
 11
3950.8
 21
503.6
 31
0.0
  0
LINE
  5
99
100
AcDbEntity
  8
LAY-1
  6
CONTINUOUS
 62
     4
100
AcDbLine
 10
3234.0
 20
238.0
 30
0.0
 11
3234.0
 21
503.6
 31
0.0
  0
TEXT
  5
9A
100
AcDbEntity
  8
LAY-1
  6
CONTINUOUS
 62
     3
100
AcDbText
 10
3239.12
 20
454.64
 30
0.0
 40
40.0
  1
作成日
 41
0.84
  7
EXCADSTD
 72
     5
 11
3359.12
 21
454.64
 31
0.0
100
AcDbText
  0
HATCH
  5
9B
100
AcDbEntity
  8
LAY-1
  6
CONTINUOUS
 62
     3
100
AcDbHatch
 10
0.0
 20
0.0
 30
0.0
210
0.0
220
0.0
230
1.0
  2
SOLID
 70
     1
 71
     1
 91
        1
 92
        1
 93
       16
 72
     1
 10
3738.5197987224883
 20
250.19171428571426
 11
3746.0926558653455
 21
250.19171428571426
 72
     1
 10
3746.0926558653455
 20
250.19171428571426
 11
3746.0926558653455
 21
245.30599999999995
 72
     1
 10
3746.0926558653455
 20
245.30599999999995
 11
3725.816941579631
 21
245.30599999999995
 72
     1
 10
3725.816941579631
 20
245.30599999999995
 11
3725.816941579631
 21
250.19171428571426
 72
     1
 10
3725.816941579631
 20
250.19171428571426
 11
3733.6340844367742
 21
250.19171428571426
 72
     1
 10
3733.6340844367742
 20
250.19171428571426
 11
3733.6340844367742
 21
264.36028571428574
 72
     1
 10
3733.6340844367742
 20
264.36028571428574
 11
3727.5269415796311
 21
264.36028571428574
 72
     1
 10
3727.5269415796311
 20
264.36028571428574
 11
3727.5269415796311
 21
269.24600000000009
 72
     1
 10
3727.5269415796311
 20
269.24600000000009
 11
3733.6340844367742
 21
269.24600000000009
 72
     1
 10
3733.6340844367742
 20
269.24600000000009
 11
3733.6340844367742
 21
279.50600000000009
 72
     1
 10
3733.6340844367742
 20
279.50600000000009
 11
3738.5197987224883
 21
279.50600000000009
 72
     1
 10
3738.5197987224883
 20
279.50600000000009
 11
3738.5197987224883
 21
269.24600000000009
 72
     1
 10
3738.5197987224883
 20
269.24600000000009
 11
3745.6040844367744
 21
269.24600000000009
 72
     1
 10
3745.6040844367744
 20
269.24600000000009
 11
3745.6040844367744
 21
264.36028571428574
 72
     1
 10
3745.6040844367744
 20
264.36028571428574
 11
3738.5197987224883
 21
264.36028571428574
 72
     1
 10
3738.5197987224883
 20
264.36028571428574
 11
3738.5197987224883
 21
250.19171428571426
 97
        0
 75
     0
 76
     1
 98
        1
 10
0.0
 20
0.0
  0
HATCH
  5
9C
100
AcDbEntity
  8
LAY-1
  6
CONTINUOUS
 62
     3
100
AcDbHatch
 10
0.0
 20
0.0
 30
0.0
210
0.0
220
0.0
230
1.0
  2
SOLID
 70
     1
 71
     1
 91
        1
 92
        1
 93
       17
 72
     2
 10
3687.190602767736
 20
288.98825358472016
 40
43.971428571428724
 50
44.165469
 51
51.472792
 73
     0
 72
     1
 10
3714.5797987224887
 20
254.58885714285734
 11
3712.1061544909971
 21
258.87333463164964
 72
     2
 10
3687.190602767736
 20
288.98825358472016
 40
39.085714285714417
 50
309.602625
 51
331.307968
 73
     1
 72
     1
 10
3721.4770969105648
 20
270.22314285714299
 11
3713.3583701510597
 21
270.22314285714299
 72
     1
 10
3713.3583701510597
 20
270.22314285714299
 11
3713.3583701510597
 21
274.62028571428573
 72
     1
 10
3713.3583701510597
 20
274.62028571428573
 11
3718.7326558653458
 21
274.62028571428573
 72
     1
 10
3718.7326558653458
 20
274.62028571428573
 11
3718.7326558653458
 21
279.50600000000009
 72
     1
 10
3718.7326558653458
 20
279.50600000000009
 11
3723.129798722488
 21
279.50600000000009
 72
     1
 10
3723.129798722488
 20
279.50600000000009
 11
3723.129798722488
 21
274.62028571428573
 72
     1
 10
3723.129798722488
 20
274.62028571428573
 11
3728.7483701510591
 21
274.62028571428573
 72
     2
 10
3687.190602767736
 20
288.98825358472016
 40
43.971428571428724
 50
19.072051
 51
32.871988
 73
     0
 72
     1
 10
3724.1215602014063
 20
265.12214972077402
 11
3729.9697987224881
 21
259.47457142857149
 72
     1
 10
3729.9697987224881
 20
259.47457142857149
 11
3726.5145507691204
 21
256.01932347520358
 72
     1
 10
3726.5145507691204
 20
256.01932347520358
 11
3723.129798722488
 21
259.28794053214142
 72
     1
 10
3723.129798722488
 20
259.28794053214142
 11
3723.129798722488
 21
245.30599999999995
 72
     1
 10
3723.129798722488
 20
245.30599999999995
 11
3718.7326558653458
 21
245.30599999999995
 72
     1
 10
3718.7326558653458
 20
245.30599999999995
 11
3718.7326558653458
 21
258.35191214191991
 97
        0
 75
     0
 76
     1
 98
        1
 10
0.0
 20
0.0
  0
HATCH
  5
9D
100
AcDbEntity
  8
LAY-1
  6
CONTINUOUS
 62
     3
100
AcDbHatch
 10
0.0
 20
0.0
 30
0.0
210
0.0
220
0.0
230
1.0
  2
SOLID
 70
     1
 71
     1
 91
        1
 92
        1
 93
       12
 72
     2
 10
3748.9808132770659
 20
223.04342255975493
 40
68.888571428571652
 50
150.903074
 51
156.790773
 73
     1
 72
     1
 10
3685.6672639386215
 20
250.19171428571391
 11
3700.7092494641474
 21
250.19171428571448
 72
     2
 10
3657.9808099350257
 20
237.9046456602774
 40
44.46000000000015
 50
16.043216
 51
21.362935
 73
     1
 72
     1
 10
3699.3860371803994
 20
254.10028571428572
 11
3704.0755130082016
 21
254.10028571428572
 72
     2
 10
3657.9808099350257
 20
237.9046456602774
 40
48.857142857143025
 50
340.64078
 51
351.286733
 73
     0
 72
     1
 10
3706.2740844367736
 20
245.30599999999995
 11
3679.158370151059
 21
245.30599999999995
 72
     2
 10
3748.9808132770659
 20
223.04342255975493
 40
73.285714285714519
 50
197.684652
 51
207.200855
 73
     0
 72
     1
 10
3683.799798722488
 20
256.54314285714293
 11
3676.9597987224879
 21
256.54314285714293
 72
     1
 10
3676.9597987224879
 20
256.54314285714293
 11
3676.9597987224879
 21
261.42885714285728
 72
     1
 10
3676.9597987224879
 20
261.42885714285728
 11
3708.2283701510605
 21
261.42885714285728
 72
     1
 10
3708.2283701510605
 20
261.42885714285728
 11
3708.2283701510605
 21
256.54314285714293
 72
     1
 10
3708.2283701510605
 20
256.54314285714293
 11
3688.7860957890161
 21
256.54314285714293
 97
        0
 75
     0
 76
     1
 98
        1
 10
0.0
 20
0.0
  0
HATCH
  5
9E
100
AcDbEntity
  8
LAY-1
  6
CONTINUOUS
 62
     3
100
AcDbHatch
 10
0.0
 20
0.0
 30
0.0
210
0.0
220
0.0
230
1.0
  2
SOLID
 70
     1
 71
     1
 91
        1
 92
        1
 93
       10
 72
     2
 10
3749.2738353924706
 20
328.79246130431943
 40
78.171428571428834
 50
129.545698
 51
136.474664
 73
     0
 72
     1
 10
3692.594084436776
 20
274.95773202573639
 11
3692.594084436776
 21
279.50600000000009
 72
     1
 10
3692.594084436776
 20
279.50600000000009
 11
3695.0369415796322
 21
279.50600000000009
 72
     2
 10
3749.2738353924706
 20
328.79246130431943
 40
73.285714285714519
 50
222.262231
 51
237.763996
 73
     1
 72
     1
 10
3710.1826558653456
 20
266.80314285714303
 11
3707.0149630613651
 21
263.02803357776429
 72
     2
 10
3749.2738353924706
 20
328.79246130431943
 40
78.171428571428834
 50
122.723968
 51
128.230009
 73
     0
 72
     1
 10
3700.8997987224884
 20
267.38623343491531
 11
3700.8997987224884
 21
263.6274285714286
 72
     1
 10
3700.8997987224884
 20
263.6274285714286
 11
3692.594084436776
 21
263.6274285714286
 72
     1
 10
3692.594084436776
 20
263.6274285714286
 11
3692.594084436776
 21
268.51314285714295
 72
     1
 10
3692.594084436776
 20
268.51314285714295
 11
3699.5025985940756
 21
268.51314285714295
 97
        0
 75
     0
 76
     1
 98
        1
 10
0.0
 20
0.0
  0
HATCH
  5
9F
100
AcDbEntity
  8
LAY-1
  6
CONTINUOUS
 62
     3
100
AcDbHatch
 10
0.0
 20
0.0
 30
0.0
210
0.0
220
0.0
230
1.0
  2
SOLID
 70
     1
 71
     1
 91
        1
 92
        1
 93
       10
 72
     2
 10
3635.9143334810778
 20
328.79246130431943
 40
78.171428571428834
 50
51.769991
 51
57.276032
 73
     0
 72
     1
 10
3678.1732058121834
 20
263.02803357776418
 11
3675.0055130082019
 21
266.80314285714292
 72
     2
 10
3635.9143334810778
 20
328.79246130431943
 40
73.285714285714519
 50
302.236004
 51
317.737769
 73
     1
 72
     1
 10
3690.1512272939162
 20
279.50600000000009
 11
3692.594084436776
 21
279.50600000000009
 72
     1
 10
3692.594084436776
 20
279.50600000000009
 11
3692.594084436776
 21
274.95773202573923
 72
     2
 10
3635.9143334810778
 20
328.79246130431943
 40
78.171428571428834
 50
43.525336
 51
50.454302
 73
     0
 72
     1
 10
3685.6855702794719
 20
268.51314285714295
 11
3692.594084436776
 21
268.51314285714295
 72
     1
 10
3692.594084436776
 20
268.51314285714295
 11
3692.594084436776
 21
263.6274285714286
 72
     1
 10
3692.594084436776
 20
263.6274285714286
 11
3684.28837015106
 21
263.6274285714286
 72
     1
 10
3684.28837015106
 20
263.6274285714286
 11
3684.28837015106
 21
267.38623343491531
 97
        0
 75
     0
 76
     1
 98
        1
 10
0.0
 20
0.0
  0
HATCH
  5
A0
100
AcDbEntity
  8
LAY-1
  6
CONTINUOUS
 62
     3
100
AcDbHatch
 10
0.0
 20
0.0
 30
0.0
210
0.0
220
0.0
230
1.0
  2
SOLID
 70
     1
 71
     1
 91
        1
 92
        1
 93
       18
 72
     2
 10
3599.9560464184133
 20
257.55004157940823
 40
68.400000000000219
 50
14.02954
 51
18.723021
 73
     1
 72
     1
 10
3664.7364129644066
 20
279.50600000000009
 11
3669.8755130082027
 21
279.50600000000009
 72
     2
 10
3599.9560464184133
 20
257.55004157940823
 40
73.285714285714519
 50
342.566782
 51
346.922981
 73
     0
 72
     1
 10
3671.3412272939167
 20
274.13171428571445
 11
3673.2955130082028
 21
274.13171428571445
 72
     1
 10
3673.2955130082028
 20
274.13171428571445
 11
3673.2955130082028
 21
269.24599999999998
 72
     1
 10
3673.2955130082028
 20
269.24599999999998
 11
3664.1614416969032
 21
269.24600000000009
 72
     2
 10
3714.8240844367738
 20
277.30742857142866
 40
51.300000000000175
 50
189.041096
 51
204.65198
 73
     1
 72
     2
 10
3678.4173419950748
 20
260.59915146419405
 40
11.242323842884963
 50
204.65198
 51
242.897449
 73
     1
 72
     1
 10
3673.2955130082028
 20
250.59131887079351
 11
3673.2955130082028
 21
245.30599999999995
 72
     2
 10
3678.4173419950748
 20
260.59915146419405
 40
16.128038128599261
 50
108.516212
 51
155.34802
 73
     0
 72
     2
 10
3714.8240844367738
 20
277.30742857142866
 40
56.185714285714461
 50
155.34802
 51
171.750831
 73
     0
 72
     1
 10
3659.2196973869759
 20
269.24600000000009
 11
3640.561227293917
 21
269.24599999999998
 72
     1
 10
3640.561227293917
 20
269.24599999999998
 11
3640.561227293917
 21
274.13171428571445
 72
     1
 10
3640.561227293917
 20
274.13171428571445
 11
3658.7150208557841
 21
274.13171428571445
 72
     1
 10
3658.7150208557841
 20
274.13171428571445
 11
3658.5273466631734
 21
279.50600000000009
 72
     1
 10
3658.5273466631734
 20
279.50600000000009
 11
3663.4160390081761
 21
279.50600000000009
 72
     1
 10
3663.4160390081761
 20
279.50600000000009
 11
3663.6037132007868
 21
274.13171428571445
 72
     1
 10
3663.6037132007868
 20
274.13171428571445
 11
3666.3157339573172
 21
274.13171428571445
 97
        0
 75
     0
 76
     1
 98
        1
 10
0.0
 20
0.0
  0
HATCH
  5
A1
100
AcDbEntity
  8
LAY-1
  6
CONTINUOUS
 62
     3
100
AcDbHatch
 10
0.0
 20
0.0
 30
0.0
210
0.0
220
0.0
230
1.0
  2
SOLID
 70
     1
 71
     1
 91
        1
 92
        1
 93
       12
 72
     2
 10
3625.1833374739681
 20
490.57292574449184
 40
239.40000000000077
 50
276.500664
 51
278.269357
 73
     1
 72
     1
 10
3659.6155130082025
 20
253.66200305839001
 11
3659.6155130082025
 21
248.72600000000008
 72
     2
 10
3625.1833374739681
 20
490.57292574449184
 40
244.2857142857151
 50
81.897153
 51
86.39082
 73
     0
 72
     1
 10
3640.561227293917
 20
246.7717142857143
 11
3640.561227293917
 21
251.66733664141972
 72
     2
 10
3625.1833374739681
 20
490.57292574449184
 40
239.40000000000077
 50
273.682937
 51
275.325087
 73
     1
 72
     1
 10
3647.4012272939162
 20
252.20613826781957
 11
3647.4012272939162
 21
259.96314285714277
 72
     1
 10
3647.4012272939162
 20
259.96314285714277
 11
3640.561227293917
 21
259.96314285714277
 72
     1
 10
3640.561227293917
 20
259.96314285714277
 11
3640.561227293917
 21
264.84885714285713
 72
     1
 10
3640.561227293917
 20
264.84885714285713
 11
3658.1497987224884
 21
264.84885714285713
 72
     1
 10
3658.1497987224884
 20
264.84885714285713
 11
3658.1497987224884
 21
259.96314285714277
 72
     1
 10
3658.1497987224884
 20
259.96314285714277
 11
3652.2869415796313
 21
259.96314285714277
 72
     1
 10
3652.2869415796313
 20
259.96314285714277
 11
3652.2869415796304
 21
252.71213737347037
 97
        0
 75
     0
 76
     1
 98
        1
 10
0.0
 20
0.0
  0
HATCH
  5
A2
100
AcDbEntity
  8
LAY-1
  6
CONTINUOUS
 62
     3
100
AcDbHatch
 10
0.0
 20
0.0
 30
0.0
210
0.0
220
0.0
230
1.0
  2
SOLID
 70
     1
 71
     1
 91
        1
 92
        1
 93
       30
 72
     2
 10
3581.0253316290546
 20
287.31747823515479
 40
53.498571428571601
 50
37.940537
 51
46.713808
 73
     0
 72
     1
 10
3617.7062498682099
 20
248.37383456856386
 11
3614.4226558653445
 21
251.65742857142877
 72
     2
 10
3581.0253316290546
 20
287.31747823515479
 40
48.857142857143046
 50
313.123325
 51
325.95222
 73
     1
 72
     1
 10
3621.5069415796306
 20
259.963142857143
 11
3615.6440844367735
 21
259.963142857143
 72
     1
 10
3615.6440844367735
 20
259.963142857143
 11
3615.6440844367735
 21
264.84885714285724
 72
     1
 10
3615.6440844367735
 20
264.84885714285724
 11
3623.2169415796307
 21
264.84885714285724
 72
     1
 10
3623.2169415796307
 20
264.84885714285724
 11
3623.2169415796307
 21
269.73457142857148
 72
     1
 10
3623.2169415796307
 20
269.73457142857148
 11
3620.7810272137467
 21
269.73457142857148
 72
     2
 10
3568.5390727104414
 20
280.06884143730292
 40
53.254285714285913
 50
11.189535
 51
14.746058
 73
     0
 72
     1
 10
3620.0393461506374
 20
266.51373972157137
 11
3615.8883701510586
 21
268.02457142857145
 72
     2
 10
3568.5390727104414
 20
280.06884143730292
 40
48.857142857143046
 50
345.728313
 51
357.620387
 73
     1
 72
     1
 10
3617.3540844367744
 20
278.04028571430035
 11
3621.7197854104106
 21
277.27049484294309
 72
     2
 10
3568.5390727104414
 20
280.06884143730292
 40
53.254285714285913
 50
3.012102
 51
6.401006
 73
     0
 72
     1
 10
3621.4613692226367
 20
274.13171428571445
 11
3623.2169415796307
 21
274.13171428571445
 72
     1
 10
3623.2169415796307
 20
274.13171428571445
 11
3623.2169415796307
 21
279.50600000000009
 72
     1
 10
3623.2169415796307
 20
279.50600000000009
 11
3628.1026558653448
 21
279.50600000000009
 72
     1
 10
3628.1026558653448
 20
279.50600000000009
 11
3628.1026558653448
 21
274.13171428571445
 72
     1
 10
3628.1026558653448
 20
274.13171428571445
 11
3634.6983701510599
 21
274.13171428571445
 72
     1
 10
3634.6983701510599
 20
274.13171428571445
 11
3634.6983701510599
 21
269.73457142857148
 72
     1
 10
3634.6983701510599
 20
269.73457142857148
 11
3628.1026558653448
 21
269.73457142857148
 72
     1
 10
3628.1026558653448
 20
269.73457142857148
 11
3628.1026558653448
 21
264.84885714285724
 72
     1
 10
3628.1026558653448
 20
264.84885714285724
 11
3635.675513008202
 21
264.84885714285724
 72
     1
 10
3635.675513008202
 20
264.84885714285724
 11
3635.675513008202
 21
259.963142857143
 72
     1
 10
3635.675513008202
 20
259.963142857143
 11
3629.8126558653448
 21
259.963142857143
 72
     2
 10
3670.2942658159209
 20
287.31747823515468
 40
48.857142857143046
 50
214.04778
 51
226.876675
 73
     1
 72
     1
 10
3636.89694157963
 20
251.65742857142877
 11
3633.6133475767656
 21
248.37383456856386
 72
     2
 10
3670.2942658159209
 20
287.31747823515468
 40
53.498571428571601
 50
133.286192
 51
142.059463
 73
     0
 72
     1
 10
3628.1026558653448
 20
254.42423888910511
 11
3628.1026558653448
 21
245.30599999999995
 72
     1
 10
3628.1026558653448
 20
245.30599999999995
 11
3623.2169415796307
 21
245.30599999999995
 72
     1
 10
3623.2169415796307
 20
245.30599999999995
 11
3623.2169415796307
 21
254.42423888910648
 97
        0
 75
     0
 76
     1
 98
        1
 10
0.0
 20
0.0
  0
HATCH
  5
A3
100
AcDbEntity
  8
LAY-1
  6
CONTINUOUS
 62
     3
100
AcDbHatch
 10
0.0
 20
0.0
 30
0.0
210
0.0
220
0.0
230
1.0
  2
SOLID
 70
     1
 71
     1
 91
        1
 92
        1
 93
       19
 72
     2
 10
3560.9130661813542
 20
280.79673838038252
 40
53.254285714285892
 50
27.683433
 51
32.280505
 73
     0
 72
     1
 10
3605.936561174477
 20
252.35550342929341
 11
3602.4526558653452
 21
255.07742857142856
 72
     2
 10
3560.9130661813542
 20
280.79673838038252
 40
48.857142857143025
 50
328.236207
 51
344.845745
 73
     1
 72
     1
 10
3608.0712272939163
 20
268.02457142857145
 11
3603.6740844367741
 21
268.02457142857145
 72
     1
 10
3603.6740844367741
 20
268.02457142857145
 11
3603.6740844367741
 21
272.91028571428581
 72
     1
 10
3603.6740844367741
 20
272.91028571428581
 11
3608.0712272939163
 21
272.91028571428581
 72
     1
 10
3608.0712272939163
 20
272.91028571428581
 11
3608.0712272939163
 21
279.50600000000009
 72
     1
 10
3608.0712272939163
 20
279.50600000000009
 11
3612.9569415796304
 21
279.50600000000009
 72
     1
 10
3612.9569415796304
 20
279.50600000000009
 11
3612.9569415796304
 21
272.91028571428581
 72
     1
 10
3612.9569415796304
 20
272.91028571428581
 11
3615.1555130082024
 21
272.91028571428581
 72
     1
 10
3615.1555130082024
 20
272.91028571428581
 11
3615.1555130082024
 21
268.02457142857145
 72
     1
 10
3615.1555130082024
 20
268.02457142857145
 11
3612.9569415796304
 21
268.02457142857145
 72
     1
 10
3612.9569415796304
 20
268.02457142857145
 11
3615.6440844367735
 21
264.18693371331096
 72
     1
 10
3615.6440844367735
 20
264.18693371331096
 11
3615.6440844367735
 21
261.21257458202558
 72
     1
 10
3615.6440844367735
 20
261.21257458202558
 11
3614.1783701510594
 21
259.46580431630855
 72
     1
 10
3614.1783701510594
 20
259.46580431630855
 11
3612.9569415796304
 21
261.21018509597184
 72
     1
 10
3612.9569415796304
 20
261.21018509597184
 11
3612.9569415796304
 21
245.30599999999995
 72
     1
 10
3612.9569415796304
 20
245.30599999999995
 11
3608.0712272939163
 21
245.30599999999995
 72
     1
 10
3608.0712272939163
 20
245.30599999999995
 11
3608.0712272939163
 21
256.05554222052854
 97
        0
 75
     0
 76
     1
 98
        1
 10
0.0
 20
0.0
  0
HATCH
  5
A4
100
AcDbEntity
  8
LAY-1
  6
CONTINUOUS
 62
     3
100
AcDbHatch
 10
0.0
 20
0.0
 30
0.0
210
0.0
220
0.0
230
1.0
  2
SOLID
 70
     1
 71
     1
 91
        1
 92
        1
 93
        8
 72
     2
 10
3581.4335998905171
 20
259.66999999999928
 40
9.5760000000000769
 50
270.0
 51
330.0
 73
     1
 72
     2
 10
3576.6947088810084
 20
262.40599999999938
 40
15.048000000000073
 50
330.0
 51
30.0
 73
     1
 72
     2
 10
3581.4335998905171
 20
265.14199999999937
 40
9.5760000000000733
 50
30.0
 51
90.0
 73
     1
 72
     1
 10
3581.433599890519
 20
274.71799999999939
 11
3581.433599890519
 21
280.19000000000051
 72
     2
 10
3581.4335998905162
 20
265.14200000000051
 40
15.048000000000046
 50
270.0
 51
330.0
 73
     0
 72
     2
 10
3576.6947088810084
 20
262.40600000000029
 40
20.520000000000092
 50
330.0
 51
30.0
 73
     0
 72
     2
 10
3581.4335998905171
 20
259.66999999999871
 40
15.04800000000003
 50
30.0
 51
90.0
 73
     0
 72
     1
 10
3581.433599890519
 20
244.62199999999868
 11
3581.433599890519
 21
250.09399999999923
 97
        0
 75
     0
 76
     1
 98
        1
 10
0.0
 20
0.0
  0
HATCH
  5
A5
100
AcDbEntity
  8
LAY-1
  6
CONTINUOUS
 62
     3
100
AcDbHatch
 10
0.0
 20
0.0
 30
0.0
210
0.0
220
0.0
230
1.0
  2
SOLID
 70
     1
 71
     1
 91
        1
 92
        1
 93
        8
 72
     2
 10
3581.4335998905171
 20
259.66999999999871
 40
15.04800000000003
 50
90.0
 51
150.0
 73
     0
 72
     2
 10
3586.1724909000241
 20
262.40599999999915
 40
20.520000000000113
 50
150.0
 51
210.0
 73
     0
 72
     2
 10
3581.4335998905162
 20
265.14200000000051
 40
15.048000000000046
 50
210.0
 51
270.0
 73
     0
 72
     1
 10
3581.433599890519
 20
280.19000000000051
 11
3581.433599890519
 21
274.71799999999939
 72
     2
 10
3581.4335998905171
 20
265.14199999999937
 40
9.5760000000000733
 50
90.0
 51
150.0
 73
     1
 72
     2
 10
3586.1724909000259
 20
262.40599999999938
 40
15.04800000000008
 50
150.0
 51
210.0
 73
     1
 72
     2
 10
3581.4335998905171
 20
259.66999999999928
 40
9.5760000000000769
 50
210.0
 51
270.0
 73
     1
 72
     1
 10
3581.433599890519
 20
250.09399999999923
 11
3581.433599890519
 21
244.62199999999868
 97
        0
 75
     0
 76
     1
 98
        1
 10
0.0
 20
0.0
  0
HATCH
  5
A6
100
AcDbEntity
  8
LAY-1
  6
CONTINUOUS
 62
     3
100
AcDbHatch
 10
0.0
 20
0.0
 30
0.0
210
0.0
220
0.0
230
1.0
  2
SOLID
 70
     1
 71
     1
 91
        1
 92
        1
 93
        4
 72
     1
 10
3560.2295998905174
 20
256.24999999999932
 11
3554.7575998905168
 21
256.24999999999932
 72
     1
 10
3554.7575998905168
 20
256.24999999999932
 11
3554.7575998905168
 21
261.7219999999993
 72
     1
 10
3554.7575998905168
 20
261.7219999999993
 11
3560.2295998905174
 21
261.7219999999993
 72
     1
 10
3560.2295998905174
 20
261.7219999999993
 11
3560.2295998905174
 21
256.24999999999898
 97
        0
 75
     0
 76
     1
 98
        1
 10
0.0
 20
0.0
  0
HATCH
  5
A7
100
AcDbEntity
  8
LAY-1
  6
CONTINUOUS
 62
     3
100
AcDbHatch
 10
0.0
 20
0.0
 30
0.0
210
0.0
220
0.0
230
1.0
  2
SOLID
 70
     1
 71
     1
 91
        1
 92
        1
 93
       16
 72
     1
 10
3534.2375998905163
 20
274.03399999999942
 11
3526.713599890516
 21
274.03399999999942
 72
     1
 10
3526.713599890516
 20
274.03399999999942
 11
3525.3455998905165
 21
266.50999999999931
 72
     1
 10
3525.3455998905165
 20
266.50999999999931
 11
3521.2415998905162
 21
266.50999999999931
 72
     1
 10
3521.2415998905162
 20
266.50999999999931
 11
3521.2415998905162
 21
279.5059999999994
 72
     1
 10
3521.2415998905162
 20
279.5059999999994
 11
3552.7055998905171
 21
279.5059999999994
 72
     1
 10
3552.7055998905171
 20
279.5059999999994
 11
3552.7055998905171
 21
266.50999999999931
 72
     1
 10
3552.7055998905171
 20
266.50999999999931
 11
3548.6015998905168
 21
266.50999999999931
 72
     1
 10
3548.6015998905168
 20
266.50999999999931
 11
3547.2335998905164
 21
274.03399999999942
 72
     1
 10
3547.2335998905164
 20
274.03399999999942
 11
3539.709599890517
 21
274.03399999999942
 72
     1
 10
3539.709599890517
 20
274.03399999999942
 11
3539.709599890517
 21
250.77799999999931
 72
     1
 10
3539.709599890517
 20
250.77799999999931
 11
3545.1815998905167
 21
249.40999999999926
 72
     1
 10
3545.1815998905167
 20
249.40999999999926
 11
3545.1815998905167
 21
245.30599999999922
 72
     1
 10
3545.1815998905167
 20
245.30599999999922
 11
3528.7655998905166
 21
245.30599999999922
 72
     1
 10
3528.7655998905166
 20
245.30599999999922
 11
3528.7655998905166
 21
249.40999999999926
 72
     1
 10
3528.7655998905166
 20
249.40999999999926
 11
3534.2375998905163
 21
250.77799999999931
 72
     1
 10
3534.2375998905163
 20
250.77799999999931
 11
3534.2375998905163
 21
274.03399999999942
 97
        0
 75
     0
 76
     1
 98
        1
 10
0.0
 20
0.0
  0
HATCH
  5
A8
100
AcDbEntity
  8
LAY-1
  6
CONTINUOUS
 62
     3
100
AcDbHatch
 10
0.0
 20
0.0
 30
0.0
210
0.0
220
0.0
230
1.0
  2
SOLID
 70
     1
 71
     1
 91
        1
 92
        1
 93
        4
 72
     1
 10
3513.7175998905168
 20
256.24999999999932
 11
3513.7175998905168
 21
261.72199999999964
 72
     1
 10
3513.7175998905168
 20
261.72199999999964
 11
3519.1895998905165
 21
261.7219999999993
 72
     1
 10
3519.1895998905165
 20
261.7219999999993
 11
3519.1895998905165
 21
256.24999999999932
 72
     1
 10
3519.1895998905165
 20
256.24999999999932
 11
3513.7175998905168
 21
256.24999999999932
 97
        0
 75
     0
 76
     1
 98
        1
 10
0.0
 20
0.0
  0
HATCH
  5
A9
100
AcDbEntity
  8
LAY-1
  6
CONTINUOUS
 62
     3
100
AcDbHatch
 10
0.0
 20
0.0
 30
0.0
210
0.0
220
0.0
230
1.0
  2
SOLID
 70
     1
 71
     1
 91
        1
 92
        1
 93
       12
 72
     1
 10
3507.5615998905168
 20
279.5059999999994
 11
3507.5615998905168
 21
275.40199999999936
 72
     1
 10
3507.5615998905168
 20
275.40199999999936
 11
3502.0895998905171
 21
274.03399999999942
 72
     1
 10
3502.0895998905171
 20
274.03399999999942
 11
3502.0895998905171
 21
250.77799999999931
 72
     1
 10
3502.0895998905171
 20
250.77799999999931
 11
3507.5615998905168
 21
249.40999999999926
 72
     1
 10
3507.5615998905168
 20
249.40999999999926
 11
3507.5615998905168
 21
245.30599999999922
 72
     1
 10
3507.5615998905168
 20
245.30599999999922
 11
3491.1455998905167
 21
245.30599999999922
 72
     1
 10
3491.1455998905167
 20
245.30599999999922
 11
3491.1455998905167
 21
249.40999999999926
 72
     1
 10
3491.1455998905167
 20
249.40999999999926
 11
3496.6175998905164
 21
250.77799999999931
 72
     1
 10
3496.6175998905164
 20
250.77799999999931
 11
3496.6175998905164
 21
274.03399999999942
 72
     1
 10
3496.6175998905164
 20
274.03399999999942
 11
3491.1455998905167
 21
275.40199999999936
 72
     1
 10
3491.1455998905167
 20
275.40199999999936
 11
3491.1455998905167
 21
279.5059999999994
 72
     1
 10
3491.1455998905167
 20
279.5059999999994
 11
3507.5615998905168
 21
279.5059999999994
 97
        0
 75
     0
 76
     1
 98
        1
 10
0.0
 20
0.0
  0
HATCH
  5
AA
100
AcDbEntity
  8
LAY-1
  6
CONTINUOUS
 62
     3
100
AcDbHatch
 10
0.0
 20
0.0
 30
0.0
210
0.0
220
0.0
230
1.0
  2
SOLID
 70
     1
 71
     1
 91
        1
 92
        1
 93
       15
 72
     2
 10
3453.9194333433607
 20
262.40600000000006
 40
15.186318631863207
 50
124.301153
 51
180.0
 73
     0
 72
     1
 10
3438.7331147114978
 20
262.40600000000097
 11
3444.4634797132499
 21
262.40600000000097
 72
     2
 10
3459.2393573010086
 20
262.40600000000018
 40
14.775877587758821
 50
180.0
 51
199.464384
 73
     1
 72
     2
 10
3445.0688257282568
 20
264.04507188899777
 40
6.5670567056707245
 50
272.086657
 51
294.619977
 73
     1
 72
     2
 10
3446.9497028811816
 20
259.94066144795363
 40
2.052205220522064
 50
294.619977
 51
0.0
 73
     1
 72
     1
 10
3449.0019081017035
 20
259.94066144795363
 11
3449.0019081017035
 21
262.40600000000097
 72
     1
 10
3449.0019081017035
 20
262.40600000000097
 11
3453.9272006309566
 21
262.40600000000097
 72
     1
 10
3453.9272006309566
 20
262.40600000000097
 11
3453.9272006309566
 21
259.93630683516801
 72
     2
 10
3455.979405851479
 20
259.93630683516801
 40
2.0522052205219801
 50
180.0
 51
245.380023
 73
     1
 72
     2
 10
3457.8602830044038
 20
264.04071727621294
 40
6.5670567056714466
 50
245.380023
 51
267.913343
 73
     1
 72
     1
 10
3457.6211700278964
 20
257.47801518332699
 11
3457.6211700278964
 21
256.24669205101384
 72
     1
 10
3457.6211700278964
 20
256.24669205101384
 11
3445.8084420649584
 21
256.24669205101384
 72
     2
 10
3459.2393573010095
 20
262.40600000000018
 40
14.775877587758801
 50
204.635803
 51
268.19864
 73
     1
 72
     1
 10
3458.7748852884251
 20
247.63742443436215
 11
3458.7748852884251
 21
245.58229771202716
 72
     2
 10
3459.2393573010086
 20
270.20437983798467
 40
24.626462646264738
 50
91.080702
 51
124.301153
 73
     0
 97
        0
 75
     0
 76
     1
 98
        1
 10
0.0
 20
0.0
  0
HATCH
  5
AB
100
AcDbEntity
  8
LAY-1
  6
CONTINUOUS
 62
     3
100
AcDbHatch
 10
0.0
 20
0.0
 30
0.0
210
0.0
220
0.0
230
1.0
  2
SOLID
 70
     1
 71
     1
 91
        1
 92
        1
 93
       24
 72
     2
 10
3456.3895485566027
 20
264.45820522052225
 40
2.0522052205220822
 50
90.0
 51
157.380135
 73
     1
 72
     2
 10
3461.3148410858557
 20
262.40600000000029
 40
7.3879387938794219
 50
157.380135
 51
180.0
 73
     1
 72
     1
 10
3453.9269022919761
 20
262.40600000000097
 11
3449.0019081017035
 21
262.40600000000097
 72
     1
 10
3449.0019081017035
 20
262.40600000000097
 11
3449.0019081017035
 21
273.06063243758706
 72
     2
 10
3459.2393573010086
 20
262.40600000000018
 40
14.775877587758821
 50
133.856042
 51
180.0
 73
     1
 72
     1
 10
3444.4634797132499
 20
262.40600000000097
 11
3438.7331147114978
 21
262.40600000000097
 72
     2
 10
3453.9194333433607
 20
262.40600000000006
 40
15.186318631863207
 50
180.0
 51
235.698847
 73
     0
 72
     2
 10
3459.2393573010095
 20
254.60762016201542
 40
24.626462646264791
 50
235.698847
 51
245.436008
 73
     0
 72
     1
 10
3449.0019081017035
 20
277.00532755271774
 11
3449.0019081017035
 21
279.23574513364645
 72
     2
 10
3446.9497028811816
 20
279.23574513364645
 40
2.0522052205220529
 50
0.0
 51
65.380023
 73
     1
 72
     2
 10
3445.0688257282568
 20
275.13133469260231
 40
6.5670567056705762
 50
65.380023
 51
87.913343
 73
     1
 72
     1
 10
3445.3079387047637
 20
281.69403678548747
 11
3445.3079387047637
 21
282.92535991780062
 72
     1
 10
3445.3079387047637
 20
282.92535991780062
 11
3457.6211700278964
 21
282.92535991780062
 72
     1
 10
3457.6211700278964
 20
282.92535991780062
 11
3457.6211700278964
 21
281.69403678548747
 72
     2
 10
3457.8602830044038
 20
275.13133469260231
 40
6.5670567056706064
 50
92.086657
 51
114.619977
 73
     1
 72
     2
 10
3455.979405851479
 20
279.23574513364656
 40
2.0522052205220822
 50
114.619977
 51
180.0
 73
     1
 72
     1
 10
3453.9272006309566
 20
279.23574513364645
 11
3453.9272006309566
 21
278.65431752320615
 72
     2
 10
3459.2393573010086
 20
254.60762016201542
 40
24.626462646264731
 50
257.542857
 51
268.919298
 73
     0
 72
     1
 10
3458.7748852884251
 20
279.22970228797305
 11
3458.7748852884251
 21
277.17457556563818
 72
     2
 10
3459.2393573010095
 20
262.40600000000018
 40
14.775877587758821
 50
91.80136
 51
111.070443
 73
     1
 72
     1
 10
3453.9272006309566
 20
276.19394944874875
 11
3453.9272006309566
 21
268.56261566156627
 72
     1
 10
3453.9272006309566
 20
268.56261566156627
 11
3458.7748852884251
 21
268.56261566156627
 72
     1
 10
3458.7748852884251
 20
268.56261566156627
 11
3458.7748852884251
 21
266.5104104410442
 72
     1
 10
3458.7748852884251
 20
266.5104104410442
 11
3456.3895485566027
 21
266.5104104410442
 97
        0
 75
     0
 76
     1
 98
        1
 10
0.0
 20
0.0
  0
HATCH
  5
AC
100
AcDbEntity
  8
LAY-1
  6
CONTINUOUS
 62
     3
100
AcDbHatch
 10
0.0
 20
0.0
 30
0.0
210
0.0
220
0.0
230
1.0
  2
SOLID
 70
     1
 71
     1
 91
        1
 92
        1
 93
       14
 72
     2
 10
3459.2393573010086
 20
262.40600000000018
 40
14.775877587758849
 50
0.0
 51
9.281799
 73
     1
 72
     2
 10
3471.7964386594158
 20
264.45820522052225
 40
2.05220522052204
 50
9.281799
 51
90.0
 73
     1
 72
     1
 10
3471.7964386594158
 20
266.5104104410442
 11
3467.4481781830973
 21
266.5104104410442
 72
     1
 10
3467.4481781830973
 20
266.5104104410442
 11
3467.4481781830973
 21
262.40600000000097
 72
     1
 10
3467.4481781830973
 20
262.40600000000097
 11
3462.5228856538442
 21
262.40600000000097
 72
     1
 10
3462.5228856538442
 20
262.40600000000097
 11
3462.5228856538442
 21
266.5104104410442
 72
     1
 10
3462.5228856538442
 20
266.5104104410442
 11
3458.7748852884251
 21
266.5104104410442
 72
     1
 10
3458.7748852884251
 20
266.5104104410442
 11
3458.7748852884251
 21
268.56261566156627
 72
     1
 10
3458.7748852884251
 20
268.56261566156627
 11
3472.6715068715057
 21
268.56261566156616
 72
     2
 10
3459.2393573010095
 20
262.40600000000018
 40
14.775877587758821
 50
24.624318
 51
91.80136
 73
     1
 72
     1
 10
3458.7748852884251
 20
277.17457556563818
 11
3458.7748852884251
 21
279.22970228797305
 72
     2
 10
3459.2393573010086
 20
254.60762016201542
 40
24.626462646264731
 50
268.919298
 51
304.301153
 73
     0
 72
     2
 10
3464.5592812586565
 20
262.40600000000006
 40
15.186318631863223
 50
304.301153
 51
0.0
 73
     0
 72
     1
 10
3479.7455998905207
 20
262.40600000000097
 11
3474.0152348887677
 21
262.40600000000097
 97
        0
 75
     0
 76
     1
 98
        1
 10
0.0
 20
0.0
  0
HATCH
  5
AD
100
AcDbEntity
  8
LAY-1
  6
CONTINUOUS
 62
     3
100
AcDbHatch
 10
0.0
 20
0.0
 30
0.0
210
0.0
220
0.0
230
1.0
  2
SOLID
 70
     1
 71
     1
 91
        1
 92
        1
 93
       19
 72
     2
 10
3459.2393573010086
 20
262.40600000000018
 40
14.775877587758849
 50
303.748989
 51
0.0
 73
     1
 72
     1
 10
3474.0152348887677
 20
262.40600000000097
 11
3479.7455998905207
 21
262.40600000000097
 72
     2
 10
3464.5592812586565
 20
262.40600000000006
 40
15.186318631863223
 50
0.0
 51
55.698847
 73
     0
 72
     2
 10
3459.2393573010095
 20
270.20437983798479
 40
24.626462646264777
 50
55.698847
 51
70.528779
 73
     0
 72
     1
 10
3467.4481781830973
 20
246.9863281929033
 11
3467.4481781830973
 21
245.57356257893369
 72
     2
 10
3469.5003834036197
 20
245.57356257893369
 40
2.052205220522064
 50
180.0
 51
245.380023
 73
     1
 72
     2
 10
3471.3812605565436
 20
249.67797301997788
 40
6.567056705670594
 50
245.380023
 51
267.913343
 73
     1
 72
     1
 10
3471.1421475800371
 20
243.11527092709272
 11
3471.1421475800371
 21
241.88394779477946
 72
     1
 10
3471.1421475800371
 20
241.88394779477946
 11
3458.8289162569044
 21
241.88394779477946
 72
     1
 10
3458.8289162569044
 20
241.88394779477946
 11
3458.8289162569044
 21
243.11527092709272
 72
     2
 10
3458.5898032803971
 20
249.67797301997788
 40
6.567056705670594
 50
272.086657
 51
294.619977
 73
     1
 72
     2
 10
3460.4706804333218
 20
245.57356257893369
 40
2.052205220522064
 50
294.619977
 51
0.0
 73
     1
 72
     1
 10
3462.5228856538442
 20
245.57356257893369
 11
3462.5228856538442
 21
245.79780072447514
 72
     2
 10
3459.2393573010086
 20
270.20437983798467
 40
24.626462646264738
 50
82.337744
 51
91.080702
 73
     0
 72
     1
 10
3458.7748852884251
 20
245.58229771202716
 11
3458.7748852884251
 21
247.63742443436215
 72
     2
 10
3459.2393573010095
 20
262.40600000000018
 40
14.775877587758801
 50
268.19864
 51
282.839588
 73
     1
 72
     1
 10
3462.5228856538442
 20
247.99957781943911
 11
3462.5228856538442
 21
262.40600000000097
 72
     1
 10
3462.5228856538442
 20
262.40600000000097
 11
3467.4481781830973
 21
262.40600000000097
 72
     1
 10
3467.4481781830973
 20
262.40600000000097
 11
3467.4481781830973
 21
250.1201618839323
 97
        0
 75
     0
 76
     1
 98
        1
 10
0.0
 20
0.0
  0
TEXT
  5
AE
100
AcDbEntity
  8
LAY-1
  6
CONTINUOUS
 62
     3
100
AcDbText
 10
3373.808
 20
343.632
 30
0.0
 40
40.0
  1
電熱式ベーパライザー
 41
0.84
  7
EXCADSTD
 72
     5
 11
3773.808
 21
343.632
 31
0.0
100
AcDbText
  0
LINE
  5
AF
100
AcDbEntity
  8
LAY-1
  6
EXLTYPE3
 62
     1
100
AcDbLine
 10
3695.0
 20
668.5
 30
0.0
 11
3695.0
 21
644.0
 31
0.0
  0
LINE
  5
B0
100
AcDbEntity
  8
LAY-1
  6
EXLTYPE3
 62
     1
100
AcDbLine
 10
3375.0
 20
668.5
 30
0.0
 11
3375.0
 21
644.0
 31
0.0
  0
LINE
  5
B1
100
AcDbEntity
  8
LAY-1
  6
EXLTYPE3
 62
     1
100
AcDbLine
 10
3535.0
 20
1394.0
 30
0.0
 11
3535.0
 21
604.0
 31
0.0
  0
LINE
  5
B2
100
AcDbEntity
  8
LAY-1
  6
EXLTYPE3
 62
     1
100
AcDbLine
 10
2638.0
 20
1394.0
 30
0.0
 11
2638.0
 21
604.0
 31
0.0
  0
LINE
  5
B3
100
AcDbEntity
  8
LAY-1
  6
EXLTYPE3
 62
     1
100
AcDbLine
 10
2378.0
 20
668.5
 30
0.0
 11
2378.0
 21
644.0
 31
0.0
  0
LINE
  5
B4
100
AcDbEntity
  8
LAY-1
  6
EXLTYPE3
 62
     1
100
AcDbLine
 10
2898.0
 20
668.5
 30
0.0
 11
2898.0
 21
644.0
 31
0.0
  0
LINE
  5
B5
100
AcDbEntity
  8
LAY-1
  6
EXLTYPE3
 62
     1
100
AcDbLine
 10
1581.0
 20
668.5
 30
0.0
 11
1581.0
 21
644.0
 31
0.0
  0
LINE
  5
B6
100
AcDbEntity
  8
LAY-1
  6
EXLTYPE3
 62
     1
100
AcDbLine
 10
1901.0
 20
668.5
 30
0.0
 11
1901.0
 21
644.0
 31
0.0
  0
LINE
  5
B7
100
AcDbEntity
  8
LAY-1
  6
EXLTYPE3
 62
     1
100
AcDbLine
 10
1741.0
 20
1394.0
 30
0.0
 11
1741.0
 21
604.0
 31
0.0
  0
LINE
  5
B8
100
AcDbEntity
  8
LAY-1
  6
CONTINUOUS
 62
     1
100
AcDbLine
 10
1463.15
 20
1249.22
 30
0.0
 11
1463.15
 21
1245.053105
 31
0.0
  0
LINE
  5
B9
100
AcDbEntity
  8
LAY-1
  6
CONTINUOUS
 62
     1
100
AcDbLine
 10
1464.65
 20
1251.22
 30
0.0
 11
1463.15
 21
1249.22
 31
0.0
  0
LINE
  5
BA
100
AcDbEntity
  8
LAY-1
  6
CONTINUOUS
 62
     1
100
AcDbLine
 10
1448.85
 20
1249.22
 30
0.0
 11
1448.85
 21
1245.053105
 31
0.0
  0
LINE
  5
BB
100
AcDbEntity
  8
LAY-1
  6
CONTINUOUS
 62
     1
100
AcDbLine
 10
1447.35
 20
1251.22
 30
0.0
 11
1448.85
 21
1249.22
 31
0.0
  0
LINE
  5
BC
100
AcDbEntity
  8
LAY-1
  6
CONTINUOUS
 62
     1
100
AcDbLine
 10
3827.15
 20
1249.22
 30
0.0
 11
3827.15
 21
1240.72
 31
0.0
  0
LINE
  5
BD
100
AcDbEntity
  8
LAY-1
  6
CONTINUOUS
 62
     1
100
AcDbLine
 10
3828.65
 20
1251.22
 30
0.0
 11
3827.15
 21
1249.22
 31
0.0
  0
LINE
  5
BE
100
AcDbEntity
  8
LAY-1
  6
CONTINUOUS
 62
     1
100
AcDbLine
 10
3811.35
 20
1251.22
 30
0.0
 11
3812.85
 21
1249.22
 31
0.0
  0
LINE
  5
BF
100
AcDbEntity
  8
LAY-1
  6
CONTINUOUS
 62
     1
100
AcDbLine
 10
3812.85
 20
1249.22
 30
0.0
 11
3812.85
 21
1240.72
 31
0.0
  0
LINE
  5
C0
100
AcDbEntity
  8
LAY-1
  6
EXLTYPE3
 62
     1
100
AcDbLine
 10
483.0
 20
668.5
 30
0.0
 11
483.0
 21
644.0
 31
0.0
  0
LINE
  5
C1
100
AcDbEntity
  8
LAY-1
  6
EXLTYPE3
 62
     1
100
AcDbLine
 10
1003.0
 20
668.5
 30
0.0
 11
1003.0
 21
644.0
 31
0.0
  0
LINE
  5
C2
100
AcDbEntity
  8
LAY-1
  6
EXLTYPE3
 62
     1
100
AcDbLine
 10
743.0
 20
1394.0
 30
0.0
 11
743.0
 21
604.0
 31
0.0
  0
LINE
  5
C3
100
AcDbEntity
  8
LAY-1
  6
CONTINUOUS
 62
     2
100
AcDbLine
 10
519.0
 20
1344.0
 30
0.0
 11
519.0
 21
1044.0
 31
0.0
  0
LINE
  5
C4
100
AcDbEntity
  8
LAY-1
  6
CONTINUOUS
 62
     2
100
AcDbLine
 10
967.0
 20
1344.0
 30
0.0
 11
967.0
 21
1044.0
 31
0.0
  0
LINE
  5
C5
100
AcDbEntity
  8
LAY-1
  6
CONTINUOUS
 62
     2
100
AcDbLine
 10
519.0
 20
1044.0
 30
0.0
 11
967.0
 21
1044.0
 31
0.0
  0
LINE
  5
C6
100
AcDbEntity
  8
LAY-1
  6
CONTINUOUS
 62
     2
100
AcDbLine
 10
523.0
 20
1044.0
 30
0.0
 11
523.0
 21
712.0
 31
0.0
  0
LINE
  5
C7
100
AcDbEntity
  8
LAY-1
  6
CONTINUOUS
 62
     2
100
AcDbLine
 10
963.0
 20
1044.0
 30
0.0
 11
963.0
 21
712.0
 31
0.0
  0
LINE
  5
C8
100
AcDbEntity
  8
LAY-1
  6
CONTINUOUS
 62
     2
100
AcDbLine
 10
463.0
 20
654.0
 30
0.0
 11
1023.0
 21
654.0
 31
0.0
  0
LINE
  5
C9
100
AcDbEntity
  8
LAY-1
  6
CONTINUOUS
 62
     2
100
AcDbLine
 10
463.0
 20
658.5
 30
0.0
 11
463.0
 21
654.0
 31
0.0
  0
LINE
  5
CA
100
AcDbEntity
  8
LAY-1
  6
CONTINUOUS
 62
     2
100
AcDbLine
 10
1023.0
 20
658.5
 30
0.0
 11
1023.0
 21
654.0
 31
0.0
  0
LINE
  5
CB
100
AcDbEntity
  8
LAY-1
  6
CONTINUOUS
 62
     2
100
AcDbLine
 10
463.0
 20
658.5
 30
0.0
 11
1023.0
 21
658.5
 31
0.0
  0
LINE
  5
CC
100
AcDbEntity
  8
LAY-1
  6
CONTINUOUS
 62
     2
100
AcDbLine
 10
538.0
 20
712.0
 30
0.0
 11
538.0
 21
658.5
 31
0.0
  0
LINE
  5
CD
100
AcDbEntity
  8
LAY-1
  6
CONTINUOUS
 62
     2
100
AcDbLine
 10
948.0
 20
712.0
 30
0.0
 11
948.0
 21
658.5
 31
0.0
  0
LINE
  5
CE
100
AcDbEntity
  8
LAY-1
  6
CONTINUOUS
 62
     2
100
AcDbLine
 10
543.257013
 20
1361.178734
 30
0.0
 11
545.0
 21
1359.0
 31
0.0
  0
LINE
  5
CF
100
AcDbEntity
  8
LAY-1
  6
CONTINUOUS
 62
     2
100
AcDbLine
 10
545.0
 20
1359.0
 30
0.0
 11
547.0
 21
1344.0
 31
0.0
  0
LINE
  5
D0
100
AcDbEntity
  8
LAY-1
  6
CONTINUOUS
 62
     2
100
AcDbLine
 10
530.742987
 20
1361.178734
 30
0.0
 11
529.0
 21
1359.0
 31
0.0
  0
LINE
  5
D1
100
AcDbEntity
  8
LAY-1
  6
CONTINUOUS
 62
     2
100
AcDbLine
 10
529.0
 20
1359.0
 30
0.0
 11
527.0
 21
1344.0
 31
0.0
  0
LINE
  5
D2
100
AcDbEntity
  8
LAY-1
  6
CONTINUOUS
 62
     2
100
AcDbLine
 10
545.0
 20
1359.0
 30
0.0
 11
529.0
 21
1359.0
 31
0.0
  0
ARC
  5
D3
100
AcDbEntity
  8
LAY-1
  6
CONTINUOUS
 62
     2
100
AcDbCircle
 10
537.0
 20
1372.0
 30
0.0
 40
20.5
100
AcDbArc
 50
295.233094
 51
244.766906
  0
ARC
  5
D4
100
AcDbEntity
  8
LAY-1
  6
CONTINUOUS
 62
     2
100
AcDbCircle
 10
537.0
 20
1372.0
 30
0.0
 40
12.5
100
AcDbArc
 50
300.037123
 51
239.962877
  0
LINE
  5
D5
100
AcDbEntity
  8
LAY-1
  6
CONTINUOUS
 62
     2
100
AcDbLine
 10
530.742987
 20
1361.178734
 30
0.0
 11
543.257013
 21
1361.178734
 31
0.0
  0
LINE
  5
D6
100
AcDbEntity
  8
LAY-1
  6
CONTINUOUS
 62
     2
100
AcDbLine
 10
942.742987
 20
1361.178734
 30
0.0
 11
941.0
 21
1359.0
 31
0.0
  0
LINE
  5
D7
100
AcDbEntity
  8
LAY-1
  6
CONTINUOUS
 62
     2
100
AcDbLine
 10
941.0
 20
1359.0
 30
0.0
 11
939.0
 21
1344.0
 31
0.0
  0
LINE
  5
D8
100
AcDbEntity
  8
LAY-1
  6
CONTINUOUS
 62
     2
100
AcDbLine
 10
955.257013
 20
1361.178734
 30
0.0
 11
957.0
 21
1359.0
 31
0.0
  0
LINE
  5
D9
100
AcDbEntity
  8
LAY-1
  6
CONTINUOUS
 62
     2
100
AcDbLine
 10
957.0
 20
1359.0
 30
0.0
 11
959.0
 21
1344.0
 31
0.0
  0
LINE
  5
DA
100
AcDbEntity
  8
LAY-1
  6
CONTINUOUS
 62
     2
100
AcDbLine
 10
941.0
 20
1359.0
 30
0.0
 11
957.0
 21
1359.0
 31
0.0
  0
ARC
  5
DB
100
AcDbEntity
  8
LAY-1
  6
CONTINUOUS
 62
     2
100
AcDbCircle
 10
949.0
 20
1372.0
 30
0.0
 40
20.5
100
AcDbArc
 50
295.233094
 51
244.766906
  0
ARC
  5
DC
100
AcDbEntity
  8
LAY-1
  6
CONTINUOUS
 62
     2
100
AcDbCircle
 10
949.0
 20
1372.0
 30
0.0
 40
12.5
100
AcDbArc
 50
300.037123
 51
239.962877
  0
LINE
  5
DD
100
AcDbEntity
  8
LAY-1
  6
CONTINUOUS
 62
     2
100
AcDbLine
 10
955.257013
 20
1361.178734
 30
0.0
 11
942.742987
 21
1361.178734
 31
0.0
  0
LINE
  5
DE
100
AcDbEntity
  8
LAY-1
  6
CONTINUOUS
 62
     2
100
AcDbLine
 10
559.0
 20
1345.6
 30
0.0
 11
559.0
 21
1344.0
 31
0.0
  0
LINE
  5
DF
100
AcDbEntity
  8
LAY-1
  6
CONTINUOUS
 62
     2
100
AcDbLine
 10
699.0
 20
1345.6
 30
0.0
 11
699.0
 21
1344.0
 31
0.0
  0
LINE
  5
E0
100
AcDbEntity
  8
LAY-1
  6
CONTINUOUS
 62
     2
100
AcDbLine
 10
559.0
 20
1345.6
 30
0.0
 11
699.0
 21
1345.6
 31
0.0
  0
LINE
  5
E1
100
AcDbEntity
  8
LAY-1
  6
CONTINUOUS
 62
     2
100
AcDbLine
 10
615.634971
 20
1360.6
 30
0.0
 11
615.634971
 21
1347.2
 31
0.0
  0
LINE
  5
E2
100
AcDbEntity
  8
LAY-1
  6
CONTINUOUS
 62
     2
100
AcDbLine
 10
604.0
 20
1347.2
 30
0.0
 11
604.0
 21
1345.6
 31
0.0
  0
LINE
  5
E3
100
AcDbEntity
  8
LAY-1
  6
CONTINUOUS
 62
     2
100
AcDbLine
 10
644.0
 20
1360.6
 30
0.0
 11
644.0
 21
1347.2
 31
0.0
  0
LINE
  5
E4
100
AcDbEntity
  8
LAY-1
  6
CONTINUOUS
 62
     2
100
AcDbLine
 10
654.0
 20
1347.2
 30
0.0
 11
654.0
 21
1345.6
 31
0.0
  0
LINE
  5
E5
100
AcDbEntity
  8
LAY-1
  6
CONTINUOUS
 62
     2
100
AcDbLine
 10
604.0
 20
1347.2
 30
0.0
 11
615.634971
 21
1347.2
 31
0.0
  0
LINE
  5
E6
100
AcDbEntity
  8
LAY-1
  6
CONTINUOUS
 62
     2
100
AcDbLine
 10
615.634971
 20
1360.6
 30
0.0
 11
644.0
 21
1360.6
 31
0.0
  0
LINE
  5
E7
100
AcDbEntity
  8
LAY-1
  6
CONTINUOUS
 62
     2
100
AcDbLine
 10
617.234971
 20
1359.0
 30
0.0
 11
642.4
 21
1359.0
 31
0.0
  0
LINE
  5
E8
100
AcDbEntity
  8
LAY-1
  6
CONTINUOUS
 62
     2
100
AcDbLine
 10
617.234971
 20
1359.0
 30
0.0
 11
617.234971
 21
1345.6
 31
0.0
  0
LINE
  5
E9
100
AcDbEntity
  8
LAY-1
  6
CONTINUOUS
 62
     2
100
AcDbLine
 10
642.4
 20
1359.0
 30
0.0
 11
642.4
 21
1345.6
 31
0.0
  0
LINE
  5
EA
100
AcDbEntity
  8
LAY-1
  6
CONTINUOUS
 62
     2
100
AcDbLine
 10
644.0
 20
1347.2
 30
0.0
 11
654.0
 21
1347.2
 31
0.0
  0
LINE
  5
EB
100
AcDbEntity
  8
LAY-1
  6
CONTINUOUS
 62
     2
100
AcDbLine
 10
984.0
 20
1097.0
 30
0.0
 11
984.0
 21
1151.0
 31
0.0
  0
LINE
  5
EC
100
AcDbEntity
  8
LAY-1
  6
CONTINUOUS
 62
     2
100
AcDbLine
 10
994.0
 20
1098.054089
 30
0.0
 11
994.0
 21
1149.945911
 31
0.0
  0
LINE
  5
ED
100
AcDbEntity
  8
LAY-1
  6
CONTINUOUS
 62
     2
100
AcDbLine
 10
974.0
 20
1111.0
 30
0.0
 11
974.0
 21
1137.0
 31
0.0
  0
ARC
  5
EE
100
AcDbEntity
  8
LAY-1
  6
CONTINUOUS
 62
     2
100
AcDbCircle
 10
973.1875
 20
1115.25
 30
0.0
 40
7.8125
100
AcDbArc
 50
339.390307
 51
20.609693
  0
LINE
  5
EF
100
AcDbEntity
  8
LAY-1
  6
CONTINUOUS
 62
     2
100
AcDbLine
 10
975.0
 20
1112.5
 30
0.0
 11
975.0
 21
1135.5
 31
0.0
  0
ARC
  5
F0
100
AcDbEntity
  8
LAY-1
  6
CONTINUOUS
 62
     2
100
AcDbCircle
 10
984.5
 20
1097.0
 30
0.0
 40
0.5
100
AcDbArc
 50
180.0
 51
270.0
  0
ARC
  5
F1
100
AcDbEntity
  8
LAY-1
  6
CONTINUOUS
 62
     2
100
AcDbCircle
 10
992.445911
 20
1098.054089
 30
0.0
 40
1.554089
100
AcDbArc
 50
270.0
 51
0.0
  0
ARC
  5
F2
100
AcDbEntity
  8
LAY-1
  6
CONTINUOUS
 62
     2
100
AcDbCircle
 10
992.141326
 20
1105.65347
 30
0.0
 40
1.858674
100
AcDbArc
 50
270.0
 51
90.0
  0
LINE
  5
F3
100
AcDbEntity
  8
LAY-1
  6
CONTINUOUS
 62
     2
100
AcDbLine
 10
994.0
 20
1098.054089
 30
0.0
 11
984.0
 21
1098.054089
 31
0.0
  0
LINE
  5
F4
100
AcDbEntity
  8
LAY-1
  6
CONTINUOUS
 62
     2
100
AcDbLine
 10
992.141326
 20
1103.794796
 30
0.0
 11
984.0
 21
1103.794796
 31
0.0
  0
LINE
  5
F5
100
AcDbEntity
  8
LAY-1
  6
CONTINUOUS
 62
     2
100
AcDbLine
 10
992.141326
 20
1107.512145
 30
0.0
 11
984.0
 21
1107.512145
 31
0.0
  0
LINE
  5
F6
100
AcDbEntity
  8
LAY-1
  6
CONTINUOUS
 62
     2
100
AcDbLine
 10
992.445911
 20
1096.5
 30
0.0
 11
984.5
 21
1096.5
 31
0.0
  0
LINE
  5
F7
100
AcDbEntity
  8
LAY-1
  6
CONTINUOUS
 62
     2
100
AcDbLine
 10
974.0
 20
1111.0
 30
0.0
 11
967.0
 21
1111.0
 31
0.0
  0
LINE
  5
F8
100
AcDbEntity
  8
LAY-1
  6
CONTINUOUS
 62
     2
100
AcDbLine
 10
980.5
 20
1112.5
 30
0.0
 11
975.0
 21
1112.5
 31
0.0
  0
ARC
  5
F9
100
AcDbEntity
  8
LAY-1
  6
CONTINUOUS
 62
     2
100
AcDbCircle
 10
984.5
 20
1151.0
 30
0.0
 40
0.5
100
AcDbArc
 50
90.0
 51
180.0
  0
ARC
  5
FA
100
AcDbEntity
  8
LAY-1
  6
CONTINUOUS
 62
     2
100
AcDbCircle
 10
992.141326
 20
1142.34653
 30
0.0
 40
1.858674
100
AcDbArc
 50
270.0
 51
90.0
  0
LINE
  5
FB
100
AcDbEntity
  8
LAY-1
  6
CONTINUOUS
 62
     2
100
AcDbLine
 10
992.141326
 20
1144.205204
 30
0.0
 11
984.0
 21
1144.205204
 31
0.0
  0
LINE
  5
FC
100
AcDbEntity
  8
LAY-1
  6
CONTINUOUS
 62
     2
100
AcDbLine
 10
992.141326
 20
1140.487855
 30
0.0
 11
984.0
 21
1140.487855
 31
0.0
  0
LINE
  5
FD
100
AcDbEntity
  8
LAY-1
  6
CONTINUOUS
 62
     2
100
AcDbLine
 10
994.0
 20
1149.945911
 30
0.0
 11
984.0
 21
1149.945911
 31
0.0
  0
ARC
  5
FE
100
AcDbEntity
  8
LAY-1
  6
CONTINUOUS
 62
     2
100
AcDbCircle
 10
992.445911
 20
1149.945911
 30
0.0
 40
1.554089
100
AcDbArc
 50
0.0
 51
90.0
  0
LINE
  5
FF
100
AcDbEntity
  8
LAY-1
  6
CONTINUOUS
 62
     2
100
AcDbLine
 10
992.445911
 20
1151.5
 30
0.0
 11
984.5
 21
1151.5
 31
0.0
  0
ARC
  5
100
100
AcDbEntity
  8
LAY-1
  6
CONTINUOUS
 62
     2
100
AcDbCircle
 10
991.371438
 20
1124.0
 30
0.0
 40
2.628562
100
AcDbArc
 50
270.0
 51
90.0
  0
LINE
  5
101
100
AcDbEntity
  8
LAY-1
  6
CONTINUOUS
 62
     2
100
AcDbLine
 10
991.371438
 20
1126.628562
 30
0.0
 11
984.0
 21
1126.628562
 31
0.0
  0
LINE
  5
102
100
AcDbEntity
  8
LAY-1
  6
CONTINUOUS
 62
     2
100
AcDbLine
 10
991.371438
 20
1121.371438
 30
0.0
 11
984.0
 21
1121.371438
 31
0.0
  0
LINE
  5
103
100
AcDbEntity
  8
LAY-1
  6
CONTINUOUS
 62
     2
100
AcDbLine
 10
974.0
 20
1137.0
 30
0.0
 11
967.0
 21
1137.0
 31
0.0
  0
LINE
  5
104
100
AcDbEntity
  8
LAY-1
  6
CONTINUOUS
 62
     2
100
AcDbLine
 10
975.0
 20
1132.5
 30
0.0
 11
974.0
 21
1132.5
 31
0.0
  0
LINE
  5
105
100
AcDbEntity
  8
LAY-1
  6
CONTINUOUS
 62
     2
100
AcDbLine
 10
975.0
 20
1115.5
 30
0.0
 11
974.0
 21
1115.5
 31
0.0
  0
LINE
  5
106
100
AcDbEntity
  8
LAY-1
  6
CONTINUOUS
 62
     2
100
AcDbLine
 10
984.0
 20
1121.0
 30
0.0
 11
981.0
 21
1121.0
 31
0.0
  0
LINE
  5
107
100
AcDbEntity
  8
LAY-1
  6
CONTINUOUS
 62
     2
100
AcDbLine
 10
984.0
 20
1127.0
 30
0.0
 11
981.0
 21
1127.0
 31
0.0
  0
LINE
  5
108
100
AcDbEntity
  8
LAY-1
  6
CONTINUOUS
 62
     2
100
AcDbLine
 10
981.0
 20
1115.25
 30
0.0
 11
981.0
 21
1132.75
 31
0.0
  0
LINE
  5
109
100
AcDbEntity
  8
LAY-1
  6
CONTINUOUS
 62
     2
100
AcDbLine
 10
980.5
 20
1135.5
 30
0.0
 11
975.0
 21
1135.5
 31
0.0
  0
LINE
  5
10A
100
AcDbEntity
  8
LAY-1
  6
CONTINUOUS
 62
     2
100
AcDbLine
 10
980.5
 20
1130.0
 30
0.0
 11
975.0
 21
1130.0
 31
0.0
  0
LINE
  5
10B
100
AcDbEntity
  8
LAY-1
  6
CONTINUOUS
 62
     2
100
AcDbLine
 10
980.5
 20
1118.0
 30
0.0
 11
975.0
 21
1118.0
 31
0.0
  0
ARC
  5
10C
100
AcDbEntity
  8
LAY-1
  6
CONTINUOUS
 62
     2
100
AcDbCircle
 10
973.1875
 20
1132.75
 30
0.0
 40
7.8125
100
AcDbArc
 50
339.390307
 51
20.609693
  0
ARC
  5
10D
100
AcDbEntity
  8
LAY-1
  6
CONTINUOUS
 62
     2
100
AcDbCircle
 10
944.75
 20
1124.0
 30
0.0
 40
36.25
100
AcDbArc
 50
350.472717
 51
9.527283
  0
ARC
  5
10E
100
AcDbEntity
  8
LAY-1
  6
CONTINUOUS
 62
     2
100
AcDbCircle
 10
996.0095
 20
1101.392286
 30
0.0
 40
3.896364
100
AcDbArc
 50
132.232219
 51
238.953252
  0
ARC
  5
10F
100
AcDbEntity
  8
LAY-1
  6
CONTINUOUS
 62
     2
100
AcDbCircle
 10
1006.434565
 20
1114.716326
 30
0.0
 40
15.065629
100
AcDbArc
 50
148.353731
 51
212.377391
  0
ARC
  5
110
100
AcDbEntity
  8
LAY-1
  6
CONTINUOUS
 62
     2
100
AcDbCircle
 10
1006.434565
 20
1133.283674
 30
0.0
 40
15.065629
100
AcDbArc
 50
147.622609
 51
211.646269
  0
ARC
  5
111
100
AcDbEntity
  8
LAY-1
  6
CONTINUOUS
 62
     2
100
AcDbCircle
 10
996.0095
 20
1146.607714
 30
0.0
 40
3.896364
100
AcDbArc
 50
121.046748
 51
227.767781
  0
LINE
  5
112
100
AcDbEntity
  8
LAY-1
  6
CONTINUOUS
 62
     2
100
AcDbLine
 10
873.85
 20
1621.521447
 30
0.0
 11
873.85
 21
1586.521447
 31
0.0
  0
LINE
  5
113
100
AcDbEntity
  8
LAY-1
  6
CONTINUOUS
 62
     2
100
AcDbLine
 10
842.15
 20
1621.521447
 30
0.0
 11
842.15
 21
1586.521447
 31
0.0
  0
LINE
  5
114
100
AcDbEntity
  8
LAY-1
  6
CONTINUOUS
 62
     2
100
AcDbLine
 10
873.85
 20
1621.521447
 30
0.0
 11
842.15
 21
1621.521447
 31
0.0
  0
LINE
  5
115
100
AcDbEntity
  8
LAY-1
  6
CONTINUOUS
 62
     2
100
AcDbLine
 10
873.85
 20
1586.521447
 30
0.0
 11
842.15
 21
1586.521447
 31
0.0
  0
CIRCLE
  5
116
100
AcDbEntity
  8
LAY-1
  6
CONTINUOUS
 62
     2
100
AcDbCircle
 10
629.0
 20
1229.0
 30
0.0
 40
47.5
  0
LINE
  5
117
100
AcDbEntity
  8
LAY-1
  6
CONTINUOUS
 62
     1
100
AcDbLine
 10
866.65
 20
1251.22
 30
0.0
 11
865.15
 21
1249.22
 31
0.0
  0
LINE
  5
118
100
AcDbEntity
  8
LAY-1
  6
CONTINUOUS
 62
     1
100
AcDbLine
 10
849.35
 20
1251.22
 30
0.0
 11
850.85
 21
1249.22
 31
0.0
  0
LINE
  5
119
100
AcDbEntity
  8
LAY-1
  6
CONTINUOUS
 62
     2
100
AcDbLine
 10
868.85
 20
1586.521447
 30
0.0
 11
868.85
 21
1321.22
 31
0.0
  0
LINE
  5
11A
100
AcDbEntity
  8
LAY-1
  6
CONTINUOUS
 62
     2
100
AcDbLine
 10
847.15
 20
1586.521447
 30
0.0
 11
847.15
 21
1321.22
 31
0.0
  0
LINE
  5
11B
100
AcDbEntity
  8
LAY-1
  6
CONTINUOUS
 62
     2
100
AcDbLine
 10
519.0
 20
1344.0
 30
0.0
 11
847.15
 21
1344.0
 31
0.0
  0
LINE
  5
11C
100
AcDbEntity
  8
LAY-1
  6
CONTINUOUS
 62
     2
100
AcDbLine
 10
868.85
 20
1344.0
 30
0.0
 11
967.0
 21
1344.0
 31
0.0
  0
CIRCLE
  5
11D
100
AcDbEntity
  8
LAY-1
  6
CONTINUOUS
 62
     2
100
AcDbCircle
 10
858.0
 20
1164.0
 30
0.0
 40
50.0
  0
LINE
  5
11E
100
AcDbEntity
  8
LAY-1
  6
CONTINUOUS
 62
     2
100
AcDbLine
 10
3770.0
 20
712.0
 30
0.0
 11
3300.0
 21
712.0
 31
0.0
  0
LINE
  5
11F
100
AcDbEntity
  8
LAY-1
  6
CONTINUOUS
 62
     2
100
AcDbLine
 10
3774.0
 20
1044.0
 30
0.0
 11
3296.0
 21
1044.0
 31
0.0
  0
LINE
  5
120
100
AcDbEntity
  8
LAY-1
  6
CONTINUOUS
 62
     2
100
AcDbLine
 10
3774.0
 20
1344.0
 30
0.0
 11
3296.0
 21
1344.0
 31
0.0
  0
LINE
  5
121
100
AcDbEntity
  8
LAY-1
  6
CONTINUOUS
 62
     2
100
AcDbLine
 10
3770.0
 20
1044.0
 30
0.0
 11
3770.0
 21
712.0
 31
0.0
  0
LINE
  5
122
100
AcDbEntity
  8
LAY-1
  6
CONTINUOUS
 62
     2
100
AcDbLine
 10
3300.0
 20
1044.0
 30
0.0
 11
3300.0
 21
712.0
 31
0.0
  0
LINE
  5
123
100
AcDbEntity
  8
LAY-1
  6
CONTINUOUS
 62
     2
100
AcDbLine
 10
3725.0
 20
712.0
 30
0.0
 11
3725.0
 21
658.5
 31
0.0
  0
LINE
  5
124
100
AcDbEntity
  8
LAY-1
  6
CONTINUOUS
 62
     2
100
AcDbLine
 10
3345.0
 20
712.0
 30
0.0
 11
3345.0
 21
658.5
 31
0.0
  0
LINE
  5
125
100
AcDbEntity
  8
LAY-1
  6
CONTINUOUS
 62
     2
100
AcDbLine
 10
3780.0
 20
658.5
 30
0.0
 11
3290.0
 21
658.5
 31
0.0
  0
LINE
  5
126
100
AcDbEntity
  8
LAY-1
  6
CONTINUOUS
 62
     2
100
AcDbLine
 10
3780.0
 20
658.5
 30
0.0
 11
3780.0
 21
654.0
 31
0.0
  0
LINE
  5
127
100
AcDbEntity
  8
LAY-1
  6
CONTINUOUS
 62
     2
100
AcDbLine
 10
3290.0
 20
658.5
 30
0.0
 11
3290.0
 21
654.0
 31
0.0
  0
LINE
  5
128
100
AcDbEntity
  8
LAY-1
  6
CONTINUOUS
 62
     2
100
AcDbLine
 10
3780.0
 20
654.0
 30
0.0
 11
3290.0
 21
654.0
 31
0.0
  0
LINE
  5
129
100
AcDbEntity
  8
LAY-1
  6
CONTINUOUS
 62
     2
100
AcDbLine
 10
3296.0
 20
1344.0
 30
0.0
 11
3296.0
 21
1044.0
 31
0.0
  0
LINE
  5
12A
100
AcDbEntity
  8
LAY-1
  6
CONTINUOUS
 62
     2
100
AcDbLine
 10
1506.0
 20
1044.0
 30
0.0
 11
1506.0
 21
712.0
 31
0.0
  0
LINE
  5
12B
100
AcDbEntity
  8
LAY-1
  6
CONTINUOUS
 62
     2
100
AcDbLine
 10
2425.742987
 20
1361.178734
 30
0.0
 11
2438.257013
 21
1361.178734
 31
0.0
  0
ARC
  5
12C
100
AcDbEntity
  8
LAY-1
  6
CONTINUOUS
 62
     2
100
AcDbCircle
 10
2432.0
 20
1372.0
 30
0.0
 40
12.5
100
AcDbArc
 50
300.037123
 51
239.962877
  0
ARC
  5
12D
100
AcDbEntity
  8
LAY-1
  6
CONTINUOUS
 62
     2
100
AcDbCircle
 10
2432.0
 20
1372.0
 30
0.0
 40
20.5
100
AcDbArc
 50
295.233094
 51
244.766906
  0
LINE
  5
12E
100
AcDbEntity
  8
LAY-1
  6
CONTINUOUS
 62
     2
100
AcDbLine
 10
2440.0
 20
1359.0
 30
0.0
 11
2424.0
 21
1359.0
 31
0.0
  0
LINE
  5
12F
100
AcDbEntity
  8
LAY-1
  6
CONTINUOUS
 62
     2
100
AcDbLine
 10
2424.0
 20
1359.0
 30
0.0
 11
2422.0
 21
1344.0
 31
0.0
  0
LINE
  5
130
100
AcDbEntity
  8
LAY-1
  6
CONTINUOUS
 62
     2
100
AcDbLine
 10
2425.742987
 20
1361.178734
 30
0.0
 11
2424.0
 21
1359.0
 31
0.0
  0
LINE
  5
131
100
AcDbEntity
  8
LAY-1
  6
CONTINUOUS
 62
     2
100
AcDbLine
 10
2440.0
 20
1359.0
 30
0.0
 11
2442.0
 21
1344.0
 31
0.0
  0
LINE
  5
132
100
AcDbEntity
  8
LAY-1
  6
CONTINUOUS
 62
     2
100
AcDbLine
 10
2438.257013
 20
1361.178734
 30
0.0
 11
2440.0
 21
1359.0
 31
0.0
  0
LINE
  5
133
100
AcDbEntity
  8
LAY-1
  6
CONTINUOUS
 62
     2
100
AcDbLine
 10
2850.257013
 20
1361.178734
 30
0.0
 11
2837.742987
 21
1361.178734
 31
0.0
  0
ARC
  5
134
100
AcDbEntity
  8
LAY-1
  6
CONTINUOUS
 62
     2
100
AcDbCircle
 10
2844.0
 20
1372.0
 30
0.0
 40
12.5
100
AcDbArc
 50
300.037123
 51
239.962877
  0
ARC
  5
135
100
AcDbEntity
  8
LAY-1
  6
CONTINUOUS
 62
     2
100
AcDbCircle
 10
2844.0
 20
1372.0
 30
0.0
 40
20.5
100
AcDbArc
 50
295.233094
 51
244.766906
  0
LINE
  5
136
100
AcDbEntity
  8
LAY-1
  6
CONTINUOUS
 62
     2
100
AcDbLine
 10
2836.0
 20
1359.0
 30
0.0
 11
2852.0
 21
1359.0
 31
0.0
  0
LINE
  5
137
100
AcDbEntity
  8
LAY-1
  6
CONTINUOUS
 62
     2
100
AcDbLine
 10
2852.0
 20
1359.0
 30
0.0
 11
2854.0
 21
1344.0
 31
0.0
  0
LINE
  5
138
100
AcDbEntity
  8
LAY-1
  6
CONTINUOUS
 62
     2
100
AcDbLine
 10
2850.257013
 20
1361.178734
 30
0.0
 11
2852.0
 21
1359.0
 31
0.0
  0
LINE
  5
139
100
AcDbEntity
  8
LAY-1
  6
CONTINUOUS
 62
     2
100
AcDbLine
 10
2836.0
 20
1359.0
 30
0.0
 11
2834.0
 21
1344.0
 31
0.0
  0
LINE
  5
13A
100
AcDbEntity
  8
LAY-1
  6
CONTINUOUS
 62
     2
100
AcDbLine
 10
2837.742987
 20
1361.178734
 30
0.0
 11
2836.0
 21
1359.0
 31
0.0
  0
LINE
  5
13B
100
AcDbEntity
  8
LAY-1
  6
CONTINUOUS
 62
     2
100
AcDbLine
 10
2433.0
 20
712.0
 30
0.0
 11
2433.0
 21
658.5
 31
0.0
  0
LINE
  5
13C
100
AcDbEntity
  8
LAY-1
  6
CONTINUOUS
 62
     2
100
AcDbLine
 10
2843.0
 20
712.0
 30
0.0
 11
2843.0
 21
658.5
 31
0.0
  0
LINE
  5
13D
100
AcDbEntity
  8
LAY-1
  6
CONTINUOUS
 62
     2
100
AcDbLine
 10
2918.0
 20
658.5
 30
0.0
 11
2358.0
 21
658.5
 31
0.0
  0
LINE
  5
13E
100
AcDbEntity
  8
LAY-1
  6
CONTINUOUS
 62
     2
100
AcDbLine
 10
2358.0
 20
658.5
 30
0.0
 11
2358.0
 21
654.0
 31
0.0
  0
LINE
  5
13F
100
AcDbEntity
  8
LAY-1
  6
CONTINUOUS
 62
     2
100
AcDbLine
 10
2918.0
 20
658.5
 30
0.0
 11
2918.0
 21
654.0
 31
0.0
  0
LINE
  5
140
100
AcDbEntity
  8
LAY-1
  6
CONTINUOUS
 62
     2
100
AcDbLine
 10
2918.0
 20
654.0
 30
0.0
 11
2358.0
 21
654.0
 31
0.0
  0
LINE
  5
141
100
AcDbEntity
  8
LAY-1
  6
CONTINUOUS
 62
     2
100
AcDbLine
 10
2418.0
 20
1044.0
 30
0.0
 11
2418.0
 21
712.0
 31
0.0
  0
LINE
  5
142
100
AcDbEntity
  8
LAY-1
  6
CONTINUOUS
 62
     2
100
AcDbLine
 10
2858.0
 20
1044.0
 30
0.0
 11
2858.0
 21
712.0
 31
0.0
  0
LINE
  5
143
100
AcDbEntity
  8
LAY-1
  6
CONTINUOUS
 62
     2
100
AcDbLine
 10
2858.0
 20
712.0
 30
0.0
 11
2418.0
 21
712.0
 31
0.0
  0
LINE
  5
144
100
AcDbEntity
  8
LAY-1
  6
CONTINUOUS
 62
     2
100
AcDbLine
 10
2862.0
 20
1044.0
 30
0.0
 11
2414.0
 21
1044.0
 31
0.0
  0
LINE
  5
145
100
AcDbEntity
  8
LAY-1
  6
CONTINUOUS
 62
     2
100
AcDbLine
 10
2414.0
 20
1344.0
 30
0.0
 11
2414.0
 21
1044.0
 31
0.0
  0
LINE
  5
146
100
AcDbEntity
  8
LAY-1
  6
CONTINUOUS
 62
     2
100
AcDbLine
 10
2862.0
 20
1344.0
 30
0.0
 11
2862.0
 21
1044.0
 31
0.0
  0
LINE
  5
147
100
AcDbEntity
  8
LAY-1
  6
CONTINUOUS
 62
     2
100
AcDbLine
 10
2862.0
 20
1344.0
 30
0.0
 11
2414.0
 21
1344.0
 31
0.0
  0
LINE
  5
148
100
AcDbEntity
  8
LAY-1
  6
CONTINUOUS
 62
     2
100
AcDbLine
 10
1976.0
 20
1044.0
 30
0.0
 11
1976.0
 21
712.0
 31
0.0
  0
LINE
  5
149
100
AcDbEntity
  8
LAY-1
  6
CONTINUOUS
 62
     2
100
AcDbLine
 10
1551.0
 20
712.0
 30
0.0
 11
1551.0
 21
658.5
 31
0.0
  0
LINE
  5
14A
100
AcDbEntity
  8
LAY-1
  6
CONTINUOUS
 62
     2
100
AcDbLine
 10
1931.0
 20
712.0
 30
0.0
 11
1931.0
 21
658.5
 31
0.0
  0
LINE
  5
14B
100
AcDbEntity
  8
LAY-1
  6
CONTINUOUS
 62
     2
100
AcDbLine
 10
1496.0
 20
658.5
 30
0.0
 11
1986.0
 21
658.5
 31
0.0
  0
LINE
  5
14C
100
AcDbEntity
  8
LAY-1
  6
CONTINUOUS
 62
     2
100
AcDbLine
 10
1496.0
 20
658.5
 30
0.0
 11
1496.0
 21
654.0
 31
0.0
  0
LINE
  5
14D
100
AcDbEntity
  8
LAY-1
  6
CONTINUOUS
 62
     2
100
AcDbLine
 10
1986.0
 20
658.5
 30
0.0
 11
1986.0
 21
654.0
 31
0.0
  0
LINE
  5
14E
100
AcDbEntity
  8
LAY-1
  6
CONTINUOUS
 62
     2
100
AcDbLine
 10
1496.0
 20
654.0
 30
0.0
 11
1986.0
 21
654.0
 31
0.0
  0
LINE
  5
14F
100
AcDbEntity
  8
LAY-1
  6
CONTINUOUS
 62
     2
100
AcDbLine
 10
1835.0
 20
1044.0
 30
0.0
 11
1980.0
 21
1044.0
 31
0.0
  0
LINE
  5
150
100
AcDbEntity
  8
LAY-1
  6
CONTINUOUS
 62
     2
100
AcDbLine
 10
1795.0
 20
1105.319549
 30
0.0
 11
1795.0
 21
1044.0
 31
0.0
  0
LINE
  5
151
100
AcDbEntity
  8
LAY-1
  6
CONTINUOUS
 62
     2
100
AcDbLine
 10
1835.0
 20
1105.319549
 30
0.0
 11
1835.0
 21
1044.0
 31
0.0
  0
LINE
  5
152
100
AcDbEntity
  8
LAY-1
  6
CONTINUOUS
 62
     2
100
AcDbLine
 10
1502.0
 20
1044.0
 30
0.0
 11
1795.0
 21
1044.0
 31
0.0
  0
LINE
  5
153
100
AcDbEntity
  8
LAY-1
  6
CONTINUOUS
 62
     2
100
AcDbLine
 10
1502.0
 20
1344.0
 30
0.0
 11
1502.0
 21
1044.0
 31
0.0
  0
LINE
  5
154
100
AcDbEntity
  8
LAY-1
  6
CONTINUOUS
 62
     2
100
AcDbLine
 10
1980.0
 20
1344.0
 30
0.0
 11
1980.0
 21
1044.0
 31
0.0
  0
LINE
  5
155
100
AcDbEntity
  8
LAY-1
  6
CONTINUOUS
 62
     2
100
AcDbLine
 10
1502.0
 20
1344.0
 30
0.0
 11
1980.0
 21
1344.0
 31
0.0
  0
LINE
  5
156
100
AcDbEntity
  8
LAY-1
  6
CONTINUOUS
 62
     2
100
AcDbLine
 10
3803.0
 20
1297.22
 30
0.0
 11
3803.0
 21
1320.22
 31
0.0
  0
ARC
  5
157
100
AcDbEntity
  8
LAY-1
  6
CONTINUOUS
 62
     2
100
AcDbCircle
 10
3807.25
 20
1311.68875
 30
0.0
 40
9.53125
100
AcDbArc
 50
63.51896
 51
116.48104
  0
ARC
  5
158
100
AcDbEntity
  8
LAY-1
  6
CONTINUOUS
 62
     2
100
AcDbCircle
 10
3820.0
 20
1284.595
 30
0.0
 40
36.625
100
AcDbArc
 50
76.580326
 51
103.419674
  0
ARC
  5
159
100
AcDbEntity
  8
LAY-1
  6
CONTINUOUS
 62
     2
100
AcDbCircle
 10
3832.75
 20
1311.68875
 30
0.0
 40
9.53125
100
AcDbArc
 50
63.51896
 51
116.48104
  0
LINE
  5
15A
100
AcDbEntity
  8
LAY-1
  6
CONTINUOUS
 62
     2
100
AcDbLine
 10
3837.0
 20
1320.22
 30
0.0
 11
3837.0
 21
1297.22
 31
0.0
  0
LINE
  5
15B
100
AcDbEntity
  8
LAY-1
  6
CONTINUOUS
 62
     2
100
AcDbLine
 10
3828.5
 20
1320.22
 30
0.0
 11
3828.5
 21
1297.22
 31
0.0
  0
LINE
  5
15C
100
AcDbEntity
  8
LAY-1
  6
CONTINUOUS
 62
     2
100
AcDbLine
 10
3811.5
 20
1320.22
 30
0.0
 11
3811.5
 21
1297.22
 31
0.0
  0
LINE
  5
15D
100
AcDbEntity
  8
LAY-1
  6
CONTINUOUS
 62
     2
100
AcDbLine
 10
3832.75
 20
1321.22
 30
0.0
 11
3807.25
 21
1321.22
 31
0.0
  0
LINE
  5
15E
100
AcDbEntity
  8
LAY-1
  6
CONTINUOUS
 62
     2
100
AcDbLine
 10
3804.15
 20
1621.22
 30
0.0
 11
3804.15
 21
1586.22
 31
0.0
  0
LINE
  5
15F
100
AcDbEntity
  8
LAY-1
  6
CONTINUOUS
 62
     2
100
AcDbLine
 10
3835.85
 20
1621.22
 30
0.0
 11
3835.85
 21
1586.22
 31
0.0
  0
LINE
  5
160
100
AcDbEntity
  8
LAY-1
  6
CONTINUOUS
 62
     2
100
AcDbLine
 10
3835.85
 20
1586.22
 30
0.0
 11
3804.15
 21
1586.22
 31
0.0
  0
LINE
  5
161
100
AcDbEntity
  8
LAY-1
  6
CONTINUOUS
 62
     2
100
AcDbLine
 10
3835.85
 20
1621.22
 30
0.0
 11
3804.15
 21
1621.22
 31
0.0
  0
LINE
  5
162
100
AcDbEntity
  8
LAY-1
  6
CONTINUOUS
 62
     2
100
AcDbLine
 10
3830.85
 20
1586.22
 30
0.0
 11
3830.85
 21
1321.22
 31
0.0
  0
LINE
  5
163
100
AcDbEntity
  8
LAY-1
  6
CONTINUOUS
 62
     2
100
AcDbLine
 10
3809.15
 20
1586.22
 30
0.0
 11
3809.15
 21
1321.22
 31
0.0
  0
LINE
  5
164
100
AcDbEntity
  8
LAY-1
  6
CONTINUOUS
 62
     2
100
AcDbLine
 10
3909.0
 20
1181.5
 30
0.0
 11
3909.0
 21
1114.0
 31
0.0
  0
LINE
  5
165
100
AcDbEntity
  8
LAY-1
  6
CONTINUOUS
 62
     2
100
AcDbLine
 10
3896.0
 20
1214.0
 30
0.0
 11
3894.0
 21
1214.0
 31
0.0
  0
LINE
  5
166
100
AcDbEntity
  8
LAY-1
  6
CONTINUOUS
 62
     2
100
AcDbLine
 10
3909.0
 20
1203.5
 30
0.0
 11
3910.0
 21
1203.5
 31
0.0
  0
LINE
  5
167
100
AcDbEntity
  8
LAY-1
  6
CONTINUOUS
 62
     2
100
AcDbLine
 10
3910.0
 20
1204.0
 30
0.0
 11
3910.0
 21
1206.0
 31
0.0
  0
LINE
  5
168
100
AcDbEntity
  8
LAY-1
  6
CONTINUOUS
 62
     2
100
AcDbLine
 10
3909.0
 20
1254.5
 30
0.0
 11
3910.0
 21
1254.5
 31
0.0
  0
LINE
  5
169
100
AcDbEntity
  8
LAY-1
  6
CONTINUOUS
 62
     2
100
AcDbLine
 10
3910.0
 20
1254.5
 30
0.0
 11
3910.0
 21
1203.5
 31
0.0
  0
LINE
  5
16A
100
AcDbEntity
  8
LAY-1
  6
CONTINUOUS
 62
     2
100
AcDbLine
 10
3910.0
 20
1204.0
 30
0.0
 11
3910.0
 21
1206.0
 31
0.0
  0
LINE
  5
16B
100
AcDbEntity
  8
LAY-1
  6
CONTINUOUS
 62
     2
100
AcDbLine
 10
3896.0
 20
1181.5
 30
0.0
 11
3909.0
 21
1181.5
 31
0.0
  0
LINE
  5
16C
100
AcDbEntity
  8
LAY-1
  6
CONTINUOUS
 62
     2
100
AcDbLine
 10
3896.0
 20
1276.5
 30
0.0
 11
3896.0
 21
1181.5
 31
0.0
  0
LINE
  5
16D
100
AcDbEntity
  8
LAY-1
  6
CONTINUOUS
 62
     2
100
AcDbLine
 10
3896.0
 20
1276.5
 30
0.0
 11
3909.0
 21
1276.5
 31
0.0
  0
LINE
  5
16E
100
AcDbEntity
  8
LAY-1
  6
CONTINUOUS
 62
     2
100
AcDbLine
 10
3909.0
 20
1276.5
 30
0.0
 11
3909.0
 21
1181.5
 31
0.0
  0
LINE
  5
16F
100
AcDbEntity
  8
LAY-1
  6
CONTINUOUS
 62
     2
100
AcDbLine
 10
3894.0
 20
1214.0
 30
0.0
 11
3894.0
 21
1114.0
 31
0.0
  0
LINE
  5
170
100
AcDbEntity
  8
LAY-1
  6
CONTINUOUS
 62
     2
100
AcDbLine
 10
3910.0
 20
1192.0
 30
0.0
 11
3910.0
 21
1136.0
 31
0.0
  0
LINE
  5
171
100
AcDbEntity
  8
LAY-1
  6
CONTINUOUS
 62
     2
100
AcDbLine
 10
3909.0
 20
1114.0
 30
0.0
 11
3894.0
 21
1114.0
 31
0.0
  0
LINE
  5
172
100
AcDbEntity
  8
LAY-1
  6
CONTINUOUS
 62
     2
100
AcDbLine
 10
3910.0
 20
1192.0
 30
0.0
 11
3909.0
 21
1192.0
 31
0.0
  0
LINE
  5
173
100
AcDbEntity
  8
LAY-1
  6
CONTINUOUS
 62
     2
100
AcDbLine
 10
3910.0
 20
1136.0
 30
0.0
 11
3909.0
 21
1136.0
 31
0.0
  0
LINE
  5
174
100
AcDbEntity
  8
LAY-1
  6
CONTINUOUS
 62
     2
100
AcDbLine
 10
3896.0
 20
1218.15
 30
0.0
 11
3774.0
 21
1218.15
 31
0.0
  0
LINE
  5
175
100
AcDbEntity
  8
LAY-1
  6
CONTINUOUS
 62
     2
100
AcDbLine
 10
3896.0
 20
1239.85
 30
0.0
 11
3774.0
 21
1239.85
 31
0.0
  0
LINE
  5
176
100
AcDbEntity
  8
LAY-1
  6
CONTINUOUS
 62
     2
100
AcDbLine
 10
3811.35
 20
1251.22
 30
0.0
 11
3811.35
 21
1240.72
 31
0.0
  0
LINE
  5
177
100
AcDbEntity
  8
LAY-1
  6
CONTINUOUS
 62
     2
100
AcDbLine
 10
3828.65
 20
1251.22
 30
0.0
 11
3828.65
 21
1240.72
 31
0.0
  0
LINE
  5
178
100
AcDbEntity
  8
LAY-1
  6
CONTINUOUS
 62
     2
100
AcDbLine
 10
3807.0
 20
1240.72
 30
0.0
 11
3833.0
 21
1240.72
 31
0.0
  0
ARC
  5
179
100
AcDbEntity
  8
LAY-1
  6
CONTINUOUS
 62
     2
100
AcDbCircle
 10
3788.270444
 20
1236.862812
 30
0.0
 40
12.0
100
AcDbArc
 50
14.41434
 51
16.185829
  0
ARC
  5
17A
100
AcDbEntity
  8
LAY-1
  6
CONTINUOUS
 62
     2
100
AcDbCircle
 10
3851.729556
 20
1236.862812
 30
0.0
 40
12.0
100
AcDbArc
 50
163.814171
 51
165.58566
  0
ARC
  5
17B
100
AcDbEntity
  8
LAY-1
  6
CONTINUOUS
 62
     2
100
AcDbCircle
 10
3837.324116
 20
1241.044116
 30
0.0
 40
3.0
100
AcDbArc
 50
343.814171
 51
106.185829
  0
ARC
  5
17C
100
AcDbEntity
  8
LAY-1
  6
CONTINUOUS
 62
     2
100
AcDbCircle
 10
3802.675884
 20
1241.044116
 30
0.0
 40
3.0
100
AcDbArc
 50
73.814171
 51
196.185829
  0
ARC
  5
17D
100
AcDbEntity
  8
LAY-1
  6
CONTINUOUS
 62
     2
100
AcDbCircle
 10
3788.270444
 20
1210.577188
 30
0.0
 40
12.0
100
AcDbArc
 50
343.814171
 51
39.12894
  0
ARC
  5
17E
100
AcDbEntity
  8
LAY-1
  6
CONTINUOUS
 62
     2
100
AcDbCircle
 10
3851.729556
 20
1210.577188
 30
0.0
 40
12.0
100
AcDbArc
 50
140.87106
 51
196.185829
  0
LINE
  5
17F
100
AcDbEntity
  8
LAY-1
  6
CONTINUOUS
 62
     2
100
AcDbLine
 10
3830.26
 20
1190.02
 30
0.0
 11
3809.74
 21
1190.02
 31
0.0
  0
LINE
  5
180
100
AcDbEntity
  8
LAY-1
  6
CONTINUOUS
 62
     2
100
AcDbLine
 10
3829.18
 20
1190.56
 30
0.0
 11
3810.82
 21
1190.56
 31
0.0
  0
LINE
  5
181
100
AcDbEntity
  8
LAY-1
  6
CONTINUOUS
 62
     2
100
AcDbLine
 10
3828.957778
 20
1196.56
 30
0.0
 11
3811.042222
 21
1196.56
 31
0.0
  0
ARC
  5
182
100
AcDbEntity
  8
LAY-1
  6
CONTINUOUS
 62
     2
100
AcDbCircle
 10
3806.857188
 20
1191.990444
 30
0.0
 40
12.0
100
AcDbArc
 50
68.341629
 51
106.185829
  0
ARC
  5
183
100
AcDbEntity
  8
LAY-1
  6
CONTINUOUS
 62
     2
100
AcDbCircle
 10
3833.142812
 20
1191.990444
 30
0.0
 40
12.0
100
AcDbArc
 50
73.814171
 51
111.658371
  0
LINE
  5
184
100
AcDbEntity
  8
LAY-1
  6
CONTINUOUS
 62
     2
100
AcDbLine
 10
3810.82
 20
1190.56
 30
0.0
 11
3811.418519
 21
1206.72
 31
0.0
  0
LINE
  5
185
100
AcDbEntity
  8
LAY-1
  6
CONTINUOUS
 62
     2
100
AcDbLine
 10
3829.18
 20
1190.56
 30
0.0
 11
3828.581481
 21
1206.72
 31
0.0
  0
LINE
  5
186
100
AcDbEntity
  8
LAY-1
  6
CONTINUOUS
 62
     2
100
AcDbLine
 10
3833.0
 20
1206.72
 30
0.0
 11
3807.0
 21
1206.72
 31
0.0
  0
ARC
  5
187
100
AcDbEntity
  8
LAY-1
  6
CONTINUOUS
 62
     2
100
AcDbCircle
 10
3806.857188
 20
1255.449556
 30
0.0
 40
12.0
100
AcDbArc
 50
253.814171
 51
291.987298
  0
ARC
  5
188
100
AcDbEntity
  8
LAY-1
  6
CONTINUOUS
 62
     2
100
AcDbCircle
 10
3833.142812
 20
1255.449556
 30
0.0
 40
12.0
100
AcDbArc
 50
248.012702
 51
286.185829
  0
LINE
  5
189
100
AcDbEntity
  8
LAY-1
  6
CONTINUOUS
 62
     2
100
AcDbLine
 10
3828.65
 20
1249.22
 30
0.0
 11
3811.35
 21
1249.22
 31
0.0
  0
ARC
  5
18A
100
AcDbEntity
  8
LAY-1
  6
CONTINUOUS
 62
     2
100
AcDbCircle
 10
3807.25
 20
1260.75125
 30
0.0
 40
9.53125
100
AcDbArc
 50
243.51896
 51
296.48104
  0
ARC
  5
18B
100
AcDbEntity
  8
LAY-1
  6
CONTINUOUS
 62
     2
100
AcDbCircle
 10
3820.0
 20
1287.845
 30
0.0
 40
36.625
100
AcDbArc
 50
256.580326
 51
283.419674
  0
ARC
  5
18C
100
AcDbEntity
  8
LAY-1
  6
CONTINUOUS
 62
     2
100
AcDbCircle
 10
3832.75
 20
1260.75125
 30
0.0
 40
9.53125
100
AcDbArc
 50
243.51896
 51
296.48104
  0
LINE
  5
18D
100
AcDbEntity
  8
LAY-1
  6
CONTINUOUS
 62
     2
100
AcDbLine
 10
3832.75
 20
1251.22
 30
0.0
 11
3807.25
 21
1251.22
 31
0.0
  0
ARC
  5
18E
100
AcDbEntity
  8
LAY-1
  6
CONTINUOUS
 62
     2
100
AcDbCircle
 10
3802.675884
 20
1206.395884
 30
0.0
 40
3.0
100
AcDbArc
 50
163.814171
 51
286.185829
  0
ARC
  5
18F
100
AcDbEntity
  8
LAY-1
  6
CONTINUOUS
 62
     2
100
AcDbCircle
 10
3837.324116
 20
1206.395884
 30
0.0
 40
3.0
100
AcDbArc
 50
253.814171
 51
16.185829
  0
LINE
  5
190
100
AcDbEntity
  8
LAY-1
  6
CONTINUOUS
 62
     2
100
AcDbLine
 10
3809.74
 20
1181.92
 30
0.0
 11
3805.42
 21
1177.6
 31
0.0
  0
LINE
  5
191
100
AcDbEntity
  8
LAY-1
  6
CONTINUOUS
 62
     2
100
AcDbLine
 10
3830.26
 20
1181.92
 30
0.0
 11
3834.58
 21
1177.6
 31
0.0
  0
LINE
  5
192
100
AcDbEntity
  8
LAY-1
  6
CONTINUOUS
 62
     2
100
AcDbLine
 10
3810.82
 20
1190.56
 30
0.0
 11
3809.74
 21
1190.02
 31
0.0
  0
LINE
  5
193
100
AcDbEntity
  8
LAY-1
  6
CONTINUOUS
 62
     2
100
AcDbLine
 10
3829.18
 20
1190.56
 30
0.0
 11
3830.26
 21
1190.02
 31
0.0
  0
LINE
  5
194
100
AcDbEntity
  8
LAY-1
  6
CONTINUOUS
 62
     2
100
AcDbLine
 10
3830.26
 20
1181.92
 30
0.0
 11
3830.26
 21
1190.02
 31
0.0
  0
LINE
  5
195
100
AcDbEntity
  8
LAY-1
  6
CONTINUOUS
 62
     2
100
AcDbLine
 10
3809.74
 20
1181.92
 30
0.0
 11
3830.26
 21
1181.92
 31
0.0
  0
LINE
  5
196
100
AcDbEntity
  8
LAY-1
  6
CONTINUOUS
 62
     2
100
AcDbLine
 10
3829.031852
 20
1194.56
 30
0.0
 11
3810.968148
 21
1194.56
 31
0.0
  0
LINE
  5
197
100
AcDbEntity
  8
LAY-1
  6
CONTINUOUS
 62
     2
100
AcDbLine
 10
3829.105926
 20
1192.56
 30
0.0
 11
3810.894074
 21
1192.56
 31
0.0
  0
LINE
  5
198
100
AcDbEntity
  8
LAY-1
  6
CONTINUOUS
 62
     2
100
AcDbLine
 10
3837.0
 20
1252.22
 30
0.0
 11
3837.0
 21
1295.22
 31
0.0
  0
ARC
  5
199
100
AcDbEntity
  8
LAY-1
  6
CONTINUOUS
 62
     2
100
AcDbCircle
 10
3807.25
 20
1286.68875
 30
0.0
 40
9.53125
100
AcDbArc
 50
63.51896
 51
116.48104
  0
ARC
  5
19A
100
AcDbEntity
  8
LAY-1
  6
CONTINUOUS
 62
     2
100
AcDbCircle
 10
3820.0
 20
1259.595
 30
0.0
 40
36.625
100
AcDbArc
 50
76.580326
 51
103.419674
  0
ARC
  5
19B
100
AcDbEntity
  8
LAY-1
  6
CONTINUOUS
 62
     2
100
AcDbCircle
 10
3832.75
 20
1286.68875
 30
0.0
 40
9.53125
100
AcDbArc
 50
63.51896
 51
116.48104
  0
LINE
  5
19C
100
AcDbEntity
  8
LAY-1
  6
CONTINUOUS
 62
     2
100
AcDbLine
 10
3803.0
 20
1252.22
 30
0.0
 11
3803.0
 21
1295.22
 31
0.0
  0
LINE
  5
19D
100
AcDbEntity
  8
LAY-1
  6
CONTINUOUS
 62
     2
100
AcDbLine
 10
3828.5
 20
1252.22
 30
0.0
 11
3828.5
 21
1295.22
 31
0.0
  0
LINE
  5
19E
100
AcDbEntity
  8
LAY-1
  6
CONTINUOUS
 62
     2
100
AcDbLine
 10
3811.5
 20
1252.22
 30
0.0
 11
3811.5
 21
1295.22
 31
0.0
  0
ARC
  5
19F
100
AcDbEntity
  8
LAY-1
  6
CONTINUOUS
 62
     2
100
AcDbCircle
 10
3807.25
 20
1305.75125
 30
0.0
 40
9.53125
100
AcDbArc
 50
243.51896
 51
296.48104
  0
ARC
  5
1A0
100
AcDbEntity
  8
LAY-1
  6
CONTINUOUS
 62
     2
100
AcDbCircle
 10
3820.0
 20
1332.845
 30
0.0
 40
36.625
100
AcDbArc
 50
256.580326
 51
283.419674
  0
ARC
  5
1A1
100
AcDbEntity
  8
LAY-1
  6
CONTINUOUS
 62
     2
100
AcDbCircle
 10
3832.75
 20
1305.75125
 30
0.0
 40
9.53125
100
AcDbArc
 50
243.51896
 51
296.48104
  0
LINE
  5
1A2
100
AcDbEntity
  8
LAY-1
  6
CONTINUOUS
 62
     2
100
AcDbLine
 10
3832.75
 20
1296.22
 30
0.0
 11
3807.25
 21
1296.22
 31
0.0
  0
LINE
  5
1A3
100
AcDbEntity
  8
LAY-1
  6
CONTINUOUS
 62
     2
100
AcDbLine
 10
3809.74
 20
1181.92
 30
0.0
 11
3809.74
 21
1190.02
 31
0.0
  0
LINE
  5
1A4
100
AcDbEntity
  8
LAY-1
  6
CONTINUOUS
 62
     2
100
AcDbLine
 10
3894.0
 20
1177.6
 30
0.0
 11
3774.0
 21
1177.6
 31
0.0
  0
LINE
  5
1A5
100
AcDbEntity
  8
LAY-1
  6
CONTINUOUS
 62
     2
100
AcDbLine
 10
3894.0
 20
1150.4
 30
0.0
 11
3774.0
 21
1150.4
 31
0.0
  0
LINE
  5
1A6
100
AcDbEntity
  8
LAY-1
  6
CONTINUOUS
 62
     2
100
AcDbLine
 10
3774.0
 20
1344.0
 30
0.0
 11
3774.0
 21
1044.0
 31
0.0
  0
LINE
  5
1A7
100
AcDbEntity
  8
LAY-1
  6
CONTINUOUS
 62
     2
100
AcDbLine
 10
3807.665294
 20
1239.85
 30
0.0
 11
3807.0
 21
1240.72
 31
0.0
  0
LINE
  5
1A8
100
AcDbEntity
  8
LAY-1
  6
CONTINUOUS
 62
     2
100
AcDbLine
 10
3833.0
 20
1240.72
 30
0.0
 11
3832.334706
 21
1239.85
 31
0.0
  0
LINE
  5
1A9
100
AcDbEntity
  8
LAY-1
  6
CONTINUOUS
 62
     2
100
AcDbLine
 10
3833.0
 20
1206.72
 30
0.0
 11
3824.259412
 21
1218.15
 31
0.0
  0
LINE
  5
1AA
100
AcDbEntity
  8
LAY-1
  6
CONTINUOUS
 62
     2
100
AcDbLine
 10
3815.740588
 20
1218.15
 30
0.0
 11
3807.0
 21
1206.72
 31
0.0
  0
LINE
  5
1AB
100
AcDbEntity
  8
LAY-1
  6
CONTINUOUS
 62
     2
100
AcDbLine
 10
1380.0
 20
1276.5
 30
0.0
 11
1380.0
 21
1214.0
 31
0.0
  0
LINE
  5
1AC
100
AcDbEntity
  8
LAY-1
  6
CONTINUOUS
 62
     2
100
AcDbLine
 10
1367.0
 20
1276.5
 30
0.0
 11
1367.0
 21
1214.0
 31
0.0
  0
LINE
  5
1AD
100
AcDbEntity
  8
LAY-1
  6
CONTINUOUS
 62
     2
100
AcDbLine
 10
1367.0
 20
1203.5
 30
0.0
 11
1366.0
 21
1203.5
 31
0.0
  0
LINE
  5
1AE
100
AcDbEntity
  8
LAY-1
  6
CONTINUOUS
 62
     2
100
AcDbLine
 10
1366.0
 20
1204.0
 30
0.0
 11
1366.0
 21
1206.0
 31
0.0
  0
LINE
  5
1AF
100
AcDbEntity
  8
LAY-1
  6
CONTINUOUS
 62
     2
100
AcDbLine
 10
1367.0
 20
1254.5
 30
0.0
 11
1366.0
 21
1254.5
 31
0.0
  0
LINE
  5
1B0
100
AcDbEntity
  8
LAY-1
  6
CONTINUOUS
 62
     2
100
AcDbLine
 10
1366.0
 20
1254.5
 30
0.0
 11
1366.0
 21
1203.5
 31
0.0
  0
LINE
  5
1B1
100
AcDbEntity
  8
LAY-1
  6
CONTINUOUS
 62
     2
100
AcDbLine
 10
1366.0
 20
1204.0
 30
0.0
 11
1366.0
 21
1206.0
 31
0.0
  0
LINE
  5
1B2
100
AcDbEntity
  8
LAY-1
  6
CONTINUOUS
 62
     2
100
AcDbLine
 10
1380.0
 20
1276.5
 30
0.0
 11
1367.0
 21
1276.5
 31
0.0
  0
LINE
  5
1B3
100
AcDbEntity
  8
LAY-1
  6
CONTINUOUS
 62
     2
100
AcDbLine
 10
1367.0
 20
1214.0
 30
0.0
 11
1367.0
 21
1114.0
 31
0.0
  0
LINE
  5
1B4
100
AcDbEntity
  8
LAY-1
  6
CONTINUOUS
 62
     2
100
AcDbLine
 10
1382.0
 20
1214.0
 30
0.0
 11
1382.0
 21
1114.0
 31
0.0
  0
LINE
  5
1B5
100
AcDbEntity
  8
LAY-1
  6
CONTINUOUS
 62
     2
100
AcDbLine
 10
1366.0
 20
1192.0
 30
0.0
 11
1366.0
 21
1136.0
 31
0.0
  0
LINE
  5
1B6
100
AcDbEntity
  8
LAY-1
  6
CONTINUOUS
 62
     2
100
AcDbLine
 10
1367.0
 20
1214.0
 30
0.0
 11
1382.0
 21
1214.0
 31
0.0
  0
LINE
  5
1B7
100
AcDbEntity
  8
LAY-1
  6
CONTINUOUS
 62
     2
100
AcDbLine
 10
1367.0
 20
1114.0
 30
0.0
 11
1382.0
 21
1114.0
 31
0.0
  0
LINE
  5
1B8
100
AcDbEntity
  8
LAY-1
  6
CONTINUOUS
 62
     2
100
AcDbLine
 10
1366.0
 20
1192.0
 30
0.0
 11
1367.0
 21
1192.0
 31
0.0
  0
LINE
  5
1B9
100
AcDbEntity
  8
LAY-1
  6
CONTINUOUS
 62
     2
100
AcDbLine
 10
1366.0
 20
1136.0
 30
0.0
 11
1367.0
 21
1136.0
 31
0.0
  0
LINE
  5
1BA
100
AcDbEntity
  8
LAY-1
  6
CONTINUOUS
 62
     2
100
AcDbLine
 10
1471.85
 20
1621.22
 30
0.0
 11
1471.85
 21
1586.22
 31
0.0
  0
LINE
  5
1BB
100
AcDbEntity
  8
LAY-1
  6
CONTINUOUS
 62
     2
100
AcDbLine
 10
1440.15
 20
1621.22
 30
0.0
 11
1440.15
 21
1586.22
 31
0.0
  0
LINE
  5
1BC
100
AcDbEntity
  8
LAY-1
  6
CONTINUOUS
 62
     2
100
AcDbLine
 10
1440.15
 20
1586.22
 30
0.0
 11
1471.85
 21
1586.22
 31
0.0
  0
LINE
  5
1BD
100
AcDbEntity
  8
LAY-1
  6
CONTINUOUS
 62
     2
100
AcDbLine
 10
1440.15
 20
1621.22
 30
0.0
 11
1471.85
 21
1621.22
 31
0.0
  0
LINE
  5
1BE
100
AcDbEntity
  8
LAY-1
  6
CONTINUOUS
 62
     2
100
AcDbLine
 10
1445.15
 20
1586.22
 30
0.0
 11
1445.15
 21
1321.22
 31
0.0
  0
LINE
  5
1BF
100
AcDbEntity
  8
LAY-1
  6
CONTINUOUS
 62
     2
100
AcDbLine
 10
1466.85
 20
1586.22
 30
0.0
 11
1466.85
 21
1321.22
 31
0.0
  0
LINE
  5
1C0
100
AcDbEntity
  8
LAY-1
  6
CONTINUOUS
 62
     2
100
AcDbLine
 10
1458.886467
 20
1249.22
 30
0.0
 11
1464.65
 21
1249.22
 31
0.0
  0
ARC
  5
1C1
100
AcDbEntity
  8
LAY-1
  6
CONTINUOUS
 62
     2
100
AcDbCircle
 10
1468.75
 20
1260.75125
 30
0.0
 40
9.53125
100
AcDbArc
 50
243.51896
 51
296.48104
  0
ARC
  5
1C2
100
AcDbEntity
  8
LAY-1
  6
CONTINUOUS
 62
     2
100
AcDbCircle
 10
1456.0
 20
1287.845
 30
0.0
 40
36.625
100
AcDbArc
 50
256.580326
 51
283.419674
  0
ARC
  5
1C3
100
AcDbEntity
  8
LAY-1
  6
CONTINUOUS
 62
     2
100
AcDbCircle
 10
1443.25
 20
1260.75125
 30
0.0
 40
9.53125
100
AcDbArc
 50
243.51896
 51
296.48104
  0
ARC
  5
1C4
100
AcDbEntity
  8
LAY-1
  6
CONTINUOUS
 62
     2
100
AcDbCircle
 10
1468.75
 20
1286.68875
 30
0.0
 40
9.53125
100
AcDbArc
 50
63.51896
 51
116.48104
  0
ARC
  5
1C5
100
AcDbEntity
  8
LAY-1
  6
CONTINUOUS
 62
     2
100
AcDbCircle
 10
1456.0
 20
1259.595
 30
0.0
 40
36.625
100
AcDbArc
 50
76.580326
 51
103.419674
  0
ARC
  5
1C6
100
AcDbEntity
  8
LAY-1
  6
CONTINUOUS
 62
     2
100
AcDbCircle
 10
1443.25
 20
1286.68875
 30
0.0
 40
9.53125
100
AcDbArc
 50
63.51896
 51
116.48104
  0
LINE
  5
1C7
100
AcDbEntity
  8
LAY-1
  6
CONTINUOUS
 62
     2
100
AcDbLine
 10
1473.0
 20
1297.22
 30
0.0
 11
1473.0
 21
1320.22
 31
0.0
  0
LINE
  5
1C8
100
AcDbEntity
  8
LAY-1
  6
CONTINUOUS
 62
     2
100
AcDbLine
 10
1473.0
 20
1252.22
 30
0.0
 11
1473.0
 21
1295.22
 31
0.0
  0
LINE
  5
1C9
100
AcDbEntity
  8
LAY-1
  6
CONTINUOUS
 62
     2
100
AcDbLine
 10
1439.0
 20
1252.22
 30
0.0
 11
1439.0
 21
1295.22
 31
0.0
  0
LINE
  5
1CA
100
AcDbEntity
  8
LAY-1
  6
CONTINUOUS
 62
     2
100
AcDbLine
 10
1447.5
 20
1252.22
 30
0.0
 11
1447.5
 21
1295.22
 31
0.0
  0
LINE
  5
1CB
100
AcDbEntity
  8
LAY-1
  6
CONTINUOUS
 62
     2
100
AcDbLine
 10
1464.5
 20
1252.22
 30
0.0
 11
1464.5
 21
1295.22
 31
0.0
  0
ARC
  5
1CC
100
AcDbEntity
  8
LAY-1
  6
CONTINUOUS
 62
     2
100
AcDbCircle
 10
1468.75
 20
1305.75125
 30
0.0
 40
9.53125
100
AcDbArc
 50
243.51896
 51
296.48104
  0
ARC
  5
1CD
100
AcDbEntity
  8
LAY-1
  6
CONTINUOUS
 62
     2
100
AcDbCircle
 10
1456.0
 20
1332.845
 30
0.0
 40
36.625
100
AcDbArc
 50
256.580326
 51
283.419674
  0
ARC
  5
1CE
100
AcDbEntity
  8
LAY-1
  6
CONTINUOUS
 62
     2
100
AcDbCircle
 10
1443.25
 20
1305.75125
 30
0.0
 40
9.53125
100
AcDbArc
 50
243.51896
 51
296.48104
  0
LINE
  5
1CF
100
AcDbEntity
  8
LAY-1
  6
CONTINUOUS
 62
     2
100
AcDbLine
 10
1443.25
 20
1296.22
 30
0.0
 11
1468.75
 21
1296.22
 31
0.0
  0
ARC
  5
1D0
100
AcDbEntity
  8
LAY-1
  6
CONTINUOUS
 62
     2
100
AcDbCircle
 10
1468.75
 20
1311.68875
 30
0.0
 40
9.53125
100
AcDbArc
 50
63.51896
 51
116.48104
  0
ARC
  5
1D1
100
AcDbEntity
  8
LAY-1
  6
CONTINUOUS
 62
     2
100
AcDbCircle
 10
1456.0
 20
1284.595
 30
0.0
 40
36.625
100
AcDbArc
 50
76.580326
 51
103.419674
  0
ARC
  5
1D2
100
AcDbEntity
  8
LAY-1
  6
CONTINUOUS
 62
     2
100
AcDbCircle
 10
1443.25
 20
1311.68875
 30
0.0
 40
9.53125
100
AcDbArc
 50
63.51896
 51
116.48104
  0
LINE
  5
1D3
100
AcDbEntity
  8
LAY-1
  6
CONTINUOUS
 62
     2
100
AcDbLine
 10
1439.0
 20
1320.22
 30
0.0
 11
1439.0
 21
1297.22
 31
0.0
  0
LINE
  5
1D4
100
AcDbEntity
  8
LAY-1
  6
CONTINUOUS
 62
     2
100
AcDbLine
 10
1447.5
 20
1320.22
 30
0.0
 11
1447.5
 21
1297.22
 31
0.0
  0
LINE
  5
1D5
100
AcDbEntity
  8
LAY-1
  6
CONTINUOUS
 62
     2
100
AcDbLine
 10
1464.5
 20
1320.22
 30
0.0
 11
1464.5
 21
1297.22
 31
0.0
  0
LINE
  5
1D6
100
AcDbEntity
  8
LAY-1
  6
CONTINUOUS
 62
     2
100
AcDbLine
 10
1464.65
 20
1251.22
 30
0.0
 11
1464.65
 21
1244.322354
 31
0.0
  0
LINE
  5
1D7
100
AcDbEntity
  8
LAY-1
  6
CONTINUOUS
 62
     2
100
AcDbLine
 10
1447.35
 20
1251.22
 30
0.0
 11
1447.35
 21
1244.322354
 31
0.0
  0
LINE
  5
1D8
100
AcDbEntity
  8
LAY-1
  6
CONTINUOUS
 62
     2
100
AcDbLine
 10
1447.35
 20
1249.22
 30
0.0
 11
1453.113533
 21
1249.22
 31
0.0
  0
LINE
  5
1D9
100
AcDbEntity
  8
LAY-1
  6
CONTINUOUS
 62
     2
100
AcDbLine
 10
1443.25
 20
1251.22
 30
0.0
 11
1468.75
 21
1251.22
 31
0.0
  0
LINE
  5
1DA
100
AcDbEntity
  8
LAY-1
  6
CONTINUOUS
 62
     2
100
AcDbLine
 10
1443.25
 20
1321.22
 30
0.0
 11
1468.75
 21
1321.22
 31
0.0
  0
LINE
  5
1DB
100
AcDbEntity
  8
LAY-1
  6
CONTINUOUS
 62
     2
100
AcDbLine
 10
1446.82
 20
1190.56
 30
0.0
 11
1465.18
 21
1190.56
 31
0.0
  0
LINE
  5
1DC
100
AcDbEntity
  8
LAY-1
  6
CONTINUOUS
 62
     2
100
AcDbLine
 10
1469.955286
 20
1220.22
 30
0.0
 11
1461.5
 21
1220.22
 31
0.0
  0
LINE
  5
1DD
100
AcDbEntity
  8
LAY-1
  6
CONTINUOUS
 62
     2
100
AcDbLine
 10
1459.5
 20
1218.22
 30
0.0
 11
1459.5
 21
1209.764714
 31
0.0
  0
ARC
  5
1DE
100
AcDbEntity
  8
LAY-1
  6
CONTINUOUS
 62
     2
100
AcDbCircle
 10
1461.5
 20
1209.764714
 30
0.0
 40
2.0
100
AcDbArc
 50
180.0
 51
291.510188
  0
ARC
  5
1DF
100
AcDbEntity
  8
LAY-1
  6
CONTINUOUS
 62
     2
100
AcDbCircle
 10
1461.5
 20
1218.22
 30
0.0
 40
2.0
100
AcDbArc
 50
90.0
 51
180.0
  0
ARC
  5
1E0
100
AcDbEntity
  8
LAY-1
  6
CONTINUOUS
 62
     2
100
AcDbCircle
 10
1469.955286
 20
1218.22
 30
0.0
 40
2.0
100
AcDbArc
 50
338.489812
 51
90.0
  0
LINE
  5
1E1
100
AcDbEntity
  8
LAY-1
  6
CONTINUOUS
 62
     2
100
AcDbLine
 10
1452.5
 20
1209.764714
 30
0.0
 11
1452.5
 21
1218.22
 31
0.0
  0
LINE
  5
1E2
100
AcDbEntity
  8
LAY-1
  6
CONTINUOUS
 62
     2
100
AcDbLine
 10
1450.5
 20
1220.22
 30
0.0
 11
1442.044714
 21
1220.22
 31
0.0
  0
ARC
  5
1E3
100
AcDbEntity
  8
LAY-1
  6
CONTINUOUS
 62
     2
100
AcDbCircle
 10
1442.044714
 20
1218.22
 30
0.0
 40
2.0
100
AcDbArc
 50
90.0
 51
201.510188
  0
ARC
  5
1E4
100
AcDbEntity
  8
LAY-1
  6
CONTINUOUS
 62
     2
100
AcDbCircle
 10
1450.5
 20
1218.22
 30
0.0
 40
2.0
100
AcDbArc
 50
0.0
 51
90.0
  0
ARC
  5
1E5
100
AcDbEntity
  8
LAY-1
  6
CONTINUOUS
 62
     2
100
AcDbCircle
 10
1450.5
 20
1209.764714
 30
0.0
 40
2.0
100
AcDbArc
 50
248.489812
 51
0.0
  0
LINE
  5
1E6
100
AcDbEntity
  8
LAY-1
  6
CONTINUOUS
 62
     2
100
AcDbLine
 10
1442.044714
 20
1227.22
 30
0.0
 11
1450.5
 21
1227.22
 31
0.0
  0
LINE
  5
1E7
100
AcDbEntity
  8
LAY-1
  6
CONTINUOUS
 62
     2
100
AcDbLine
 10
1452.5
 20
1229.22
 30
0.0
 11
1452.5
 21
1237.675286
 31
0.0
  0
ARC
  5
1E8
100
AcDbEntity
  8
LAY-1
  6
CONTINUOUS
 62
     2
100
AcDbCircle
 10
1450.5
 20
1237.675286
 30
0.0
 40
2.0
100
AcDbArc
 50
0.0
 51
111.510188
  0
ARC
  5
1E9
100
AcDbEntity
  8
LAY-1
  6
CONTINUOUS
 62
     2
100
AcDbCircle
 10
1450.5
 20
1229.22
 30
0.0
 40
2.0
100
AcDbArc
 50
270.0
 51
0.0
  0
ARC
  5
1EA
100
AcDbEntity
  8
LAY-1
  6
CONTINUOUS
 62
     2
100
AcDbCircle
 10
1442.044714
 20
1229.22
 30
0.0
 40
2.0
100
AcDbArc
 50
158.489812
 51
270.0
  0
ARC
  5
1EB
100
AcDbEntity
  8
LAY-1
  6
CONTINUOUS
 62
     2
100
AcDbCircle
 10
1469.955286
 20
1229.22
 30
0.0
 40
2.0
100
AcDbArc
 50
270.0
 51
21.510188
  0
ARC
  5
1EC
100
AcDbEntity
  8
LAY-1
  6
CONTINUOUS
 62
     2
100
AcDbCircle
 10
1461.5
 20
1229.22
 30
0.0
 40
2.0
100
AcDbArc
 50
180.0
 51
270.0
  0
ARC
  5
1ED
100
AcDbEntity
  8
LAY-1
  6
CONTINUOUS
 62
     2
100
AcDbCircle
 10
1461.5
 20
1237.675286
 30
0.0
 40
2.0
100
AcDbArc
 50
68.489812
 51
180.0
  0
LINE
  5
1EE
100
AcDbEntity
  8
LAY-1
  6
CONTINUOUS
 62
     2
100
AcDbLine
 10
1461.5
 20
1227.22
 30
0.0
 11
1469.955286
 21
1227.22
 31
0.0
  0
LINE
  5
1EF
100
AcDbEntity
  8
LAY-1
  6
CONTINUOUS
 62
     2
100
AcDbLine
 10
1459.5
 20
1237.675286
 30
0.0
 11
1459.5
 21
1229.22
 31
0.0
  0
ARC
  5
1F0
100
AcDbEntity
  8
LAY-1
  6
CONTINUOUS
 62
     2
100
AcDbCircle
 10
1469.142812
 20
1255.449556
 30
0.0
 40
12.0
100
AcDbArc
 50
208.814171
 51
286.185829
  0
ARC
  5
1F1
100
AcDbEntity
  8
LAY-1
  6
CONTINUOUS
 62
     2
100
AcDbCircle
 10
1487.729556
 20
1236.862812
 30
0.0
 40
12.0
100
AcDbArc
 50
163.814171
 51
241.185829
  0
ARC
  5
1F2
100
AcDbEntity
  8
LAY-1
  6
CONTINUOUS
 62
     2
100
AcDbCircle
 10
1487.729556
 20
1210.577188
 30
0.0
 40
12.0
100
AcDbArc
 50
118.814171
 51
196.185829
  0
ARC
  5
1F3
100
AcDbEntity
  8
LAY-1
  6
CONTINUOUS
 62
     2
100
AcDbCircle
 10
1469.142812
 20
1191.990444
 30
0.0
 40
12.0
100
AcDbArc
 50
73.814171
 51
151.185829
  0
ARC
  5
1F4
100
AcDbEntity
  8
LAY-1
  6
CONTINUOUS
 62
     2
100
AcDbCircle
 10
1442.857188
 20
1191.990444
 30
0.0
 40
12.0
100
AcDbArc
 50
28.814171
 51
106.185829
  0
ARC
  5
1F5
100
AcDbEntity
  8
LAY-1
  6
CONTINUOUS
 62
     2
100
AcDbCircle
 10
1424.270444
 20
1210.577188
 30
0.0
 40
12.0
100
AcDbArc
 50
343.814171
 51
61.185829
  0
ARC
  5
1F6
100
AcDbEntity
  8
LAY-1
  6
CONTINUOUS
 62
     2
100
AcDbCircle
 10
1424.270444
 20
1236.862812
 30
0.0
 40
12.0
100
AcDbArc
 50
298.814171
 51
16.185829
  0
ARC
  5
1F7
100
AcDbEntity
  8
LAY-1
  6
CONTINUOUS
 62
     2
100
AcDbCircle
 10
1442.857188
 20
1255.449556
 30
0.0
 40
12.0
100
AcDbArc
 50
253.814171
 51
331.185829
  0
ARC
  5
1F8
100
AcDbEntity
  8
LAY-1
  6
CONTINUOUS
 62
     2
100
AcDbCircle
 10
1473.324116
 20
1241.044116
 30
0.0
 40
3.0
100
AcDbArc
 50
343.814171
 51
106.185829
  0
ARC
  5
1F9
100
AcDbEntity
  8
LAY-1
  6
CONTINUOUS
 62
     2
100
AcDbCircle
 10
1480.5
 20
1223.72
 30
0.0
 40
3.0
100
AcDbArc
 50
298.814171
 51
61.185829
  0
ARC
  5
1FA
100
AcDbEntity
  8
LAY-1
  6
CONTINUOUS
 62
     2
100
AcDbCircle
 10
1473.324116
 20
1206.395884
 30
0.0
 40
3.0
100
AcDbArc
 50
253.814171
 51
16.185829
  0
ARC
  5
1FB
100
AcDbEntity
  8
LAY-1
  6
CONTINUOUS
 62
     2
100
AcDbCircle
 10
1456.0
 20
1199.22
 30
0.0
 40
3.0
100
AcDbArc
 50
208.814171
 51
331.185829
  0
ARC
  5
1FC
100
AcDbEntity
  8
LAY-1
  6
CONTINUOUS
 62
     2
100
AcDbCircle
 10
1438.675884
 20
1206.395884
 30
0.0
 40
3.0
100
AcDbArc
 50
163.814171
 51
286.185829
  0
ARC
  5
1FD
100
AcDbEntity
  8
LAY-1
  6
CONTINUOUS
 62
     2
100
AcDbCircle
 10
1431.5
 20
1223.72
 30
0.0
 40
3.0
100
AcDbArc
 50
118.814171
 51
241.185829
  0
ARC
  5
1FE
100
AcDbEntity
  8
LAY-1
  6
CONTINUOUS
 62
     2
100
AcDbCircle
 10
1438.675884
 20
1241.044116
 30
0.0
 40
3.0
100
AcDbArc
 50
73.814171
 51
196.185829
  0
ARC
  5
1FF
100
AcDbEntity
  8
LAY-1
  6
CONTINUOUS
 62
     2
100
AcDbCircle
 10
1456.0
 20
1248.22
 30
0.0
 40
3.0
100
AcDbArc
 50
28.814171
 51
151.185829
  0
CIRCLE
  5
200
100
AcDbEntity
  8
LAY-1
  6
CONTINUOUS
 62
     2
100
AcDbCircle
 10
1456.0
 20
1223.72
 30
0.0
 40
17.0
  0
CIRCLE
  5
201
100
AcDbEntity
  8
LAY-1
  6
CONTINUOUS
 62
     2
100
AcDbCircle
 10
1456.0
 20
1223.72
 30
0.0
 40
5.0
  0
CIRCLE
  5
202
100
AcDbEntity
  8
LAY-1
  6
CONTINUOUS
 62
     2
100
AcDbCircle
 10
1456.0
 20
1223.72
 30
0.0
 40
3.0
  0
LINE
  5
203
100
AcDbEntity
  8
LAY-1
  6
CONTINUOUS
 62
     2
100
AcDbLine
 10
1466.26
 20
1181.92
 30
0.0
 11
1470.58
 21
1177.6
 31
0.0
  0
LINE
  5
204
100
AcDbEntity
  8
LAY-1
  6
CONTINUOUS
 62
     2
100
AcDbLine
 10
1445.74
 20
1181.92
 30
0.0
 11
1441.42
 21
1177.6
 31
0.0
  0
LINE
  5
205
100
AcDbEntity
  8
LAY-1
  6
CONTINUOUS
 62
     2
100
AcDbLine
 10
1465.18
 20
1190.56
 30
0.0
 11
1466.26
 21
1190.02
 31
0.0
  0
LINE
  5
206
100
AcDbEntity
  8
LAY-1
  6
CONTINUOUS
 62
     2
100
AcDbLine
 10
1466.26
 20
1181.92
 30
0.0
 11
1466.26
 21
1190.02
 31
0.0
  0
LINE
  5
207
100
AcDbEntity
  8
LAY-1
  6
CONTINUOUS
 62
     2
100
AcDbLine
 10
1446.82
 20
1190.56
 30
0.0
 11
1445.74
 21
1190.02
 31
0.0
  0
LINE
  5
208
100
AcDbEntity
  8
LAY-1
  6
CONTINUOUS
 62
     2
100
AcDbLine
 10
1445.74
 20
1181.92
 30
0.0
 11
1445.74
 21
1190.02
 31
0.0
  0
LINE
  5
209
100
AcDbEntity
  8
LAY-1
  6
CONTINUOUS
 62
     2
100
AcDbLine
 10
1466.26
 20
1181.92
 30
0.0
 11
1445.74
 21
1181.92
 31
0.0
  0
LINE
  5
20A
100
AcDbEntity
  8
LAY-1
  6
CONTINUOUS
 62
     2
100
AcDbLine
 10
1445.74
 20
1190.02
 30
0.0
 11
1466.26
 21
1190.02
 31
0.0
  0
LINE
  5
20B
100
AcDbEntity
  8
LAY-1
  6
CONTINUOUS
 62
     2
100
AcDbLine
 10
1446.82
 20
1190.56
 30
0.0
 11
1447.286047
 21
1203.143256
 31
0.0
  0
LINE
  5
20C
100
AcDbEntity
  8
LAY-1
  6
CONTINUOUS
 62
     2
100
AcDbLine
 10
1465.18
 20
1190.56
 30
0.0
 11
1464.713953
 21
1203.143256
 31
0.0
  0
LINE
  5
20D
100
AcDbEntity
  8
LAY-1
  6
CONTINUOUS
 62
     2
100
AcDbLine
 10
1457.387227
 20
1196.56
 30
0.0
 11
1464.957778
 21
1196.56
 31
0.0
  0
LINE
  5
20E
100
AcDbEntity
  8
LAY-1
  6
CONTINUOUS
 62
     2
100
AcDbLine
 10
1447.042222
 20
1196.56
 30
0.0
 11
1454.612773
 21
1196.56
 31
0.0
  0
LINE
  5
20F
100
AcDbEntity
  8
LAY-1
  6
CONTINUOUS
 62
     2
100
AcDbLine
 10
1446.968148
 20
1194.56
 30
0.0
 11
1465.031852
 21
1194.56
 31
0.0
  0
LINE
  5
210
100
AcDbEntity
  8
LAY-1
  6
CONTINUOUS
 62
     2
100
AcDbLine
 10
1446.894074
 20
1192.56
 30
0.0
 11
1465.105926
 21
1192.56
 31
0.0
  0
LINE
  5
211
100
AcDbEntity
  8
LAY-1
  6
CONTINUOUS
 62
     2
100
AcDbLine
 10
1573.0
 20
1360.6
 30
0.0
 11
1591.0
 21
1360.6
 31
0.0
  0
LINE
  5
212
100
AcDbEntity
  8
LAY-1
  6
CONTINUOUS
 62
     2
100
AcDbLine
 10
1573.0
 20
1347.2
 30
0.0
 11
1591.0
 21
1347.2
 31
0.0
  0
LINE
  5
213
100
AcDbEntity
  8
LAY-1
  6
CONTINUOUS
 62
     2
100
AcDbLine
 10
1573.0
 20
1360.6
 30
0.0
 11
1573.0
 21
1345.6
 31
0.0
  0
LINE
  5
214
100
AcDbEntity
  8
LAY-1
  6
CONTINUOUS
 62
     2
100
AcDbLine
 10
1591.0
 20
1360.6
 30
0.0
 11
1591.0
 21
1345.6
 31
0.0
  0
LINE
  5
215
100
AcDbEntity
  8
LAY-1
  6
CONTINUOUS
 62
     2
100
AcDbLine
 10
1512.0
 20
1345.6
 30
0.0
 11
1652.0
 21
1345.6
 31
0.0
  0
LINE
  5
216
100
AcDbEntity
  8
LAY-1
  6
CONTINUOUS
 62
     2
100
AcDbLine
 10
1512.0
 20
1345.6
 30
0.0
 11
1512.0
 21
1344.0
 31
0.0
  0
LINE
  5
217
100
AcDbEntity
  8
LAY-1
  6
CONTINUOUS
 62
     2
100
AcDbLine
 10
1652.0
 20
1345.6
 30
0.0
 11
1652.0
 21
1344.0
 31
0.0
  0
LINE
  5
218
100
AcDbEntity
  8
LAY-1
  6
CONTINUOUS
 62
     2
100
AcDbLine
 10
1696.0
 20
1359.0
 30
0.0
 11
1712.0
 21
1359.0
 31
0.0
  0
LINE
  5
219
100
AcDbEntity
  8
LAY-1
  6
CONTINUOUS
 62
     2
100
AcDbLine
 10
1700.0
 20
1364.0
 30
0.0
 11
1708.0
 21
1364.0
 31
0.0
  0
LINE
  5
21A
100
AcDbEntity
  8
LAY-1
  6
CONTINUOUS
 62
     2
100
AcDbLine
 10
1712.0
 20
1359.0
 30
0.0
 11
1714.0
 21
1344.0
 31
0.0
  0
LINE
  5
21B
100
AcDbEntity
  8
LAY-1
  6
CONTINUOUS
 62
     2
100
AcDbLine
 10
1708.0
 20
1364.0
 30
0.0
 11
1712.0
 21
1359.0
 31
0.0
  0
LINE
  5
21C
100
AcDbEntity
  8
LAY-1
  6
CONTINUOUS
 62
     2
100
AcDbLine
 10
1696.0
 20
1359.0
 30
0.0
 11
1694.0
 21
1344.0
 31
0.0
  0
LINE
  5
21D
100
AcDbEntity
  8
LAY-1
  6
CONTINUOUS
 62
     2
100
AcDbLine
 10
1700.0
 20
1364.0
 30
0.0
 11
1696.0
 21
1359.0
 31
0.0
  0
ARC
  5
21E
100
AcDbEntity
  8
LAY-1
  6
CONTINUOUS
 62
     2
100
AcDbCircle
 10
1704.0
 20
1388.5
 30
0.0
 40
4.0
100
AcDbArc
 50
0.0
 51
180.0
  0
LINE
  5
21F
100
AcDbEntity
  8
LAY-1
  6
CONTINUOUS
 62
     2
100
AcDbLine
 10
1700.0
 20
1388.5
 30
0.0
 11
1700.0
 21
1364.0
 31
0.0
  0
LINE
  5
220
100
AcDbEntity
  8
LAY-1
  6
CONTINUOUS
 62
     2
100
AcDbLine
 10
1708.0
 20
1388.5
 30
0.0
 11
1708.0
 21
1364.0
 31
0.0
  0
LINE
  5
221
100
AcDbEntity
  8
LAY-1
  6
CONTINUOUS
 62
     2
100
AcDbLine
 10
1478.420823
 20
1218.15
 30
0.0
 11
1502.0
 21
1218.15
 31
0.0
  0
LINE
  5
222
100
AcDbEntity
  8
LAY-1
  6
CONTINUOUS
 62
     2
100
AcDbLine
 10
1476.107305
 20
1239.85
 30
0.0
 11
1502.0
 21
1239.85
 31
0.0
  0
LINE
  5
223
100
AcDbEntity
  8
LAY-1
  6
CONTINUOUS
 62
     2
100
AcDbLine
 10
1380.0
 20
1239.85
 30
0.0
 11
1435.892695
 21
1239.85
 31
0.0
  0
LINE
  5
224
100
AcDbEntity
  8
LAY-1
  6
CONTINUOUS
 62
     2
100
AcDbLine
 10
1380.0
 20
1218.15
 30
0.0
 11
1433.579177
 21
1218.15
 31
0.0
  0
LINE
  5
225
100
AcDbEntity
  8
LAY-1
  6
CONTINUOUS
 62
     2
100
AcDbLine
 10
1382.0
 20
1177.6
 30
0.0
 11
1502.0
 21
1177.6
 31
0.0
  0
LINE
  5
226
100
AcDbEntity
  8
LAY-1
  6
CONTINUOUS
 62
     2
100
AcDbLine
 10
1382.0
 20
1150.4
 30
0.0
 11
1502.0
 21
1150.4
 31
0.0
  0
LINE
  5
227
100
AcDbEntity
  8
LAY-1
  6
CONTINUOUS
 62
     2
100
AcDbLine
 10
1828.955286
 20
1120.5
 30
0.0
 11
1820.5
 21
1120.5
 31
0.0
  0
LINE
  5
228
100
AcDbEntity
  8
LAY-1
  6
CONTINUOUS
 62
     2
100
AcDbLine
 10
1818.5
 20
1118.5
 30
0.0
 11
1818.5
 21
1110.044714
 31
0.0
  0
ARC
  5
229
100
AcDbEntity
  8
LAY-1
  6
CONTINUOUS
 62
     2
100
AcDbCircle
 10
1820.5
 20
1110.044714
 30
0.0
 40
2.0
100
AcDbArc
 50
180.0
 51
291.510188
  0
ARC
  5
22A
100
AcDbEntity
  8
LAY-1
  6
CONTINUOUS
 62
     2
100
AcDbCircle
 10
1820.5
 20
1118.5
 30
0.0
 40
2.0
100
AcDbArc
 50
90.0
 51
180.0
  0
ARC
  5
22B
100
AcDbEntity
  8
LAY-1
  6
CONTINUOUS
 62
     2
100
AcDbCircle
 10
1828.955286
 20
1118.5
 30
0.0
 40
2.0
100
AcDbArc
 50
338.489812
 51
90.0
  0
LINE
  5
22C
100
AcDbEntity
  8
LAY-1
  6
CONTINUOUS
 62
     2
100
AcDbLine
 10
1811.5
 20
1110.044714
 30
0.0
 11
1811.5
 21
1118.5
 31
0.0
  0
LINE
  5
22D
100
AcDbEntity
  8
LAY-1
  6
CONTINUOUS
 62
     2
100
AcDbLine
 10
1809.5
 20
1120.5
 30
0.0
 11
1801.044714
 21
1120.5
 31
0.0
  0
ARC
  5
22E
100
AcDbEntity
  8
LAY-1
  6
CONTINUOUS
 62
     2
100
AcDbCircle
 10
1801.044714
 20
1118.5
 30
0.0
 40
2.0
100
AcDbArc
 50
90.0
 51
201.510188
  0
ARC
  5
22F
100
AcDbEntity
  8
LAY-1
  6
CONTINUOUS
 62
     2
100
AcDbCircle
 10
1809.5
 20
1118.5
 30
0.0
 40
2.0
100
AcDbArc
 50
0.0
 51
90.0
  0
ARC
  5
230
100
AcDbEntity
  8
LAY-1
  6
CONTINUOUS
 62
     2
100
AcDbCircle
 10
1809.5
 20
1110.044714
 30
0.0
 40
2.0
100
AcDbArc
 50
248.489812
 51
0.0
  0
LINE
  5
231
100
AcDbEntity
  8
LAY-1
  6
CONTINUOUS
 62
     2
100
AcDbLine
 10
1801.044714
 20
1127.5
 30
0.0
 11
1809.5
 21
1127.5
 31
0.0
  0
LINE
  5
232
100
AcDbEntity
  8
LAY-1
  6
CONTINUOUS
 62
     2
100
AcDbLine
 10
1811.5
 20
1129.5
 30
0.0
 11
1811.5
 21
1137.955286
 31
0.0
  0
ARC
  5
233
100
AcDbEntity
  8
LAY-1
  6
CONTINUOUS
 62
     2
100
AcDbCircle
 10
1809.5
 20
1137.955286
 30
0.0
 40
2.0
100
AcDbArc
 50
0.0
 51
111.510188
  0
ARC
  5
234
100
AcDbEntity
  8
LAY-1
  6
CONTINUOUS
 62
     2
100
AcDbCircle
 10
1809.5
 20
1129.5
 30
0.0
 40
2.0
100
AcDbArc
 50
270.0
 51
0.0
  0
ARC
  5
235
100
AcDbEntity
  8
LAY-1
  6
CONTINUOUS
 62
     2
100
AcDbCircle
 10
1801.044714
 20
1129.5
 30
0.0
 40
2.0
100
AcDbArc
 50
158.489812
 51
270.0
  0
ARC
  5
236
100
AcDbEntity
  8
LAY-1
  6
CONTINUOUS
 62
     2
100
AcDbCircle
 10
1828.955286
 20
1129.5
 30
0.0
 40
2.0
100
AcDbArc
 50
270.0
 51
21.510188
  0
ARC
  5
237
100
AcDbEntity
  8
LAY-1
  6
CONTINUOUS
 62
     2
100
AcDbCircle
 10
1820.5
 20
1129.5
 30
0.0
 40
2.0
100
AcDbArc
 50
180.0
 51
270.0
  0
ARC
  5
238
100
AcDbEntity
  8
LAY-1
  6
CONTINUOUS
 62
     2
100
AcDbCircle
 10
1820.5
 20
1137.955286
 30
0.0
 40
2.0
100
AcDbArc
 50
68.489812
 51
180.0
  0
LINE
  5
239
100
AcDbEntity
  8
LAY-1
  6
CONTINUOUS
 62
     2
100
AcDbLine
 10
1820.5
 20
1127.5
 30
0.0
 11
1828.955286
 21
1127.5
 31
0.0
  0
LINE
  5
23A
100
AcDbEntity
  8
LAY-1
  6
CONTINUOUS
 62
     2
100
AcDbLine
 10
1818.5
 20
1137.955286
 30
0.0
 11
1818.5
 21
1129.5
 31
0.0
  0
ARC
  5
23B
100
AcDbEntity
  8
LAY-1
  6
CONTINUOUS
 62
     2
100
AcDbCircle
 10
1828.142812
 20
1155.729556
 30
0.0
 40
12.0
100
AcDbArc
 50
208.814171
 51
286.185829
  0
ARC
  5
23C
100
AcDbEntity
  8
LAY-1
  6
CONTINUOUS
 62
     2
100
AcDbCircle
 10
1846.729556
 20
1137.142812
 30
0.0
 40
12.0
100
AcDbArc
 50
163.814171
 51
241.185829
  0
ARC
  5
23D
100
AcDbEntity
  8
LAY-1
  6
CONTINUOUS
 62
     2
100
AcDbCircle
 10
1846.729556
 20
1110.857188
 30
0.0
 40
12.0
100
AcDbArc
 50
118.814171
 51
196.185829
  0
ARC
  5
23E
100
AcDbEntity
  8
LAY-1
  6
CONTINUOUS
 62
     2
100
AcDbCircle
 10
1828.142812
 20
1092.270444
 30
0.0
 40
12.0
100
AcDbArc
 50
73.814171
 51
151.185829
  0
ARC
  5
23F
100
AcDbEntity
  8
LAY-1
  6
CONTINUOUS
 62
     2
100
AcDbCircle
 10
1801.857188
 20
1092.270444
 30
0.0
 40
12.0
100
AcDbArc
 50
28.814171
 51
106.185829
  0
ARC
  5
240
100
AcDbEntity
  8
LAY-1
  6
CONTINUOUS
 62
     2
100
AcDbCircle
 10
1783.270444
 20
1110.857188
 30
0.0
 40
12.0
100
AcDbArc
 50
343.814171
 51
61.185829
  0
ARC
  5
241
100
AcDbEntity
  8
LAY-1
  6
CONTINUOUS
 62
     2
100
AcDbCircle
 10
1783.270444
 20
1137.142812
 30
0.0
 40
12.0
100
AcDbArc
 50
298.814171
 51
16.185829
  0
ARC
  5
242
100
AcDbEntity
  8
LAY-1
  6
CONTINUOUS
 62
     2
100
AcDbCircle
 10
1801.857188
 20
1155.729556
 30
0.0
 40
12.0
100
AcDbArc
 50
253.814171
 51
331.185829
  0
ARC
  5
243
100
AcDbEntity
  8
LAY-1
  6
CONTINUOUS
 62
     2
100
AcDbCircle
 10
1832.324116
 20
1141.324116
 30
0.0
 40
3.0
100
AcDbArc
 50
343.814171
 51
106.185829
  0
ARC
  5
244
100
AcDbEntity
  8
LAY-1
  6
CONTINUOUS
 62
     2
100
AcDbCircle
 10
1839.5
 20
1124.0
 30
0.0
 40
3.0
100
AcDbArc
 50
298.814171
 51
61.185829
  0
ARC
  5
245
100
AcDbEntity
  8
LAY-1
  6
CONTINUOUS
 62
     2
100
AcDbCircle
 10
1832.324116
 20
1106.675884
 30
0.0
 40
3.0
100
AcDbArc
 50
253.814171
 51
16.185829
  0
ARC
  5
246
100
AcDbEntity
  8
LAY-1
  6
CONTINUOUS
 62
     2
100
AcDbCircle
 10
1815.0
 20
1099.5
 30
0.0
 40
3.0
100
AcDbArc
 50
208.814171
 51
331.185829
  0
ARC
  5
247
100
AcDbEntity
  8
LAY-1
  6
CONTINUOUS
 62
     2
100
AcDbCircle
 10
1797.675884
 20
1106.675884
 30
0.0
 40
3.0
100
AcDbArc
 50
163.814171
 51
286.185829
  0
ARC
  5
248
100
AcDbEntity
  8
LAY-1
  6
CONTINUOUS
 62
     2
100
AcDbCircle
 10
1797.675884
 20
1141.324116
 30
0.0
 40
3.0
100
AcDbArc
 50
73.814171
 51
196.185829
  0
ARC
  5
249
100
AcDbEntity
  8
LAY-1
  6
CONTINUOUS
 62
     2
100
AcDbCircle
 10
1815.0
 20
1148.5
 30
0.0
 40
3.0
100
AcDbArc
 50
28.814171
 51
151.185829
  0
CIRCLE
  5
24A
100
AcDbEntity
  8
LAY-1
  6
CONTINUOUS
 62
     2
100
AcDbCircle
 10
1815.0
 20
1124.0
 30
0.0
 40
17.0
  0
CIRCLE
  5
24B
100
AcDbEntity
  8
LAY-1
  6
CONTINUOUS
 62
     2
100
AcDbCircle
 10
1815.0
 20
1124.0
 30
0.0
 40
5.0
  0
CIRCLE
  5
24C
100
AcDbEntity
  8
LAY-1
  6
CONTINUOUS
 62
     2
100
AcDbCircle
 10
1815.0
 20
1124.0
 30
0.0
 40
3.0
  0
ARC
  5
24D
100
AcDbEntity
  8
LAY-1
  6
CONTINUOUS
 62
     2
100
AcDbCircle
 10
1790.5
 20
1124.0
 30
0.0
 40
3.0
100
AcDbArc
 50
118.814171
 51
241.185829
  0
ARC
  5
24E
100
AcDbEntity
  8
LAY-1
  6
CONTINUOUS
 62
     2
100
AcDbCircle
 10
1805.0
 20
874.0
 30
0.0
 40
197.0
100
AcDbArc
 50
351.828766
 51
8.171234
  0
LINE
  5
24F
100
AcDbEntity
  8
LAY-1
  6
CONTINUOUS
 62
     2
100
AcDbLine
 10
1990.0
 20
844.0
 30
0.0
 11
2000.0
 21
844.0
 31
0.0
  0
LINE
  5
250
100
AcDbEntity
  8
LAY-1
  6
CONTINUOUS
 62
     2
100
AcDbLine
 10
1990.0
 20
904.0
 30
0.0
 11
2000.0
 21
904.0
 31
0.0
  0
LINE
  5
251
100
AcDbEntity
  8
LAY-1
  6
CONTINUOUS
 62
     2
100
AcDbLine
 10
2000.0
 20
904.0
 30
0.0
 11
2000.0
 21
844.0
 31
0.0
  0
LINE
  5
252
100
AcDbEntity
  8
LAY-1
  6
CONTINUOUS
 62
     2
100
AcDbLine
 10
1990.0
 20
904.0
 30
0.0
 11
1990.0
 21
844.0
 31
0.0
  0
LINE
  5
253
100
AcDbEntity
  8
LAY-1
  6
CONTINUOUS
 62
     2
100
AcDbLine
 10
1988.0
 20
852.5
 30
0.0
 11
1990.0
 21
852.5
 31
0.0
  0
LINE
  5
254
100
AcDbEntity
  8
LAY-1
  6
CONTINUOUS
 62
     2
100
AcDbLine
 10
1988.0
 20
895.5
 30
0.0
 11
1990.0
 21
895.5
 31
0.0
  0
LINE
  5
255
100
AcDbEntity
  8
LAY-1
  6
CONTINUOUS
 62
     2
100
AcDbLine
 10
1985.0
 20
884.5
 30
0.0
 11
1988.0
 21
884.5
 31
0.0
  0
LINE
  5
256
100
AcDbEntity
  8
LAY-1
  6
CONTINUOUS
 62
     2
100
AcDbLine
 10
1985.0
 20
863.5
 30
0.0
 11
1988.0
 21
863.5
 31
0.0
  0
LINE
  5
257
100
AcDbEntity
  8
LAY-1
  6
CONTINUOUS
 62
     2
100
AcDbLine
 10
1988.0
 20
895.5
 30
0.0
 11
1988.0
 21
852.5
 31
0.0
  0
LINE
  5
258
100
AcDbEntity
  8
LAY-1
  6
CONTINUOUS
 62
     2
100
AcDbLine
 10
1976.0
 20
867.0
 30
0.0
 11
1984.0
 21
867.0
 31
0.0
  0
LINE
  5
259
100
AcDbEntity
  8
LAY-1
  6
CONTINUOUS
 62
     2
100
AcDbLine
 10
1976.0
 20
881.0
 30
0.0
 11
1984.0
 21
881.0
 31
0.0
  0
ARC
  5
25A
100
AcDbEntity
  8
LAY-1
  6
CONTINUOUS
 62
     2
100
AcDbCircle
 10
1960.0
 20
874.0
 30
0.0
 40
25.0
100
AcDbArc
 50
343.739795
 51
16.260205
  0
ARC
  5
25B
100
AcDbEntity
  8
LAY-1
  6
CONTINUOUS
 62
     2
100
AcDbCircle
 10
1978.375
 20
863.5
 30
0.0
 40
6.625
100
AcDbArc
 50
328.109208
 51
31.890792
  0
ARC
  5
25C
100
AcDbEntity
  8
LAY-1
  6
CONTINUOUS
 62
     2
100
AcDbCircle
 10
1978.375
 20
884.5
 30
0.0
 40
6.625
100
AcDbArc
 50
328.109208
 51
31.890792
  0
LINE
  5
25D
100
AcDbEntity
  8
LAY-1
  6
CONTINUOUS
 62
     2
100
AcDbLine
 10
1976.0
 20
860.0
 30
0.0
 11
1984.0
 21
860.0
 31
0.0
  0
LINE
  5
25E
100
AcDbEntity
  8
LAY-1
  6
CONTINUOUS
 62
     2
100
AcDbLine
 10
1976.0
 20
888.0
 30
0.0
 11
1984.0
 21
888.0
 31
0.0
  0
LINE
  5
25F
100
AcDbEntity
  8
LAY-1
  6
CONTINUOUS
 62
     2
100
AcDbLine
 10
1985.0
 20
884.5
 30
0.0
 11
1985.0
 21
863.5
 31
0.0
  0
CIRCLE
  5
260
100
AcDbEntity
  8
LAY-1
  6
CONTINUOUS
 62
     2
100
AcDbCircle
 10
2638.0
 20
874.0
 30
0.0
 40
28.0
  0
CIRCLE
  5
261
100
AcDbEntity
  8
LAY-1
  6
CONTINUOUS
 62
     2
100
AcDbCircle
 10
2638.0
 20
874.0
 30
0.0
 40
30.0
  0
ARC
  5
262
100
AcDbEntity
  8
LAY-1
  6
CONTINUOUS
 62
     2
100
AcDbCircle
 10
2638.0
 20
874.0
 30
0.0
 40
2.5
100
AcDbArc
 50
248.578178
 51
21.421822
  0
LINE
  5
263
100
AcDbEntity
  8
LAY-1
  6
CONTINUOUS
 62
     2
100
AcDbLine
 10
2618.681483
 20
868.823619
 30
0.0
 11
2614.81778
 21
867.788343
 31
0.0
  0
LINE
  5
264
100
AcDbEntity
  8
LAY-1
  6
CONTINUOUS
 62
     2
100
AcDbLine
 10
2618.681483
 20
879.176381
 30
0.0
 11
2614.81778
 21
880.211657
 31
0.0
  0
LINE
  5
265
100
AcDbEntity
  8
LAY-1
  6
CONTINUOUS
 62
     2
100
AcDbLine
 10
2623.857864
 20
888.142136
 30
0.0
 11
2621.029437
 21
890.970563
 31
0.0
  0
LINE
  5
266
100
AcDbEntity
  8
LAY-1
  6
CONTINUOUS
 62
     2
100
AcDbLine
 10
2632.823619
 20
893.318517
 30
0.0
 11
2631.788343
 21
897.18222
 31
0.0
  0
LINE
  5
267
100
AcDbEntity
  8
LAY-1
  6
CONTINUOUS
 62
     2
100
AcDbLine
 10
2643.176381
 20
893.318517
 30
0.0
 11
2644.211657
 21
897.18222
 31
0.0
  0
LINE
  5
268
100
AcDbEntity
  8
LAY-1
  6
CONTINUOUS
 62
     2
100
AcDbLine
 10
2652.142136
 20
888.142136
 30
0.0
 11
2654.970563
 21
890.970563
 31
0.0
  0
LINE
  5
269
100
AcDbEntity
  8
LAY-1
  6
CONTINUOUS
 62
     2
100
AcDbLine
 10
2657.318517
 20
879.176381
 30
0.0
 11
2661.18222
 21
880.211657
 31
0.0
  0
LINE
  5
26A
100
AcDbEntity
  8
LAY-1
  6
CONTINUOUS
 62
     2
100
AcDbLine
 10
2657.318517
 20
868.823619
 30
0.0
 11
2661.18222
 21
867.788343
 31
0.0
  0
ARC
  5
26B
100
AcDbEntity
  8
LAY-1
  6
CONTINUOUS
 62
     2
100
AcDbCircle
 10
2638.0
 20
874.0
 30
0.0
 40
20.0
100
AcDbArc
 50
315.0
 51
225.0
  0
LINE
  5
26C
100
AcDbEntity
  8
LAY-1
  6
CONTINUOUS
 62
     2
100
AcDbLine
 10
2652.142136
 20
859.857864
 30
0.0
 11
2654.970563
 21
857.029437
 31
0.0
  0
ARC
  5
26D
100
AcDbEntity
  8
LAY-1
  6
CONTINUOUS
 62
     2
100
AcDbCircle
 10
2638.0
 20
874.0
 30
0.0
 40
24.0
100
AcDbArc
 50
315.0
 51
225.0
  0
LINE
  5
26E
100
AcDbEntity
  8
LAY-1
  6
CONTINUOUS
 62
     2
100
AcDbLine
 10
2621.029437
 20
857.029437
 30
0.0
 11
2637.086922
 21
871.672708
 31
0.0
  0
LINE
  5
26F
100
AcDbEntity
  8
LAY-1
  6
CONTINUOUS
 62
     2
100
AcDbLine
 10
2635.672708
 20
873.086922
 30
0.0
 11
2621.029437
 21
857.029437
 31
0.0
  0
LINE
  5
270
100
AcDbEntity
  8
LAY-1
  6
CONTINUOUS
 62
     2
100
AcDbLine
 10
2640.327292
 20
874.913078
 30
0.0
 11
2648.591215
 21
879.641468
 31
0.0
  0
LINE
  5
271
100
AcDbEntity
  8
LAY-1
  6
CONTINUOUS
 62
     2
100
AcDbLine
 10
2643.641468
 20
884.591215
 30
0.0
 11
2638.913078
 21
876.327292
 31
0.0
  0
ARC
  5
272
100
AcDbEntity
  8
LAY-1
  6
CONTINUOUS
 62
     2
100
AcDbCircle
 10
2638.0
 20
874.0
 30
0.0
 40
12.0
100
AcDbArc
 50
28.042237
 51
61.957763
  0
ARC
  5
273
100
AcDbEntity
  8
LAY-1
  6
CONTINUOUS
 62
     2
100
AcDbCircle
 10
2638.0
 20
874.0
 30
0.0
 40
2.5
100
AcDbArc
 50
68.578178
 51
201.421822
  0
CIRCLE
  5
274
100
AcDbEntity
  8
LAY-1
  6
CONTINUOUS
 62
     2
100
AcDbCircle
 10
2551.19392
 20
1132.75
 30
0.0
 40
1.5
  0
CIRCLE
  5
275
100
AcDbEntity
  8
LAY-1
  6
CONTINUOUS
 62
     2
100
AcDbCircle
 10
2624.80608
 20
1132.75
 30
0.0
 40
1.5
  0
CIRCLE
  5
276
100
AcDbEntity
  8
LAY-1
  6
CONTINUOUS
 62
     2
100
AcDbCircle
 10
2588.0
 20
1196.5
 30
0.0
 40
1.5
  0
CIRCLE
  5
277
100
AcDbEntity
  8
LAY-1
  6
CONTINUOUS
 62
     2
100
AcDbCircle
 10
2588.0
 20
1154.0
 30
0.0
 40
47.5
  0
CIRCLE
  5
278
100
AcDbEntity
  8
LAY-1
  6
CONTINUOUS
 62
     2
100
AcDbCircle
 10
2588.0
 20
1154.0
 30
0.0
 40
35.5
  0
CIRCLE
  5
279
100
AcDbEntity
  8
LAY-1
  6
CONTINUOUS
 62
     2
100
AcDbCircle
 10
2588.0
 20
1154.0
 30
0.0
 40
37.5
  0
CIRCLE
  5
27A
100
AcDbEntity
  8
LAY-1
  6
CONTINUOUS
 62
     2
100
AcDbCircle
 10
2724.80608
 20
1132.75
 30
0.0
 40
1.5
  0
CIRCLE
  5
27B
100
AcDbEntity
  8
LAY-1
  6
CONTINUOUS
 62
     2
100
AcDbCircle
 10
2651.19392
 20
1132.75
 30
0.0
 40
1.5
  0
CIRCLE
  5
27C
100
AcDbEntity
  8
LAY-1
  6
CONTINUOUS
 62
     2
100
AcDbCircle
 10
2688.0
 20
1196.5
 30
0.0
 40
1.5
  0
CIRCLE
  5
27D
100
AcDbEntity
  8
LAY-1
  6
CONTINUOUS
 62
     2
100
AcDbCircle
 10
2688.0
 20
1154.0
 30
0.0
 40
35.5
  0
CIRCLE
  5
27E
100
AcDbEntity
  8
LAY-1
  6
CONTINUOUS
 62
     2
100
AcDbCircle
 10
2688.0
 20
1154.0
 30
0.0
 40
47.5
  0
CIRCLE
  5
27F
100
AcDbEntity
  8
LAY-1
  6
CONTINUOUS
 62
     2
100
AcDbCircle
 10
2688.0
 20
1154.0
 30
0.0
 40
37.5
  0
ARC
  5
280
100
AcDbEntity
  8
LAY-1
  6
CONTINUOUS
 62
     2
100
AcDbCircle
 10
2548.0
 20
1191.5
 30
0.0
 40
15.0
100
AcDbArc
 50
90.0
 51
180.0
  0
ARC
  5
281
100
AcDbEntity
  8
LAY-1
  6
CONTINUOUS
 62
     2
100
AcDbCircle
 10
2548.0
 20
1116.5
 30
0.0
 40
15.0
100
AcDbArc
 50
180.0
 51
270.0
  0
ARC
  5
282
100
AcDbEntity
  8
LAY-1
  6
CONTINUOUS
 62
     2
100
AcDbCircle
 10
2728.0
 20
1116.5
 30
0.0
 40
15.0
100
AcDbArc
 50
270.0
 51
0.0
  0
ARC
  5
283
100
AcDbEntity
  8
LAY-1
  6
CONTINUOUS
 62
     2
100
AcDbCircle
 10
2728.0
 20
1191.5
 30
0.0
 40
15.0
100
AcDbArc
 50
0.0
 51
90.0
  0
LINE
  5
284
100
AcDbEntity
  8
LAY-1
  6
CONTINUOUS
 62
     2
100
AcDbLine
 10
2533.0
 20
1191.5
 30
0.0
 11
2533.0
 21
1116.5
 31
0.0
  0
LINE
  5
285
100
AcDbEntity
  8
LAY-1
  6
CONTINUOUS
 62
     2
100
AcDbLine
 10
2743.0
 20
1191.5
 30
0.0
 11
2743.0
 21
1116.5
 31
0.0
  0
LINE
  5
286
100
AcDbEntity
  8
LAY-1
  6
CONTINUOUS
 62
     2
100
AcDbLine
 10
2728.0
 20
1206.5
 30
0.0
 11
2548.0
 21
1206.5
 31
0.0
  0
LINE
  5
287
100
AcDbEntity
  8
LAY-1
  6
CONTINUOUS
 62
     2
100
AcDbLine
 10
2728.0
 20
1101.5
 30
0.0
 11
2548.0
 21
1101.5
 31
0.0
  0
POLYLINE
  5
288
100
AcDbEntity
  8
LAY-1
  6
CONTINUOUS
 62
     2
100
AcDb2dPolyline
 66
     1
 10
0.0
 20
0.0
 30
0.0
 70
   128
  0
VERTEX
  5
289
100
AcDbEntity
  8
LAY-1
  6
CONTINUOUS
 62
     2
100
AcDbVertex
100
AcDb2dVertex
 10
2587.407001
 20
1152.089934
 30
0.0
  0
VERTEX
  5
28A
100
AcDbEntity
  8
LAY-1
  6
CONTINUOUS
 62
     2
100
AcDbVertex
100
AcDb2dVertex
 10
2569.968777
 20
1135.968777
 30
0.0
  0
SEQEND
  5
28B
100
AcDbEntity
  8
LAY-1
  6
CONTINUOUS
 62
     2
  0
ARC
  5
28C
100
AcDbEntity
  8
LAY-1
  6
CONTINUOUS
 62
     2
100
AcDbCircle
 10
2588.0
 20
1154.0
 30
0.0
 40
2.0
100
AcDbArc
 50
252.75253
 51
7.896801
  0
POLYLINE
  5
28D
100
AcDbEntity
  8
LAY-1
  6
CONTINUOUS
 62
     2
100
AcDb2dPolyline
 66
     1
 10
0.0
 20
0.0
 30
0.0
 70
   128
  0
VERTEX
  5
28E
100
AcDbEntity
  8
LAY-1
  6
CONTINUOUS
 62
     2
100
AcDbVertex
100
AcDb2dVertex
 10
2603.723453
 20
1164.971727
 30
0.0
  0
VERTEX
  5
28F
100
AcDbEntity
  8
LAY-1
  6
CONTINUOUS
 62
     2
100
AcDbVertex
100
AcDb2dVertex
 10
2589.981034
 20
1154.274778
 30
0.0
  0
SEQEND
  5
290
100
AcDbEntity
  8
LAY-1
  6
CONTINUOUS
 62
     2
  0
ARC
  5
291
100
AcDbEntity
  8
LAY-1
  6
CONTINUOUS
 62
     2
100
AcDbCircle
 10
2603.109212
 20
1165.760846
 30
0.0
 40
1.0
100
AcDbArc
 50
307.896801
 51
45.0
  0
POLYLINE
  5
292
100
AcDbEntity
  8
LAY-1
  6
CONTINUOUS
 62
     2
100
AcDb2dPolyline
 66
     1
 10
0.0
 20
0.0
 30
0.0
 70
   128
  0
VERTEX
  5
293
100
AcDbEntity
  8
LAY-1
  6
CONTINUOUS
 62
     2
100
AcDbVertex
100
AcDb2dVertex
 10
2600.467953
 20
1169.816319
 30
0.0
  0
VERTEX
  5
294
100
AcDbEntity
  8
LAY-1
  6
CONTINUOUS
 62
     2
100
AcDbVertex
100
AcDb2dVertex
 10
2603.816319
 20
1166.467953
 30
0.0
  0
SEQEND
  5
295
100
AcDbEntity
  8
LAY-1
  6
CONTINUOUS
 62
     2
  0
ARC
  5
296
100
AcDbEntity
  8
LAY-1
  6
CONTINUOUS
 62
     2
100
AcDbCircle
 10
2599.760846
 20
1169.109212
 30
0.0
 40
1.0
100
AcDbArc
 50
45.0
 51
142.103199
  0
POLYLINE
  5
297
100
AcDbEntity
  8
LAY-1
  6
CONTINUOUS
 62
     2
100
AcDb2dPolyline
 66
     1
 10
0.0
 20
0.0
 30
0.0
 70
   128
  0
VERTEX
  5
298
100
AcDbEntity
  8
LAY-1
  6
CONTINUOUS
 62
     2
100
AcDbVertex
100
AcDb2dVertex
 10
2588.274778
 20
1155.981034
 30
0.0
  0
VERTEX
  5
299
100
AcDbEntity
  8
LAY-1
  6
CONTINUOUS
 62
     2
100
AcDbVertex
100
AcDb2dVertex
 10
2598.971727
 20
1169.723453
 30
0.0
  0
SEQEND
  5
29A
100
AcDbEntity
  8
LAY-1
  6
CONTINUOUS
 62
     2
  0
ARC
  5
29B
100
AcDbEntity
  8
LAY-1
  6
CONTINUOUS
 62
     2
100
AcDbCircle
 10
2588.0
 20
1154.0
 30
0.0
 40
2.0
100
AcDbArc
 50
82.103199
 51
197.24747
  0
POLYLINE
  5
29C
100
AcDbEntity
  8
LAY-1
  6
CONTINUOUS
 62
     2
100
AcDb2dPolyline
 66
     1
 10
0.0
 20
0.0
 30
0.0
 70
   128
  0
VERTEX
  5
29D
100
AcDbEntity
  8
LAY-1
  6
CONTINUOUS
 62
     2
100
AcDbVertex
100
AcDb2dVertex
 10
2569.968777
 20
1135.968777
 30
0.0
  0
VERTEX
  5
29E
100
AcDbEntity
  8
LAY-1
  6
CONTINUOUS
 62
     2
100
AcDbVertex
100
AcDb2dVertex
 10
2586.089934
 20
1153.407001
 30
0.0
  0
SEQEND
  5
29F
100
AcDbEntity
  8
LAY-1
  6
CONTINUOUS
 62
     2
  0
CIRCLE
  5
2A0
100
AcDbEntity
  8
LAY-1
  6
CONTINUOUS
 62
     2
100
AcDbCircle
 10
2588.0
 20
1154.0
 30
0.0
 40
1.0
  0
LINE
  5
2A1
100
AcDbEntity
  8
LAY-1
  6
CONTINUOUS
 62
     2
100
AcDbLine
 10
2606.031223
 20
1172.031223
 30
0.0
 11
2609.566757
 21
1175.566757
 31
0.0
  0
LINE
  5
2A2
100
AcDbEntity
  8
LAY-1
  6
CONTINUOUS
 62
     2
100
AcDbLine
 10
2569.968777
 20
1172.031223
 30
0.0
 11
2566.433243
 21
1175.566757
 31
0.0
  0
LINE
  5
2A3
100
AcDbEntity
  8
LAY-1
  6
CONTINUOUS
 62
     2
100
AcDbLine
 10
2606.031223
 20
1135.968777
 30
0.0
 11
2609.566757
 21
1132.433243
 31
0.0
  0
LINE
  5
2A4
100
AcDbEntity
  8
LAY-1
  6
CONTINUOUS
 62
     2
100
AcDbLine
 10
2569.968777
 20
1135.968777
 30
0.0
 11
2566.433243
 21
1132.433243
 31
0.0
  0
ARC
  5
2A5
100
AcDbEntity
  8
LAY-1
  6
CONTINUOUS
 62
     2
100
AcDbCircle
 10
2588.0
 20
1154.0
 30
0.0
 40
25.5
100
AcDbArc
 50
315.0
 51
225.0
  0
ARC
  5
2A6
100
AcDbEntity
  8
LAY-1
  6
CONTINUOUS
 62
     2
100
AcDbCircle
 10
2588.0
 20
1154.0
 30
0.0
 40
30.5
100
AcDbArc
 50
315.0
 51
225.0
  0
POLYLINE
  5
2A7
100
AcDbEntity
  8
LAY-1
  6
CONTINUOUS
 62
     2
100
AcDb2dPolyline
 66
     1
 10
0.0
 20
0.0
 30
0.0
 70
   128
  0
VERTEX
  5
2A8
100
AcDbEntity
  8
LAY-1
  6
CONTINUOUS
 62
     2
100
AcDbVertex
100
AcDb2dVertex
 10
2687.407001
 20
1152.089934
 30
0.0
  0
VERTEX
  5
2A9
100
AcDbEntity
  8
LAY-1
  6
CONTINUOUS
 62
     2
100
AcDbVertex
100
AcDb2dVertex
 10
2669.968777
 20
1135.968777
 30
0.0
  0
SEQEND
  5
2AA
100
AcDbEntity
  8
LAY-1
  6
CONTINUOUS
 62
     2
  0
ARC
  5
2AB
100
AcDbEntity
  8
LAY-1
  6
CONTINUOUS
 62
     2
100
AcDbCircle
 10
2688.0
 20
1154.0
 30
0.0
 40
2.0
100
AcDbArc
 50
252.75253
 51
7.896801
  0
POLYLINE
  5
2AC
100
AcDbEntity
  8
LAY-1
  6
CONTINUOUS
 62
     2
100
AcDb2dPolyline
 66
     1
 10
0.0
 20
0.0
 30
0.0
 70
   128
  0
VERTEX
  5
2AD
100
AcDbEntity
  8
LAY-1
  6
CONTINUOUS
 62
     2
100
AcDbVertex
100
AcDb2dVertex
 10
2703.723453
 20
1164.971727
 30
0.0
  0
VERTEX
  5
2AE
100
AcDbEntity
  8
LAY-1
  6
CONTINUOUS
 62
     2
100
AcDbVertex
100
AcDb2dVertex
 10
2689.981034
 20
1154.274778
 30
0.0
  0
SEQEND
  5
2AF
100
AcDbEntity
  8
LAY-1
  6
CONTINUOUS
 62
     2
  0
ARC
  5
2B0
100
AcDbEntity
  8
LAY-1
  6
CONTINUOUS
 62
     2
100
AcDbCircle
 10
2703.109212
 20
1165.760846
 30
0.0
 40
1.0
100
AcDbArc
 50
307.896801
 51
45.0
  0
POLYLINE
  5
2B1
100
AcDbEntity
  8
LAY-1
  6
CONTINUOUS
 62
     2
100
AcDb2dPolyline
 66
     1
 10
0.0
 20
0.0
 30
0.0
 70
   128
  0
VERTEX
  5
2B2
100
AcDbEntity
  8
LAY-1
  6
CONTINUOUS
 62
     2
100
AcDbVertex
100
AcDb2dVertex
 10
2700.467953
 20
1169.816319
 30
0.0
  0
VERTEX
  5
2B3
100
AcDbEntity
  8
LAY-1
  6
CONTINUOUS
 62
     2
100
AcDbVertex
100
AcDb2dVertex
 10
2703.816319
 20
1166.467953
 30
0.0
  0
SEQEND
  5
2B4
100
AcDbEntity
  8
LAY-1
  6
CONTINUOUS
 62
     2
  0
ARC
  5
2B5
100
AcDbEntity
  8
LAY-1
  6
CONTINUOUS
 62
     2
100
AcDbCircle
 10
2699.760846
 20
1169.109212
 30
0.0
 40
1.0
100
AcDbArc
 50
45.0
 51
142.103199
  0
POLYLINE
  5
2B6
100
AcDbEntity
  8
LAY-1
  6
CONTINUOUS
 62
     2
100
AcDb2dPolyline
 66
     1
 10
0.0
 20
0.0
 30
0.0
 70
   128
  0
VERTEX
  5
2B7
100
AcDbEntity
  8
LAY-1
  6
CONTINUOUS
 62
     2
100
AcDbVertex
100
AcDb2dVertex
 10
2688.274778
 20
1155.981034
 30
0.0
  0
VERTEX
  5
2B8
100
AcDbEntity
  8
LAY-1
  6
CONTINUOUS
 62
     2
100
AcDbVertex
100
AcDb2dVertex
 10
2698.971727
 20
1169.723453
 30
0.0
  0
SEQEND
  5
2B9
100
AcDbEntity
  8
LAY-1
  6
CONTINUOUS
 62
     2
  0
ARC
  5
2BA
100
AcDbEntity
  8
LAY-1
  6
CONTINUOUS
 62
     2
100
AcDbCircle
 10
2688.0
 20
1154.0
 30
0.0
 40
2.0
100
AcDbArc
 50
82.103199
 51
197.24747
  0
POLYLINE
  5
2BB
100
AcDbEntity
  8
LAY-1
  6
CONTINUOUS
 62
     2
100
AcDb2dPolyline
 66
     1
 10
0.0
 20
0.0
 30
0.0
 70
   128
  0
VERTEX
  5
2BC
100
AcDbEntity
  8
LAY-1
  6
CONTINUOUS
 62
     2
100
AcDbVertex
100
AcDb2dVertex
 10
2669.968777
 20
1135.968777
 30
0.0
  0
VERTEX
  5
2BD
100
AcDbEntity
  8
LAY-1
  6
CONTINUOUS
 62
     2
100
AcDbVertex
100
AcDb2dVertex
 10
2686.089934
 20
1153.407001
 30
0.0
  0
SEQEND
  5
2BE
100
AcDbEntity
  8
LAY-1
  6
CONTINUOUS
 62
     2
  0
CIRCLE
  5
2BF
100
AcDbEntity
  8
LAY-1
  6
CONTINUOUS
 62
     2
100
AcDbCircle
 10
2688.0
 20
1154.0
 30
0.0
 40
1.0
  0
LINE
  5
2C0
100
AcDbEntity
  8
LAY-1
  6
CONTINUOUS
 62
     2
100
AcDbLine
 10
2669.968777
 20
1172.031223
 30
0.0
 11
2666.433243
 21
1175.566757
 31
0.0
  0
LINE
  5
2C1
100
AcDbEntity
  8
LAY-1
  6
CONTINUOUS
 62
     2
100
AcDbLine
 10
2706.031223
 20
1172.031223
 30
0.0
 11
2709.566757
 21
1175.566757
 31
0.0
  0
LINE
  5
2C2
100
AcDbEntity
  8
LAY-1
  6
CONTINUOUS
 62
     2
100
AcDbLine
 10
2669.968777
 20
1135.968777
 30
0.0
 11
2666.433243
 21
1132.433243
 31
0.0
  0
LINE
  5
2C3
100
AcDbEntity
  8
LAY-1
  6
CONTINUOUS
 62
     2
100
AcDbLine
 10
2706.031223
 20
1135.968777
 30
0.0
 11
2709.566757
 21
1132.433243
 31
0.0
  0
ARC
  5
2C4
100
AcDbEntity
  8
LAY-1
  6
CONTINUOUS
 62
     2
100
AcDbCircle
 10
2688.0
 20
1154.0
 30
0.0
 40
25.5
100
AcDbArc
 50
315.0
 51
225.0
  0
ARC
  5
2C5
100
AcDbEntity
  8
LAY-1
  6
CONTINUOUS
 62
     2
100
AcDbCircle
 10
2688.0
 20
1154.0
 30
0.0
 40
30.5
100
AcDbArc
 50
315.0
 51
225.0
  0
ARC
  5
2C6
100
AcDbEntity
  8
LAY-1
  6
CONTINUOUS
 62
     2
100
AcDbCircle
 10
2503.0
 20
1141.0
 30
0.0
 40
4.0
100
AcDbArc
 50
0.0
 51
180.0
  0
ARC
  5
2C7
100
AcDbEntity
  8
LAY-1
  6
CONTINUOUS
 62
     2
100
AcDbCircle
 10
2503.0
 20
1103.0
 30
0.0
 40
4.0
100
AcDbArc
 50
180.0
 51
0.0
  0
LINE
  5
2C8
100
AcDbEntity
  8
LAY-1
  6
CONTINUOUS
 62
     2
100
AcDbLine
 10
2499.0
 20
1141.0
 30
0.0
 11
2499.0
 21
1103.0
 31
0.0
  0
LINE
  5
2C9
100
AcDbEntity
  8
LAY-1
  6
CONTINUOUS
 62
     2
100
AcDbLine
 10
2507.0
 20
1141.0
 30
0.0
 11
2507.0
 21
1103.0
 31
0.0
  0
ARC
  5
2CA
100
AcDbEntity
  8
LAY-1
  6
CONTINUOUS
 62
     2
100
AcDbCircle
 10
2503.0
 20
1221.0
 30
0.0
 40
4.0
100
AcDbArc
 50
0.0
 51
180.0
  0
ARC
  5
2CB
100
AcDbEntity
  8
LAY-1
  6
CONTINUOUS
 62
     2
100
AcDbCircle
 10
2503.0
 20
1183.0
 30
0.0
 40
4.0
100
AcDbArc
 50
180.0
 51
0.0
  0
LINE
  5
2CC
100
AcDbEntity
  8
LAY-1
  6
CONTINUOUS
 62
     2
100
AcDbLine
 10
2499.0
 20
1221.0
 30
0.0
 11
2499.0
 21
1183.0
 31
0.0
  0
LINE
  5
2CD
100
AcDbEntity
  8
LAY-1
  6
CONTINUOUS
 62
     2
100
AcDbLine
 10
2507.0
 20
1221.0
 30
0.0
 11
2507.0
 21
1183.0
 31
0.0
  0
ARC
  5
2CE
100
AcDbEntity
  8
LAY-1
  6
CONTINUOUS
 62
     2
100
AcDbCircle
 10
2773.0
 20
1141.0
 30
0.0
 40
4.0
100
AcDbArc
 50
0.0
 51
180.0
  0
ARC
  5
2CF
100
AcDbEntity
  8
LAY-1
  6
CONTINUOUS
 62
     2
100
AcDbCircle
 10
2773.0
 20
1103.0
 30
0.0
 40
4.0
100
AcDbArc
 50
180.0
 51
0.0
  0
LINE
  5
2D0
100
AcDbEntity
  8
LAY-1
  6
CONTINUOUS
 62
     2
100
AcDbLine
 10
2777.0
 20
1141.0
 30
0.0
 11
2777.0
 21
1103.0
 31
0.0
  0
LINE
  5
2D1
100
AcDbEntity
  8
LAY-1
  6
CONTINUOUS
 62
     2
100
AcDbLine
 10
2769.0
 20
1141.0
 30
0.0
 11
2769.0
 21
1103.0
 31
0.0
  0
ARC
  5
2D2
100
AcDbEntity
  8
LAY-1
  6
CONTINUOUS
 62
     2
100
AcDbCircle
 10
2795.5
 20
1141.0
 30
0.0
 40
4.0
100
AcDbArc
 50
0.0
 51
180.0
  0
ARC
  5
2D3
100
AcDbEntity
  8
LAY-1
  6
CONTINUOUS
 62
     2
100
AcDbCircle
 10
2795.5
 20
1103.0
 30
0.0
 40
4.0
100
AcDbArc
 50
180.0
 51
0.0
  0
LINE
  5
2D4
100
AcDbEntity
  8
LAY-1
  6
CONTINUOUS
 62
     2
100
AcDbLine
 10
2799.5
 20
1141.0
 30
0.0
 11
2799.5
 21
1103.0
 31
0.0
  0
LINE
  5
2D5
100
AcDbEntity
  8
LAY-1
  6
CONTINUOUS
 62
     2
100
AcDbLine
 10
2791.5
 20
1141.0
 30
0.0
 11
2791.5
 21
1103.0
 31
0.0
  0
ARC
  5
2D6
100
AcDbEntity
  8
LAY-1
  6
CONTINUOUS
 62
     2
100
AcDbCircle
 10
2818.0
 20
1141.0
 30
0.0
 40
4.0
100
AcDbArc
 50
0.0
 51
180.0
  0
ARC
  5
2D7
100
AcDbEntity
  8
LAY-1
  6
CONTINUOUS
 62
     2
100
AcDbCircle
 10
2818.0
 20
1103.0
 30
0.0
 40
4.0
100
AcDbArc
 50
180.0
 51
0.0
  0
LINE
  5
2D8
100
AcDbEntity
  8
LAY-1
  6
CONTINUOUS
 62
     2
100
AcDbLine
 10
2822.0
 20
1141.0
 30
0.0
 11
2822.0
 21
1103.0
 31
0.0
  0
LINE
  5
2D9
100
AcDbEntity
  8
LAY-1
  6
CONTINUOUS
 62
     2
100
AcDbLine
 10
2814.0
 20
1141.0
 30
0.0
 11
2814.0
 21
1103.0
 31
0.0
  0
ARC
  5
2DA
100
AcDbEntity
  8
LAY-1
  6
CONTINUOUS
 62
     2
100
AcDbCircle
 10
2773.0
 20
1221.0
 30
0.0
 40
4.0
100
AcDbArc
 50
0.0
 51
180.0
  0
ARC
  5
2DB
100
AcDbEntity
  8
LAY-1
  6
CONTINUOUS
 62
     2
100
AcDbCircle
 10
2773.0
 20
1183.0
 30
0.0
 40
4.0
100
AcDbArc
 50
180.0
 51
0.0
  0
LINE
  5
2DC
100
AcDbEntity
  8
LAY-1
  6
CONTINUOUS
 62
     2
100
AcDbLine
 10
2777.0
 20
1221.0
 30
0.0
 11
2777.0
 21
1183.0
 31
0.0
  0
LINE
  5
2DD
100
AcDbEntity
  8
LAY-1
  6
CONTINUOUS
 62
     2
100
AcDbLine
 10
2769.0
 20
1221.0
 30
0.0
 11
2769.0
 21
1183.0
 31
0.0
  0
ARC
  5
2DE
100
AcDbEntity
  8
LAY-1
  6
CONTINUOUS
 62
     2
100
AcDbCircle
 10
2795.5
 20
1221.0
 30
0.0
 40
4.0
100
AcDbArc
 50
0.0
 51
180.0
  0
ARC
  5
2DF
100
AcDbEntity
  8
LAY-1
  6
CONTINUOUS
 62
     2
100
AcDbCircle
 10
2795.5
 20
1183.0
 30
0.0
 40
4.0
100
AcDbArc
 50
180.0
 51
0.0
  0
LINE
  5
2E0
100
AcDbEntity
  8
LAY-1
  6
CONTINUOUS
 62
     2
100
AcDbLine
 10
2799.5
 20
1221.0
 30
0.0
 11
2799.5
 21
1183.0
 31
0.0
  0
LINE
  5
2E1
100
AcDbEntity
  8
LAY-1
  6
CONTINUOUS
 62
     2
100
AcDbLine
 10
2791.5
 20
1221.0
 30
0.0
 11
2791.5
 21
1183.0
 31
0.0
  0
ARC
  5
2E2
100
AcDbEntity
  8
LAY-1
  6
CONTINUOUS
 62
     2
100
AcDbCircle
 10
2818.0
 20
1221.0
 30
0.0
 40
4.0
100
AcDbArc
 50
0.0
 51
180.0
  0
ARC
  5
2E3
100
AcDbEntity
  8
LAY-1
  6
CONTINUOUS
 62
     2
100
AcDbCircle
 10
2818.0
 20
1183.0
 30
0.0
 40
4.0
100
AcDbArc
 50
180.0
 51
0.0
  0
LINE
  5
2E4
100
AcDbEntity
  8
LAY-1
  6
CONTINUOUS
 62
     2
100
AcDbLine
 10
2822.0
 20
1221.0
 30
0.0
 11
2822.0
 21
1183.0
 31
0.0
  0
LINE
  5
2E5
100
AcDbEntity
  8
LAY-1
  6
CONTINUOUS
 62
     2
100
AcDbLine
 10
2814.0
 20
1221.0
 30
0.0
 11
2814.0
 21
1183.0
 31
0.0
  0
ARC
  5
2E6
100
AcDbEntity
  8
LAY-1
  6
CONTINUOUS
 62
     2
100
AcDbCircle
 10
2458.0
 20
1301.0
 30
0.0
 40
4.0
100
AcDbArc
 50
0.0
 51
180.0
  0
ARC
  5
2E7
100
AcDbEntity
  8
LAY-1
  6
CONTINUOUS
 62
     2
100
AcDbCircle
 10
2458.0
 20
1263.0
 30
0.0
 40
4.0
100
AcDbArc
 50
180.0
 51
0.0
  0
LINE
  5
2E8
100
AcDbEntity
  8
LAY-1
  6
CONTINUOUS
 62
     2
100
AcDbLine
 10
2462.0
 20
1301.0
 30
0.0
 11
2462.0
 21
1263.0
 31
0.0
  0
LINE
  5
2E9
100
AcDbEntity
  8
LAY-1
  6
CONTINUOUS
 62
     2
100
AcDbLine
 10
2454.0
 20
1301.0
 30
0.0
 11
2454.0
 21
1263.0
 31
0.0
  0
ARC
  5
2EA
100
AcDbEntity
  8
LAY-1
  6
CONTINUOUS
 62
     2
100
AcDbCircle
 10
2480.5
 20
1301.0
 30
0.0
 40
4.0
100
AcDbArc
 50
0.0
 51
180.0
  0
ARC
  5
2EB
100
AcDbEntity
  8
LAY-1
  6
CONTINUOUS
 62
     2
100
AcDbCircle
 10
2480.5
 20
1263.0
 30
0.0
 40
4.0
100
AcDbArc
 50
180.0
 51
0.0
  0
LINE
  5
2EC
100
AcDbEntity
  8
LAY-1
  6
CONTINUOUS
 62
     2
100
AcDbLine
 10
2484.5
 20
1301.0
 30
0.0
 11
2484.5
 21
1263.0
 31
0.0
  0
LINE
  5
2ED
100
AcDbEntity
  8
LAY-1
  6
CONTINUOUS
 62
     2
100
AcDbLine
 10
2476.5
 20
1301.0
 30
0.0
 11
2476.5
 21
1263.0
 31
0.0
  0
ARC
  5
2EE
100
AcDbEntity
  8
LAY-1
  6
CONTINUOUS
 62
     2
100
AcDbCircle
 10
2503.0
 20
1301.0
 30
0.0
 40
4.0
100
AcDbArc
 50
0.0
 51
180.0
  0
ARC
  5
2EF
100
AcDbEntity
  8
LAY-1
  6
CONTINUOUS
 62
     2
100
AcDbCircle
 10
2503.0
 20
1263.0
 30
0.0
 40
4.0
100
AcDbArc
 50
180.0
 51
0.0
  0
LINE
  5
2F0
100
AcDbEntity
  8
LAY-1
  6
CONTINUOUS
 62
     2
100
AcDbLine
 10
2507.0
 20
1301.0
 30
0.0
 11
2507.0
 21
1263.0
 31
0.0
  0
LINE
  5
2F1
100
AcDbEntity
  8
LAY-1
  6
CONTINUOUS
 62
     2
100
AcDbLine
 10
2499.0
 20
1301.0
 30
0.0
 11
2499.0
 21
1263.0
 31
0.0
  0
ARC
  5
2F2
100
AcDbEntity
  8
LAY-1
  6
CONTINUOUS
 62
     2
100
AcDbCircle
 10
2525.5
 20
1301.0
 30
0.0
 40
4.0
100
AcDbArc
 50
0.0
 51
180.0
  0
ARC
  5
2F3
100
AcDbEntity
  8
LAY-1
  6
CONTINUOUS
 62
     2
100
AcDbCircle
 10
2525.5
 20
1263.0
 30
0.0
 40
4.0
100
AcDbArc
 50
180.0
 51
0.0
  0
LINE
  5
2F4
100
AcDbEntity
  8
LAY-1
  6
CONTINUOUS
 62
     2
100
AcDbLine
 10
2529.5
 20
1301.0
 30
0.0
 11
2529.5
 21
1263.0
 31
0.0
  0
LINE
  5
2F5
100
AcDbEntity
  8
LAY-1
  6
CONTINUOUS
 62
     2
100
AcDbLine
 10
2521.5
 20
1301.0
 30
0.0
 11
2521.5
 21
1263.0
 31
0.0
  0
ARC
  5
2F6
100
AcDbEntity
  8
LAY-1
  6
CONTINUOUS
 62
     2
100
AcDbCircle
 10
2548.0
 20
1301.0
 30
0.0
 40
4.0
100
AcDbArc
 50
0.0
 51
180.0
  0
ARC
  5
2F7
100
AcDbEntity
  8
LAY-1
  6
CONTINUOUS
 62
     2
100
AcDbCircle
 10
2548.0
 20
1263.0
 30
0.0
 40
4.0
100
AcDbArc
 50
180.0
 51
0.0
  0
LINE
  5
2F8
100
AcDbEntity
  8
LAY-1
  6
CONTINUOUS
 62
     2
100
AcDbLine
 10
2552.0
 20
1301.0
 30
0.0
 11
2552.0
 21
1263.0
 31
0.0
  0
LINE
  5
2F9
100
AcDbEntity
  8
LAY-1
  6
CONTINUOUS
 62
     2
100
AcDbLine
 10
2544.0
 20
1301.0
 30
0.0
 11
2544.0
 21
1263.0
 31
0.0
  0
ARC
  5
2FA
100
AcDbEntity
  8
LAY-1
  6
CONTINUOUS
 62
     2
100
AcDbCircle
 10
2570.5
 20
1301.0
 30
0.0
 40
4.0
100
AcDbArc
 50
0.0
 51
180.0
  0
ARC
  5
2FB
100
AcDbEntity
  8
LAY-1
  6
CONTINUOUS
 62
     2
100
AcDbCircle
 10
2570.5
 20
1263.0
 30
0.0
 40
4.0
100
AcDbArc
 50
180.0
 51
0.0
  0
LINE
  5
2FC
100
AcDbEntity
  8
LAY-1
  6
CONTINUOUS
 62
     2
100
AcDbLine
 10
2574.5
 20
1301.0
 30
0.0
 11
2574.5
 21
1263.0
 31
0.0
  0
LINE
  5
2FD
100
AcDbEntity
  8
LAY-1
  6
CONTINUOUS
 62
     2
100
AcDbLine
 10
2566.5
 20
1301.0
 30
0.0
 11
2566.5
 21
1263.0
 31
0.0
  0
ARC
  5
2FE
100
AcDbEntity
  8
LAY-1
  6
CONTINUOUS
 62
     2
100
AcDbCircle
 10
2593.0
 20
1301.0
 30
0.0
 40
4.0
100
AcDbArc
 50
0.0
 51
180.0
  0
ARC
  5
2FF
100
AcDbEntity
  8
LAY-1
  6
CONTINUOUS
 62
     2
100
AcDbCircle
 10
2593.0
 20
1263.0
 30
0.0
 40
4.0
100
AcDbArc
 50
180.0
 51
0.0
  0
LINE
  5
300
100
AcDbEntity
  8
LAY-1
  6
CONTINUOUS
 62
     2
100
AcDbLine
 10
2597.0
 20
1301.0
 30
0.0
 11
2597.0
 21
1263.0
 31
0.0
  0
LINE
  5
301
100
AcDbEntity
  8
LAY-1
  6
CONTINUOUS
 62
     2
100
AcDbLine
 10
2589.0
 20
1301.0
 30
0.0
 11
2589.0
 21
1263.0
 31
0.0
  0
ARC
  5
302
100
AcDbEntity
  8
LAY-1
  6
CONTINUOUS
 62
     2
100
AcDbCircle
 10
2615.5
 20
1301.0
 30
0.0
 40
4.0
100
AcDbArc
 50
0.0
 51
180.0
  0
ARC
  5
303
100
AcDbEntity
  8
LAY-1
  6
CONTINUOUS
 62
     2
100
AcDbCircle
 10
2615.5
 20
1263.0
 30
0.0
 40
4.0
100
AcDbArc
 50
180.0
 51
0.0
  0
LINE
  5
304
100
AcDbEntity
  8
LAY-1
  6
CONTINUOUS
 62
     2
100
AcDbLine
 10
2619.5
 20
1301.0
 30
0.0
 11
2619.5
 21
1263.0
 31
0.0
  0
LINE
  5
305
100
AcDbEntity
  8
LAY-1
  6
CONTINUOUS
 62
     2
100
AcDbLine
 10
2611.5
 20
1301.0
 30
0.0
 11
2611.5
 21
1263.0
 31
0.0
  0
ARC
  5
306
100
AcDbEntity
  8
LAY-1
  6
CONTINUOUS
 62
     2
100
AcDbCircle
 10
2638.0
 20
1301.0
 30
0.0
 40
4.0
100
AcDbArc
 50
0.0
 51
180.0
  0
ARC
  5
307
100
AcDbEntity
  8
LAY-1
  6
CONTINUOUS
 62
     2
100
AcDbCircle
 10
2638.0
 20
1263.0
 30
0.0
 40
4.0
100
AcDbArc
 50
180.0
 51
0.0
  0
LINE
  5
308
100
AcDbEntity
  8
LAY-1
  6
CONTINUOUS
 62
     2
100
AcDbLine
 10
2642.0
 20
1301.0
 30
0.0
 11
2642.0
 21
1263.0
 31
0.0
  0
LINE
  5
309
100
AcDbEntity
  8
LAY-1
  6
CONTINUOUS
 62
     2
100
AcDbLine
 10
2634.0
 20
1301.0
 30
0.0
 11
2634.0
 21
1263.0
 31
0.0
  0
ARC
  5
30A
100
AcDbEntity
  8
LAY-1
  6
CONTINUOUS
 62
     2
100
AcDbCircle
 10
2660.5
 20
1301.0
 30
0.0
 40
4.0
100
AcDbArc
 50
0.0
 51
180.0
  0
ARC
  5
30B
100
AcDbEntity
  8
LAY-1
  6
CONTINUOUS
 62
     2
100
AcDbCircle
 10
2660.5
 20
1263.0
 30
0.0
 40
4.0
100
AcDbArc
 50
180.0
 51
0.0
  0
LINE
  5
30C
100
AcDbEntity
  8
LAY-1
  6
CONTINUOUS
 62
     2
100
AcDbLine
 10
2664.5
 20
1301.0
 30
0.0
 11
2664.5
 21
1263.0
 31
0.0
  0
LINE
  5
30D
100
AcDbEntity
  8
LAY-1
  6
CONTINUOUS
 62
     2
100
AcDbLine
 10
2656.5
 20
1301.0
 30
0.0
 11
2656.5
 21
1263.0
 31
0.0
  0
ARC
  5
30E
100
AcDbEntity
  8
LAY-1
  6
CONTINUOUS
 62
     2
100
AcDbCircle
 10
2683.0
 20
1301.0
 30
0.0
 40
4.0
100
AcDbArc
 50
0.0
 51
180.0
  0
ARC
  5
30F
100
AcDbEntity
  8
LAY-1
  6
CONTINUOUS
 62
     2
100
AcDbCircle
 10
2683.0
 20
1263.0
 30
0.0
 40
4.0
100
AcDbArc
 50
180.0
 51
0.0
  0
LINE
  5
310
100
AcDbEntity
  8
LAY-1
  6
CONTINUOUS
 62
     2
100
AcDbLine
 10
2687.0
 20
1301.0
 30
0.0
 11
2687.0
 21
1263.0
 31
0.0
  0
LINE
  5
311
100
AcDbEntity
  8
LAY-1
  6
CONTINUOUS
 62
     2
100
AcDbLine
 10
2679.0
 20
1301.0
 30
0.0
 11
2679.0
 21
1263.0
 31
0.0
  0
ARC
  5
312
100
AcDbEntity
  8
LAY-1
  6
CONTINUOUS
 62
     2
100
AcDbCircle
 10
2705.5
 20
1301.0
 30
0.0
 40
4.0
100
AcDbArc
 50
0.0
 51
180.0
  0
ARC
  5
313
100
AcDbEntity
  8
LAY-1
  6
CONTINUOUS
 62
     2
100
AcDbCircle
 10
2705.5
 20
1263.0
 30
0.0
 40
4.0
100
AcDbArc
 50
180.0
 51
0.0
  0
LINE
  5
314
100
AcDbEntity
  8
LAY-1
  6
CONTINUOUS
 62
     2
100
AcDbLine
 10
2709.5
 20
1301.0
 30
0.0
 11
2709.5
 21
1263.0
 31
0.0
  0
LINE
  5
315
100
AcDbEntity
  8
LAY-1
  6
CONTINUOUS
 62
     2
100
AcDbLine
 10
2701.5
 20
1301.0
 30
0.0
 11
2701.5
 21
1263.0
 31
0.0
  0
ARC
  5
316
100
AcDbEntity
  8
LAY-1
  6
CONTINUOUS
 62
     2
100
AcDbCircle
 10
2728.0
 20
1301.0
 30
0.0
 40
4.0
100
AcDbArc
 50
0.0
 51
180.0
  0
ARC
  5
317
100
AcDbEntity
  8
LAY-1
  6
CONTINUOUS
 62
     2
100
AcDbCircle
 10
2728.0
 20
1263.0
 30
0.0
 40
4.0
100
AcDbArc
 50
180.0
 51
0.0
  0
LINE
  5
318
100
AcDbEntity
  8
LAY-1
  6
CONTINUOUS
 62
     2
100
AcDbLine
 10
2732.0
 20
1301.0
 30
0.0
 11
2732.0
 21
1263.0
 31
0.0
  0
LINE
  5
319
100
AcDbEntity
  8
LAY-1
  6
CONTINUOUS
 62
     2
100
AcDbLine
 10
2724.0
 20
1301.0
 30
0.0
 11
2724.0
 21
1263.0
 31
0.0
  0
ARC
  5
31A
100
AcDbEntity
  8
LAY-1
  6
CONTINUOUS
 62
     2
100
AcDbCircle
 10
2750.5
 20
1301.0
 30
0.0
 40
4.0
100
AcDbArc
 50
0.0
 51
180.0
  0
ARC
  5
31B
100
AcDbEntity
  8
LAY-1
  6
CONTINUOUS
 62
     2
100
AcDbCircle
 10
2750.5
 20
1263.0
 30
0.0
 40
4.0
100
AcDbArc
 50
180.0
 51
0.0
  0
LINE
  5
31C
100
AcDbEntity
  8
LAY-1
  6
CONTINUOUS
 62
     2
100
AcDbLine
 10
2754.5
 20
1301.0
 30
0.0
 11
2754.5
 21
1263.0
 31
0.0
  0
LINE
  5
31D
100
AcDbEntity
  8
LAY-1
  6
CONTINUOUS
 62
     2
100
AcDbLine
 10
2746.5
 20
1301.0
 30
0.0
 11
2746.5
 21
1263.0
 31
0.0
  0
ARC
  5
31E
100
AcDbEntity
  8
LAY-1
  6
CONTINUOUS
 62
     2
100
AcDbCircle
 10
2773.0
 20
1301.0
 30
0.0
 40
4.0
100
AcDbArc
 50
0.0
 51
180.0
  0
ARC
  5
31F
100
AcDbEntity
  8
LAY-1
  6
CONTINUOUS
 62
     2
100
AcDbCircle
 10
2773.0
 20
1263.0
 30
0.0
 40
4.0
100
AcDbArc
 50
180.0
 51
0.0
  0
LINE
  5
320
100
AcDbEntity
  8
LAY-1
  6
CONTINUOUS
 62
     2
100
AcDbLine
 10
2777.0
 20
1301.0
 30
0.0
 11
2777.0
 21
1263.0
 31
0.0
  0
LINE
  5
321
100
AcDbEntity
  8
LAY-1
  6
CONTINUOUS
 62
     2
100
AcDbLine
 10
2769.0
 20
1301.0
 30
0.0
 11
2769.0
 21
1263.0
 31
0.0
  0
ARC
  5
322
100
AcDbEntity
  8
LAY-1
  6
CONTINUOUS
 62
     2
100
AcDbCircle
 10
2795.5
 20
1301.0
 30
0.0
 40
4.0
100
AcDbArc
 50
0.0
 51
180.0
  0
ARC
  5
323
100
AcDbEntity
  8
LAY-1
  6
CONTINUOUS
 62
     2
100
AcDbCircle
 10
2795.5
 20
1263.0
 30
0.0
 40
4.0
100
AcDbArc
 50
180.0
 51
0.0
  0
LINE
  5
324
100
AcDbEntity
  8
LAY-1
  6
CONTINUOUS
 62
     2
100
AcDbLine
 10
2799.5
 20
1301.0
 30
0.0
 11
2799.5
 21
1263.0
 31
0.0
  0
LINE
  5
325
100
AcDbEntity
  8
LAY-1
  6
CONTINUOUS
 62
     2
100
AcDbLine
 10
2791.5
 20
1301.0
 30
0.0
 11
2791.5
 21
1263.0
 31
0.0
  0
LINE
  5
326
100
AcDbEntity
  8
LAY-1
  6
CONTINUOUS
 62
     2
100
AcDbLine
 10
2814.0
 20
1301.0
 30
0.0
 11
2814.0
 21
1263.0
 31
0.0
  0
LINE
  5
327
100
AcDbEntity
  8
LAY-1
  6
CONTINUOUS
 62
     2
100
AcDbLine
 10
2822.0
 20
1301.0
 30
0.0
 11
2822.0
 21
1263.0
 31
0.0
  0
ARC
  5
328
100
AcDbEntity
  8
LAY-1
  6
CONTINUOUS
 62
     2
100
AcDbCircle
 10
2818.0
 20
1301.0
 30
0.0
 40
4.0
100
AcDbArc
 50
0.0
 51
180.0
  0
ARC
  5
329
100
AcDbEntity
  8
LAY-1
  6
CONTINUOUS
 62
     2
100
AcDbCircle
 10
2818.0
 20
1263.0
 30
0.0
 40
4.0
100
AcDbArc
 50
180.0
 51
0.0
  0
LINE
  5
32A
100
AcDbEntity
  8
LAY-1
  6
CONTINUOUS
 62
     2
100
AcDbLine
 10
2478.0
 20
1201.5
 30
0.0
 11
2468.0
 21
1201.5
 31
0.0
  0
LINE
  5
32B
100
AcDbEntity
  8
LAY-1
  6
CONTINUOUS
 62
     2
100
AcDbLine
 10
2468.0
 20
1201.5
 30
0.0
 11
2468.0
 21
1095.043561
 31
0.0
  0
LINE
  5
32C
100
AcDbEntity
  8
LAY-1
  6
CONTINUOUS
 62
     2
100
AcDbLine
 10
2478.0
 20
1201.5
 30
0.0
 11
2478.0
 21
1095.043561
 31
0.0
  0
ARC
  5
32D
100
AcDbEntity
  8
LAY-1
  6
CONTINUOUS
 62
     2
100
AcDbCircle
 10
2473.0
 20
1106.5
 30
0.0
 40
12.5
100
AcDbArc
 50
180.0
 51
0.0
  0
ARC
  5
32E
100
AcDbEntity
  8
LAY-1
  6
CONTINUOUS
 62
     2
100
AcDbCircle
 10
2473.0
 20
1201.5
 30
0.0
 40
12.5
100
AcDbArc
 50
0.0
 51
180.0
  0
LINE
  5
32F
100
AcDbEntity
  8
LAY-1
  6
CONTINUOUS
 62
     2
100
AcDbLine
 10
2460.5
 20
1201.5
 30
0.0
 11
2460.5
 21
1106.5
 31
0.0
  0
LINE
  5
330
100
AcDbEntity
  8
LAY-1
  6
CONTINUOUS
 62
     2
100
AcDbLine
 10
2485.5
 20
1201.5
 30
0.0
 11
2485.5
 21
1106.5
 31
0.0
  0
ARC
  5
331
100
AcDbEntity
  8
LAY-1
  6
CONTINUOUS
 62
     2
100
AcDbCircle
 10
2384.9905
 20
1146.607714
 30
0.0
 40
3.896364
100
AcDbArc
 50
312.232219
 51
58.953252
  0
ARC
  5
332
100
AcDbEntity
  8
LAY-1
  6
CONTINUOUS
 62
     2
100
AcDbCircle
 10
2374.565435
 20
1133.283674
 30
0.0
 40
15.065629
100
AcDbArc
 50
328.353731
 51
32.377391
  0
ARC
  5
333
100
AcDbEntity
  8
LAY-1
  6
CONTINUOUS
 62
     2
100
AcDbCircle
 10
2374.565435
 20
1114.716326
 30
0.0
 40
15.065629
100
AcDbArc
 50
327.622609
 51
31.646269
  0
ARC
  5
334
100
AcDbEntity
  8
LAY-1
  6
CONTINUOUS
 62
     2
100
AcDbCircle
 10
2384.9905
 20
1101.392286
 30
0.0
 40
3.896364
100
AcDbArc
 50
301.046748
 51
47.767781
  0
ARC
  5
335
100
AcDbEntity
  8
LAY-1
  6
CONTINUOUS
 62
     2
100
AcDbCircle
 10
2436.25
 20
1124.0
 30
0.0
 40
36.25
100
AcDbArc
 50
170.472717
 51
189.527283
  0
ARC
  5
336
100
AcDbEntity
  8
LAY-1
  6
CONTINUOUS
 62
     2
100
AcDbCircle
 10
2407.8125
 20
1132.75
 30
0.0
 40
7.8125
100
AcDbArc
 50
159.390307
 51
200.609693
  0
LINE
  5
337
100
AcDbEntity
  8
LAY-1
  6
CONTINUOUS
 62
     2
100
AcDbLine
 10
2400.5
 20
1118.0
 30
0.0
 11
2406.0
 21
1118.0
 31
0.0
  0
LINE
  5
338
100
AcDbEntity
  8
LAY-1
  6
CONTINUOUS
 62
     2
100
AcDbLine
 10
2400.5
 20
1130.0
 30
0.0
 11
2406.0
 21
1130.0
 31
0.0
  0
LINE
  5
339
100
AcDbEntity
  8
LAY-1
  6
CONTINUOUS
 62
     2
100
AcDbLine
 10
2400.5
 20
1135.5
 30
0.0
 11
2406.0
 21
1135.5
 31
0.0
  0
LINE
  5
33A
100
AcDbEntity
  8
LAY-1
  6
CONTINUOUS
 62
     2
100
AcDbLine
 10
2400.0
 20
1115.25
 30
0.0
 11
2400.0
 21
1132.75
 31
0.0
  0
LINE
  5
33B
100
AcDbEntity
  8
LAY-1
  6
CONTINUOUS
 62
     2
100
AcDbLine
 10
2397.0
 20
1127.0
 30
0.0
 11
2400.0
 21
1127.0
 31
0.0
  0
LINE
  5
33C
100
AcDbEntity
  8
LAY-1
  6
CONTINUOUS
 62
     2
100
AcDbLine
 10
2397.0
 20
1121.0
 30
0.0
 11
2400.0
 21
1121.0
 31
0.0
  0
LINE
  5
33D
100
AcDbEntity
  8
LAY-1
  6
CONTINUOUS
 62
     2
100
AcDbLine
 10
2406.0
 20
1115.5
 30
0.0
 11
2407.0
 21
1115.5
 31
0.0
  0
LINE
  5
33E
100
AcDbEntity
  8
LAY-1
  6
CONTINUOUS
 62
     2
100
AcDbLine
 10
2406.0
 20
1132.5
 30
0.0
 11
2407.0
 21
1132.5
 31
0.0
  0
LINE
  5
33F
100
AcDbEntity
  8
LAY-1
  6
CONTINUOUS
 62
     2
100
AcDbLine
 10
2407.0
 20
1137.0
 30
0.0
 11
2414.0
 21
1137.0
 31
0.0
  0
LINE
  5
340
100
AcDbEntity
  8
LAY-1
  6
CONTINUOUS
 62
     2
100
AcDbLine
 10
2389.628562
 20
1121.371438
 30
0.0
 11
2397.0
 21
1121.371438
 31
0.0
  0
LINE
  5
341
100
AcDbEntity
  8
LAY-1
  6
CONTINUOUS
 62
     2
100
AcDbLine
 10
2389.628562
 20
1126.628562
 30
0.0
 11
2397.0
 21
1126.628562
 31
0.0
  0
ARC
  5
342
100
AcDbEntity
  8
LAY-1
  6
CONTINUOUS
 62
     2
100
AcDbCircle
 10
2389.628562
 20
1124.0
 30
0.0
 40
2.628562
100
AcDbArc
 50
90.0
 51
270.0
  0
LINE
  5
343
100
AcDbEntity
  8
LAY-1
  6
CONTINUOUS
 62
     2
100
AcDbLine
 10
2388.554089
 20
1151.5
 30
0.0
 11
2396.5
 21
1151.5
 31
0.0
  0
ARC
  5
344
100
AcDbEntity
  8
LAY-1
  6
CONTINUOUS
 62
     2
100
AcDbCircle
 10
2388.554089
 20
1149.945911
 30
0.0
 40
1.554089
100
AcDbArc
 50
90.0
 51
180.0
  0
LINE
  5
345
100
AcDbEntity
  8
LAY-1
  6
CONTINUOUS
 62
     2
100
AcDbLine
 10
2387.0
 20
1149.945911
 30
0.0
 11
2397.0
 21
1149.945911
 31
0.0
  0
LINE
  5
346
100
AcDbEntity
  8
LAY-1
  6
CONTINUOUS
 62
     2
100
AcDbLine
 10
2388.858674
 20
1140.487855
 30
0.0
 11
2397.0
 21
1140.487855
 31
0.0
  0
LINE
  5
347
100
AcDbEntity
  8
LAY-1
  6
CONTINUOUS
 62
     2
100
AcDbLine
 10
2388.858674
 20
1144.205204
 30
0.0
 11
2397.0
 21
1144.205204
 31
0.0
  0
ARC
  5
348
100
AcDbEntity
  8
LAY-1
  6
CONTINUOUS
 62
     2
100
AcDbCircle
 10
2388.858674
 20
1142.34653
 30
0.0
 40
1.858674
100
AcDbArc
 50
90.0
 51
270.0
  0
ARC
  5
349
100
AcDbEntity
  8
LAY-1
  6
CONTINUOUS
 62
     2
100
AcDbCircle
 10
2396.5
 20
1151.0
 30
0.0
 40
0.5
100
AcDbArc
 50
0.0
 51
90.0
  0
LINE
  5
34A
100
AcDbEntity
  8
LAY-1
  6
CONTINUOUS
 62
     2
100
AcDbLine
 10
2400.5
 20
1112.5
 30
0.0
 11
2406.0
 21
1112.5
 31
0.0
  0
LINE
  5
34B
100
AcDbEntity
  8
LAY-1
  6
CONTINUOUS
 62
     2
100
AcDbLine
 10
2407.0
 20
1111.0
 30
0.0
 11
2414.0
 21
1111.0
 31
0.0
  0
LINE
  5
34C
100
AcDbEntity
  8
LAY-1
  6
CONTINUOUS
 62
     2
100
AcDbLine
 10
2388.554089
 20
1096.5
 30
0.0
 11
2396.5
 21
1096.5
 31
0.0
  0
LINE
  5
34D
100
AcDbEntity
  8
LAY-1
  6
CONTINUOUS
 62
     2
100
AcDbLine
 10
2388.858674
 20
1107.512145
 30
0.0
 11
2397.0
 21
1107.512145
 31
0.0
  0
LINE
  5
34E
100
AcDbEntity
  8
LAY-1
  6
CONTINUOUS
 62
     2
100
AcDbLine
 10
2388.858674
 20
1103.794796
 30
0.0
 11
2397.0
 21
1103.794796
 31
0.0
  0
LINE
  5
34F
100
AcDbEntity
  8
LAY-1
  6
CONTINUOUS
 62
     2
100
AcDbLine
 10
2387.0
 20
1098.054089
 30
0.0
 11
2397.0
 21
1098.054089
 31
0.0
  0
ARC
  5
350
100
AcDbEntity
  8
LAY-1
  6
CONTINUOUS
 62
     2
100
AcDbCircle
 10
2388.858674
 20
1105.65347
 30
0.0
 40
1.858674
100
AcDbArc
 50
90.0
 51
270.0
  0
ARC
  5
351
100
AcDbEntity
  8
LAY-1
  6
CONTINUOUS
 62
     2
100
AcDbCircle
 10
2388.554089
 20
1098.054089
 30
0.0
 40
1.554089
100
AcDbArc
 50
180.0
 51
270.0
  0
ARC
  5
352
100
AcDbEntity
  8
LAY-1
  6
CONTINUOUS
 62
     2
100
AcDbCircle
 10
2396.5
 20
1097.0
 30
0.0
 40
0.5
100
AcDbArc
 50
270.0
 51
0.0
  0
LINE
  5
353
100
AcDbEntity
  8
LAY-1
  6
CONTINUOUS
 62
     2
100
AcDbLine
 10
2406.0
 20
1112.5
 30
0.0
 11
2406.0
 21
1135.5
 31
0.0
  0
ARC
  5
354
100
AcDbEntity
  8
LAY-1
  6
CONTINUOUS
 62
     2
100
AcDbCircle
 10
2407.8125
 20
1115.25
 30
0.0
 40
7.8125
100
AcDbArc
 50
159.390307
 51
200.609693
  0
LINE
  5
355
100
AcDbEntity
  8
LAY-1
  6
CONTINUOUS
 62
     2
100
AcDbLine
 10
2407.0
 20
1111.0
 30
0.0
 11
2407.0
 21
1137.0
 31
0.0
  0
LINE
  5
356
100
AcDbEntity
  8
LAY-1
  6
CONTINUOUS
 62
     2
100
AcDbLine
 10
2387.0
 20
1098.054089
 30
0.0
 11
2387.0
 21
1149.945911
 31
0.0
  0
LINE
  5
357
100
AcDbEntity
  8
LAY-1
  6
CONTINUOUS
 62
     2
100
AcDbLine
 10
2397.0
 20
1097.0
 30
0.0
 11
2397.0
 21
1151.0
 31
0.0
  0
LINE
  5
358
100
AcDbEntity
  8
LAY-1
  6
CONTINUOUS
 62
     2
100
AcDbLine
 10
2507.15
 20
1586.521447
 30
0.0
 11
2538.85
 21
1586.521447
 31
0.0
  0
LINE
  5
359
100
AcDbEntity
  8
LAY-1
  6
CONTINUOUS
 62
     2
100
AcDbLine
 10
2507.15
 20
1621.521447
 30
0.0
 11
2538.85
 21
1621.521447
 31
0.0
  0
LINE
  5
35A
100
AcDbEntity
  8
LAY-1
  6
CONTINUOUS
 62
     2
100
AcDbLine
 10
2538.85
 20
1621.521447
 30
0.0
 11
2538.85
 21
1586.521447
 31
0.0
  0
LINE
  5
35B
100
AcDbEntity
  8
LAY-1
  6
CONTINUOUS
 62
     2
100
AcDbLine
 10
2507.15
 20
1621.521447
 30
0.0
 11
2507.15
 21
1586.521447
 31
0.0
  0
LINE
  5
35C
100
AcDbEntity
  8
LAY-1
  6
CONTINUOUS
 62
     2
100
AcDbLine
 10
2737.0
 20
1347.2
 30
0.0
 11
2727.0
 21
1347.2
 31
0.0
  0
LINE
  5
35D
100
AcDbEntity
  8
LAY-1
  6
CONTINUOUS
 62
     2
100
AcDbLine
 10
2738.6
 20
1359.0
 30
0.0
 11
2738.6
 21
1345.6
 31
0.0
  0
LINE
  5
35E
100
AcDbEntity
  8
LAY-1
  6
CONTINUOUS
 62
     2
100
AcDbLine
 10
2763.765029
 20
1359.0
 30
0.0
 11
2763.765029
 21
1345.6
 31
0.0
  0
LINE
  5
35F
100
AcDbEntity
  8
LAY-1
  6
CONTINUOUS
 62
     2
100
AcDbLine
 10
2763.765029
 20
1359.0
 30
0.0
 11
2738.6
 21
1359.0
 31
0.0
  0
LINE
  5
360
100
AcDbEntity
  8
LAY-1
  6
CONTINUOUS
 62
     2
100
AcDbLine
 10
2765.365029
 20
1360.6
 30
0.0
 11
2737.0
 21
1360.6
 31
0.0
  0
LINE
  5
361
100
AcDbEntity
  8
LAY-1
  6
CONTINUOUS
 62
     2
100
AcDbLine
 10
2777.0
 20
1347.2
 30
0.0
 11
2765.365029
 21
1347.2
 31
0.0
  0
LINE
  5
362
100
AcDbEntity
  8
LAY-1
  6
CONTINUOUS
 62
     2
100
AcDbLine
 10
2727.0
 20
1347.2
 30
0.0
 11
2727.0
 21
1345.6
 31
0.0
  0
LINE
  5
363
100
AcDbEntity
  8
LAY-1
  6
CONTINUOUS
 62
     2
100
AcDbLine
 10
2737.0
 20
1360.6
 30
0.0
 11
2737.0
 21
1347.2
 31
0.0
  0
LINE
  5
364
100
AcDbEntity
  8
LAY-1
  6
CONTINUOUS
 62
     2
100
AcDbLine
 10
2777.0
 20
1347.2
 30
0.0
 11
2777.0
 21
1345.6
 31
0.0
  0
LINE
  5
365
100
AcDbEntity
  8
LAY-1
  6
CONTINUOUS
 62
     2
100
AcDbLine
 10
2765.365029
 20
1360.6
 30
0.0
 11
2765.365029
 21
1347.2
 31
0.0
  0
LINE
  5
366
100
AcDbEntity
  8
LAY-1
  6
CONTINUOUS
 62
     2
100
AcDbLine
 10
2822.0
 20
1345.6
 30
0.0
 11
2682.0
 21
1345.6
 31
0.0
  0
LINE
  5
367
100
AcDbEntity
  8
LAY-1
  6
CONTINUOUS
 62
     2
100
AcDbLine
 10
2682.0
 20
1345.6
 30
0.0
 11
2682.0
 21
1344.0
 31
0.0
  0
LINE
  5
368
100
AcDbEntity
  8
LAY-1
  6
CONTINUOUS
 62
     2
100
AcDbLine
 10
2822.0
 20
1345.6
 30
0.0
 11
2822.0
 21
1344.0
 31
0.0
  0
LINE
  5
369
100
AcDbEntity
  8
LAY-1
  6
CONTINUOUS
 62
     2
100
AcDbLine
 10
2533.85
 20
1586.521447
 30
0.0
 11
2533.85
 21
1344.0
 31
0.0
  0
LINE
  5
36A
100
AcDbEntity
  8
LAY-1
  6
CONTINUOUS
 62
     2
100
AcDbLine
 10
2512.15
 20
1586.521447
 30
0.0
 11
2512.15
 21
1344.0
 31
0.0
  0
ARC
  5
36B
100
AcDbEntity
  8
LAY-1
  6
CONTINUOUS
 62
     2
100
AcDbCircle
 10
3471.0
 20
874.0
 30
0.0
 40
197.0
100
AcDbArc
 50
171.828766
 51
188.171234
  0
LINE
  5
36C
100
AcDbEntity
  8
LAY-1
  6
CONTINUOUS
 62
     2
100
AcDbLine
 10
3286.0
 20
844.0
 30
0.0
 11
3276.0
 21
844.0
 31
0.0
  0
LINE
  5
36D
100
AcDbEntity
  8
LAY-1
  6
CONTINUOUS
 62
     2
100
AcDbLine
 10
3286.0
 20
904.0
 30
0.0
 11
3276.0
 21
904.0
 31
0.0
  0
LINE
  5
36E
100
AcDbEntity
  8
LAY-1
  6
CONTINUOUS
 62
     2
100
AcDbLine
 10
3276.0
 20
904.0
 30
0.0
 11
3276.0
 21
844.0
 31
0.0
  0
LINE
  5
36F
100
AcDbEntity
  8
LAY-1
  6
CONTINUOUS
 62
     2
100
AcDbLine
 10
3286.0
 20
904.0
 30
0.0
 11
3286.0
 21
844.0
 31
0.0
  0
LINE
  5
370
100
AcDbEntity
  8
LAY-1
  6
CONTINUOUS
 62
     2
100
AcDbLine
 10
3288.0
 20
852.5
 30
0.0
 11
3286.0
 21
852.5
 31
0.0
  0
LINE
  5
371
100
AcDbEntity
  8
LAY-1
  6
CONTINUOUS
 62
     2
100
AcDbLine
 10
3288.0
 20
895.5
 30
0.0
 11
3286.0
 21
895.5
 31
0.0
  0
LINE
  5
372
100
AcDbEntity
  8
LAY-1
  6
CONTINUOUS
 62
     2
100
AcDbLine
 10
3291.0
 20
884.5
 30
0.0
 11
3288.0
 21
884.5
 31
0.0
  0
LINE
  5
373
100
AcDbEntity
  8
LAY-1
  6
CONTINUOUS
 62
     2
100
AcDbLine
 10
3291.0
 20
863.5
 30
0.0
 11
3288.0
 21
863.5
 31
0.0
  0
LINE
  5
374
100
AcDbEntity
  8
LAY-1
  6
CONTINUOUS
 62
     2
100
AcDbLine
 10
3288.0
 20
895.5
 30
0.0
 11
3288.0
 21
852.5
 31
0.0
  0
LINE
  5
375
100
AcDbEntity
  8
LAY-1
  6
CONTINUOUS
 62
     2
100
AcDbLine
 10
3300.0
 20
867.0
 30
0.0
 11
3292.0
 21
867.0
 31
0.0
  0
LINE
  5
376
100
AcDbEntity
  8
LAY-1
  6
CONTINUOUS
 62
     2
100
AcDbLine
 10
3300.0
 20
881.0
 30
0.0
 11
3292.0
 21
881.0
 31
0.0
  0
ARC
  5
377
100
AcDbEntity
  8
LAY-1
  6
CONTINUOUS
 62
     2
100
AcDbCircle
 10
3316.0
 20
874.0
 30
0.0
 40
25.0
100
AcDbArc
 50
163.739795
 51
196.260205
  0
ARC
  5
378
100
AcDbEntity
  8
LAY-1
  6
CONTINUOUS
 62
     2
100
AcDbCircle
 10
3297.625
 20
863.5
 30
0.0
 40
6.625
100
AcDbArc
 50
148.109208
 51
211.890792
  0
ARC
  5
379
100
AcDbEntity
  8
LAY-1
  6
CONTINUOUS
 62
     2
100
AcDbCircle
 10
3297.625
 20
884.5
 30
0.0
 40
6.625
100
AcDbArc
 50
148.109208
 51
211.890792
  0
LINE
  5
37A
100
AcDbEntity
  8
LAY-1
  6
CONTINUOUS
 62
     2
100
AcDbLine
 10
3300.0
 20
860.0
 30
0.0
 11
3292.0
 21
860.0
 31
0.0
  0
LINE
  5
37B
100
AcDbEntity
  8
LAY-1
  6
CONTINUOUS
 62
     2
100
AcDbLine
 10
3300.0
 20
888.0
 30
0.0
 11
3292.0
 21
888.0
 31
0.0
  0
LINE
  5
37C
100
AcDbEntity
  8
LAY-1
  6
CONTINUOUS
 62
     2
100
AcDbLine
 10
3291.0
 20
884.5
 30
0.0
 11
3291.0
 21
863.5
 31
0.0
  0
LINE
  5
37D
100
AcDbEntity
  8
LAY-1
  6
CONTINUOUS
 62
     2
100
AcDbLine
 10
3703.0
 20
1360.6
 30
0.0
 11
3685.0
 21
1360.6
 31
0.0
  0
LINE
  5
37E
100
AcDbEntity
  8
LAY-1
  6
CONTINUOUS
 62
     2
100
AcDbLine
 10
3703.0
 20
1347.2
 30
0.0
 11
3685.0
 21
1347.2
 31
0.0
  0
LINE
  5
37F
100
AcDbEntity
  8
LAY-1
  6
CONTINUOUS
 62
     2
100
AcDbLine
 10
3703.0
 20
1360.6
 30
0.0
 11
3703.0
 21
1345.6
 31
0.0
  0
LINE
  5
380
100
AcDbEntity
  8
LAY-1
  6
CONTINUOUS
 62
     2
100
AcDbLine
 10
3685.0
 20
1360.6
 30
0.0
 11
3685.0
 21
1345.6
 31
0.0
  0
LINE
  5
381
100
AcDbEntity
  8
LAY-1
  6
CONTINUOUS
 62
     2
100
AcDbLine
 10
3764.0
 20
1345.6
 30
0.0
 11
3624.0
 21
1345.6
 31
0.0
  0
LINE
  5
382
100
AcDbEntity
  8
LAY-1
  6
CONTINUOUS
 62
     2
100
AcDbLine
 10
3624.0
 20
1345.6
 30
0.0
 11
3624.0
 21
1344.0
 31
0.0
  0
LINE
  5
383
100
AcDbEntity
  8
LAY-1
  6
CONTINUOUS
 62
     2
100
AcDbLine
 10
3580.0
 20
1359.0
 30
0.0
 11
3564.0
 21
1359.0
 31
0.0
  0
LINE
  5
384
100
AcDbEntity
  8
LAY-1
  6
CONTINUOUS
 62
     2
100
AcDbLine
 10
3576.0
 20
1364.0
 30
0.0
 11
3568.0
 21
1364.0
 31
0.0
  0
LINE
  5
385
100
AcDbEntity
  8
LAY-1
  6
CONTINUOUS
 62
     2
100
AcDbLine
 10
3564.0
 20
1359.0
 30
0.0
 11
3562.0
 21
1344.0
 31
0.0
  0
LINE
  5
386
100
AcDbEntity
  8
LAY-1
  6
CONTINUOUS
 62
     2
100
AcDbLine
 10
3568.0
 20
1364.0
 30
0.0
 11
3564.0
 21
1359.0
 31
0.0
  0
LINE
  5
387
100
AcDbEntity
  8
LAY-1
  6
CONTINUOUS
 62
     2
100
AcDbLine
 10
3580.0
 20
1359.0
 30
0.0
 11
3582.0
 21
1344.0
 31
0.0
  0
LINE
  5
388
100
AcDbEntity
  8
LAY-1
  6
CONTINUOUS
 62
     2
100
AcDbLine
 10
3576.0
 20
1364.0
 30
0.0
 11
3580.0
 21
1359.0
 31
0.0
  0
ARC
  5
389
100
AcDbEntity
  8
LAY-1
  6
CONTINUOUS
 62
     2
100
AcDbCircle
 10
3572.0
 20
1388.5
 30
0.0
 40
4.0
100
AcDbArc
 50
0.0
 51
180.0
  0
LINE
  5
38A
100
AcDbEntity
  8
LAY-1
  6
CONTINUOUS
 62
     2
100
AcDbLine
 10
3576.0
 20
1388.5
 30
0.0
 11
3576.0
 21
1364.0
 31
0.0
  0
LINE
  5
38B
100
AcDbEntity
  8
LAY-1
  6
CONTINUOUS
 62
     2
100
AcDbLine
 10
3568.0
 20
1388.5
 30
0.0
 11
3568.0
 21
1364.0
 31
0.0
  0
LINE
  5
38C
100
AcDbEntity
  8
LAY-1
  6
CONTINUOUS
 62
     2
100
AcDbLine
 10
3764.0
 20
1345.6
 30
0.0
 11
3764.0
 21
1344.0
 31
0.0
  0
ARC
  5
38D
100
AcDbEntity
  8
LAY-1
  6
CONTINUOUS
 62
     2
100
AcDbCircle
 10
870.75
 20
1260.75125
 30
0.0
 40
9.53125
100
AcDbArc
 50
243.51896
 51
296.48104
  0
ARC
  5
38E
100
AcDbEntity
  8
LAY-1
  6
CONTINUOUS
 62
     2
100
AcDbCircle
 10
858.0
 20
1287.845
 30
0.0
 40
36.625
100
AcDbArc
 50
256.580326
 51
283.419674
  0
ARC
  5
38F
100
AcDbEntity
  8
LAY-1
  6
CONTINUOUS
 62
     2
100
AcDbCircle
 10
845.25
 20
1260.75125
 30
0.0
 40
9.53125
100
AcDbArc
 50
243.51896
 51
296.48104
  0
ARC
  5
390
100
AcDbEntity
  8
LAY-1
  6
CONTINUOUS
 62
     2
100
AcDbCircle
 10
870.75
 20
1286.68875
 30
0.0
 40
9.53125
100
AcDbArc
 50
63.51896
 51
116.48104
  0
ARC
  5
391
100
AcDbEntity
  8
LAY-1
  6
CONTINUOUS
 62
     2
100
AcDbCircle
 10
858.0
 20
1259.595
 30
0.0
 40
36.625
100
AcDbArc
 50
76.580326
 51
103.419674
  0
ARC
  5
392
100
AcDbEntity
  8
LAY-1
  6
CONTINUOUS
 62
     2
100
AcDbCircle
 10
845.25
 20
1286.68875
 30
0.0
 40
9.53125
100
AcDbArc
 50
63.51896
 51
116.48104
  0
LINE
  5
393
100
AcDbEntity
  8
LAY-1
  6
CONTINUOUS
 62
     2
100
AcDbLine
 10
875.0
 20
1297.22
 30
0.0
 11
875.0
 21
1320.22
 31
0.0
  0
LINE
  5
394
100
AcDbEntity
  8
LAY-1
  6
CONTINUOUS
 62
     2
100
AcDbLine
 10
875.0
 20
1252.22
 30
0.0
 11
875.0
 21
1295.22
 31
0.0
  0
LINE
  5
395
100
AcDbEntity
  8
LAY-1
  6
CONTINUOUS
 62
     2
100
AcDbLine
 10
841.0
 20
1252.22
 30
0.0
 11
841.0
 21
1295.22
 31
0.0
  0
LINE
  5
396
100
AcDbEntity
  8
LAY-1
  6
CONTINUOUS
 62
     2
100
AcDbLine
 10
849.5
 20
1252.22
 30
0.0
 11
849.5
 21
1295.22
 31
0.0
  0
LINE
  5
397
100
AcDbEntity
  8
LAY-1
  6
CONTINUOUS
 62
     2
100
AcDbLine
 10
866.5
 20
1252.22
 30
0.0
 11
866.5
 21
1295.22
 31
0.0
  0
ARC
  5
398
100
AcDbEntity
  8
LAY-1
  6
CONTINUOUS
 62
     2
100
AcDbCircle
 10
870.75
 20
1305.75125
 30
0.0
 40
9.53125
100
AcDbArc
 50
243.51896
 51
296.48104
  0
ARC
  5
399
100
AcDbEntity
  8
LAY-1
  6
CONTINUOUS
 62
     2
100
AcDbCircle
 10
858.0
 20
1332.845
 30
0.0
 40
36.625
100
AcDbArc
 50
256.580326
 51
283.419674
  0
ARC
  5
39A
100
AcDbEntity
  8
LAY-1
  6
CONTINUOUS
 62
     2
100
AcDbCircle
 10
845.25
 20
1305.75125
 30
0.0
 40
9.53125
100
AcDbArc
 50
243.51896
 51
296.48104
  0
LINE
  5
39B
100
AcDbEntity
  8
LAY-1
  6
CONTINUOUS
 62
     2
100
AcDbLine
 10
845.25
 20
1296.22
 30
0.0
 11
870.75
 21
1296.22
 31
0.0
  0
ARC
  5
39C
100
AcDbEntity
  8
LAY-1
  6
CONTINUOUS
 62
     2
100
AcDbCircle
 10
870.75
 20
1311.68875
 30
0.0
 40
9.53125
100
AcDbArc
 50
63.51896
 51
116.48104
  0
ARC
  5
39D
100
AcDbEntity
  8
LAY-1
  6
CONTINUOUS
 62
     2
100
AcDbCircle
 10
858.0
 20
1284.595
 30
0.0
 40
36.625
100
AcDbArc
 50
76.580326
 51
103.419674
  0
ARC
  5
39E
100
AcDbEntity
  8
LAY-1
  6
CONTINUOUS
 62
     2
100
AcDbCircle
 10
845.25
 20
1311.68875
 30
0.0
 40
9.53125
100
AcDbArc
 50
63.51896
 51
116.48104
  0
LINE
  5
39F
100
AcDbEntity
  8
LAY-1
  6
CONTINUOUS
 62
     2
100
AcDbLine
 10
841.0
 20
1320.22
 30
0.0
 11
841.0
 21
1297.22
 31
0.0
  0
LINE
  5
3A0
100
AcDbEntity
  8
LAY-1
  6
CONTINUOUS
 62
     2
100
AcDbLine
 10
849.5
 20
1320.22
 30
0.0
 11
849.5
 21
1297.22
 31
0.0
  0
LINE
  5
3A1
100
AcDbEntity
  8
LAY-1
  6
CONTINUOUS
 62
     2
100
AcDbLine
 10
866.5
 20
1320.22
 30
0.0
 11
866.5
 21
1297.22
 31
0.0
  0
LINE
  5
3A2
100
AcDbEntity
  8
LAY-1
  6
CONTINUOUS
 62
     2
100
AcDbLine
 10
845.25
 20
1251.22
 30
0.0
 11
870.75
 21
1251.22
 31
0.0
  0
LINE
  5
3A3
100
AcDbEntity
  8
LAY-1
  6
CONTINUOUS
 62
     2
100
AcDbLine
 10
845.25
 20
1321.22
 30
0.0
 11
870.75
 21
1321.22
 31
0.0
  0
LINE
  5
3A4
100
AcDbEntity
  8
LAY-1
  6
EXLTYPE3
 62
     1
100
AcDbLine
 10
1349.0
 20
1229.0
 30
0.0
 11
1539.0
 21
1229.0
 31
0.0
  0
LINE
  5
3A5
100
AcDbEntity
  8
LAY-1
  6
EXLTYPE3
 62
     1
100
AcDbLine
 10
1349.0
 20
1164.0
 30
0.0
 11
1539.0
 21
1164.0
 31
0.0
  0
LINE
  5
3A6
100
AcDbEntity
  8
LAY-1
  6
EXLTYPE3
 62
     1
100
AcDbLine
 10
2968.0
 20
2163.0
 30
0.0
 11
2308.0
 21
2163.0
 31
0.0
  0
LINE
  5
3A7
100
AcDbEntity
  8
LAY-1
  6
EXLTYPE3
 62
     1
100
AcDbLine
 10
2638.0
 20
2458.0
 30
0.0
 11
2638.0
 21
1868.0
 31
0.0
  0
LINE
  5
3A8
100
AcDbEntity
  8
LAY-1
  6
CONTINUOUS
 62
     2
100
AcDbLine
 10
2509.4
 20
2438.36
 30
0.0
 11
2509.4
 21
2402.0
 31
0.0
  0
LINE
  5
3A9
100
AcDbEntity
  8
LAY-1
  6
CONTINUOUS
 62
     2
100
AcDbLine
 10
2842.0
 20
1924.0
 30
0.0
 11
2434.0
 21
1924.0
 31
0.0
  0
LINE
  5
3AA
100
AcDbEntity
  8
LAY-1
  6
CONTINUOUS
 62
     2
100
AcDbLine
 10
2627.5
 20
1918.0
 30
0.0
 11
2378.0
 21
1918.0
 31
0.0
  0
LINE
  5
3AB
100
AcDbEntity
  8
LAY-1
  6
CONTINUOUS
 62
     2
100
AcDbLine
 10
2742.15
 20
2408.0
 30
0.0
 11
2536.6
 21
2408.0
 31
0.0
  0
LINE
  5
3AC
100
AcDbEntity
  8
LAY-1
  6
CONTINUOUS
 62
     2
100
AcDbLine
 10
2742.15
 20
2524.0
 30
0.0
 11
2742.15
 21
2402.0
 31
0.0
  0
LINE
  5
3AD
100
AcDbEntity
  8
LAY-1
  6
CONTINUOUS
 62
     2
100
AcDbLine
 10
2763.85
 20
2524.0
 30
0.0
 11
2763.85
 21
2402.0
 31
0.0
  0
LINE
  5
3AE
100
AcDbEntity
  8
LAY-1
  6
CONTINUOUS
 62
     2
100
AcDbLine
 10
2536.6
 20
2444.555891
 30
0.0
 11
2536.6
 21
2402.0
 31
0.0
  0
LINE
  5
3AF
100
AcDbEntity
  8
LAY-1
  6
CONTINUOUS
 62
     2
100
AcDbLine
 10
2509.4
 20
2408.0
 30
0.0
 11
2378.0
 21
2408.0
 31
0.0
  0
LINE
  5
3B0
100
AcDbEntity
  8
LAY-1
  6
CONTINUOUS
 62
     2
100
AcDbLine
 10
2414.0
 20
2196.291901
 30
0.0
 11
2414.0
 21
1944.0
 31
0.0
  0
LINE
  5
3B1
100
AcDbEntity
  8
LAY-1
  6
CONTINUOUS
 62
     2
100
AcDbLine
 10
2862.0
 20
2196.291901
 30
0.0
 11
2862.0
 21
1944.0
 31
0.0
  0
LINE
  5
3B2
100
AcDbEntity
  8
LAY-1
  6
CONTINUOUS
 62
     2
100
AcDbLine
 10
2727.0
 20
2331.0
 30
0.0
 11
2727.0
 21
2313.0
 31
0.0
  0
LINE
  5
3B3
100
AcDbEntity
  8
LAY-1
  6
CONTINUOUS
 62
     2
100
AcDbLine
 10
2777.0
 20
2331.0
 30
0.0
 11
2777.0
 21
2313.0
 31
0.0
  0
LINE
  5
3B4
100
AcDbEntity
  8
LAY-1
  6
CONTINUOUS
 62
     2
100
AcDbLine
 10
2737.0
 20
2331.0
 30
0.0
 11
2737.0
 21
2313.0
 31
0.0
  0
LINE
  5
3B5
100
AcDbEntity
  8
LAY-1
  6
CONTINUOUS
 62
     2
100
AcDbLine
 10
2767.0
 20
2331.0
 30
0.0
 11
2767.0
 21
2313.0
 31
0.0
  0
LINE
  5
3B6
100
AcDbEntity
  8
LAY-1
  6
CONTINUOUS
 62
     2
100
AcDbLine
 10
2777.0
 20
2331.0
 30
0.0
 11
2727.0
 21
2331.0
 31
0.0
  0
LINE
  5
3B7
100
AcDbEntity
  8
LAY-1
  6
CONTINUOUS
 62
     2
100
AcDbLine
 10
2777.0
 20
2313.0
 30
0.0
 11
2727.0
 21
2313.0
 31
0.0
  0
CIRCLE
  5
3B8
100
AcDbEntity
  8
LAY-1
  6
CONTINUOUS
 62
     2
100
AcDbCircle
 10
2752.0
 20
2322.0
 30
0.0
 40
70.0
  0
ARC
  5
3B9
100
AcDbEntity
  8
LAY-1
  6
CONTINUOUS
 62
     2
100
AcDbCircle
 10
2432.0
 20
2200.0
 30
0.0
 40
10.0
100
AcDbArc
 50
203.578178
 51
336.421822
  0
ARC
  5
3BA
100
AcDbEntity
  8
LAY-1
  6
CONTINUOUS
 62
     2
100
AcDbCircle
 10
2432.0
 20
2200.0
 30
0.0
 40
10.0
100
AcDbArc
 50
23.578178
 51
156.421822
  0
ARC
  5
3BB
100
AcDbEntity
  8
LAY-1
  6
CONTINUOUS
 62
     2
100
AcDbCircle
 10
2448.5
 20
2200.0
 30
0.0
 40
4.0
100
AcDbArc
 50
270.0
 51
90.0
  0
ARC
  5
3BC
100
AcDbEntity
  8
LAY-1
  6
CONTINUOUS
 62
     2
100
AcDbCircle
 10
2415.5
 20
2200.0
 30
0.0
 40
4.0
100
AcDbArc
 50
90.0
 51
270.0
  0
LINE
  5
3BD
100
AcDbEntity
  8
LAY-1
  6
CONTINUOUS
 62
     2
100
AcDbLine
 10
2415.5
 20
2196.0
 30
0.0
 11
2448.5
 21
2196.0
 31
0.0
  0
LINE
  5
3BE
100
AcDbEntity
  8
LAY-1
  6
CONTINUOUS
 62
     2
100
AcDbLine
 10
2415.5
 20
2204.0
 30
0.0
 11
2448.5
 21
2204.0
 31
0.0
  0
ARC
  5
3BF
100
AcDbEntity
  8
LAY-1
  6
CONTINUOUS
 62
     2
100
AcDbCircle
 10
2844.0
 20
2200.0
 30
0.0
 40
10.0
100
AcDbArc
 50
203.578178
 51
336.421822
  0
ARC
  5
3C0
100
AcDbEntity
  8
LAY-1
  6
CONTINUOUS
 62
     2
100
AcDbCircle
 10
2844.0
 20
2200.0
 30
0.0
 40
10.0
100
AcDbArc
 50
23.578178
 51
156.421822
  0
ARC
  5
3C1
100
AcDbEntity
  8
LAY-1
  6
CONTINUOUS
 62
     2
100
AcDbCircle
 10
2827.5
 20
2200.0
 30
0.0
 40
4.0
100
AcDbArc
 50
90.0
 51
270.0
  0
ARC
  5
3C2
100
AcDbEntity
  8
LAY-1
  6
CONTINUOUS
 62
     2
100
AcDbCircle
 10
2860.5
 20
2200.0
 30
0.0
 40
4.0
100
AcDbArc
 50
270.0
 51
90.0
  0
LINE
  5
3C3
100
AcDbEntity
  8
LAY-1
  6
CONTINUOUS
 62
     2
100
AcDbLine
 10
2860.5
 20
2204.0
 30
0.0
 11
2827.5
 21
2204.0
 31
0.0
  0
LINE
  5
3C4
100
AcDbEntity
  8
LAY-1
  6
CONTINUOUS
 62
     2
100
AcDbLine
 10
2860.5
 20
2196.0
 30
0.0
 11
2827.5
 21
2196.0
 31
0.0
  0
ARC
  5
3C5
100
AcDbEntity
  8
LAY-1
  6
CONTINUOUS
 62
     2
100
AcDbCircle
 10
2434.0
 20
1944.0
 30
0.0
 40
20.0
100
AcDbArc
 50
180.0
 51
270.0
  0
ARC
  5
3C6
100
AcDbEntity
  8
LAY-1
  6
CONTINUOUS
 62
     2
100
AcDbCircle
 10
2434.0
 20
2382.0
 30
0.0
 40
20.0
100
AcDbArc
 50
90.0
 51
180.0
  0
ARC
  5
3C7
100
AcDbEntity
  8
LAY-1
  6
CONTINUOUS
 62
     2
100
AcDbCircle
 10
2842.0
 20
1944.0
 30
0.0
 40
20.0
100
AcDbArc
 50
270.0
 51
0.0
  0
ARC
  5
3C8
100
AcDbEntity
  8
LAY-1
  6
CONTINUOUS
 62
     2
100
AcDbCircle
 10
2842.0
 20
2382.0
 30
0.0
 40
20.0
100
AcDbArc
 50
0.0
 51
90.0
  0
LINE
  5
3C9
100
AcDbEntity
  8
LAY-1
  6
CONTINUOUS
 62
     2
100
AcDbLine
 10
2842.0
 20
2402.0
 30
0.0
 11
2434.0
 21
2402.0
 31
0.0
  0
LINE
  5
3CA
100
AcDbEntity
  8
LAY-1
  6
CONTINUOUS
 62
     2
100
AcDbLine
 10
2842.0
 20
1924.0
 30
0.0
 11
2434.0
 21
1924.0
 31
0.0
  0
LINE
  5
3CB
100
AcDbEntity
  8
LAY-1
  6
CONTINUOUS
 62
     2
100
AcDbLine
 10
2414.0
 20
2382.0
 30
0.0
 11
2414.0
 21
2203.708099
 31
0.0
  0
LINE
  5
3CC
100
AcDbEntity
  8
LAY-1
  6
CONTINUOUS
 62
     2
100
AcDbLine
 10
2862.0
 20
2382.0
 30
0.0
 11
2862.0
 21
2203.708099
 31
0.0
  0
CIRCLE
  5
3CD
100
AcDbEntity
  8
LAY-1
  6
CONTINUOUS
 62
     2
100
AcDbCircle
 10
2378.0
 20
2003.0
 30
0.0
 40
7.5
  0
CIRCLE
  5
3CE
100
AcDbEntity
  8
LAY-1
  6
CONTINUOUS
 62
     2
100
AcDbCircle
 10
2898.0
 20
2003.0
 30
0.0
 40
7.5
  0
CIRCLE
  5
3CF
100
AcDbEntity
  8
LAY-1
  6
CONTINUOUS
 62
     2
100
AcDbCircle
 10
2898.0
 20
2323.0
 30
0.0
 40
7.5
  0
ARC
  5
3D0
100
AcDbEntity
  8
LAY-1
  6
CONTINUOUS
 62
     2
100
AcDbCircle
 10
2378.0
 20
2388.0
 30
0.0
 40
20.0
100
AcDbArc
 50
90.0
 51
180.0
  0
ARC
  5
3D1
100
AcDbEntity
  8
LAY-1
  6
CONTINUOUS
 62
     2
100
AcDbCircle
 10
2378.0
 20
1938.0
 30
0.0
 40
20.0
100
AcDbArc
 50
180.0
 51
270.0
  0
ARC
  5
3D2
100
AcDbEntity
  8
LAY-1
  6
CONTINUOUS
 62
     2
100
AcDbCircle
 10
2898.0
 20
1938.0
 30
0.0
 40
20.0
100
AcDbArc
 50
270.0
 51
0.0
  0
ARC
  5
3D3
100
AcDbEntity
  8
LAY-1
  6
CONTINUOUS
 62
     2
100
AcDbCircle
 10
2898.0
 20
2388.0
 30
0.0
 40
20.0
100
AcDbArc
 50
0.0
 51
90.0
  0
LINE
  5
3D4
100
AcDbEntity
  8
LAY-1
  6
CONTINUOUS
 62
     2
100
AcDbLine
 10
2918.0
 20
2388.0
 30
0.0
 11
2918.0
 21
1938.0
 31
0.0
  0
LINE
  5
3D5
100
AcDbEntity
  8
LAY-1
  6
CONTINUOUS
 62
     2
100
AcDbLine
 10
2898.0
 20
1918.0
 30
0.0
 11
2648.5
 21
1918.0
 31
0.0
  0
LINE
  5
3D6
100
AcDbEntity
  8
LAY-1
  6
CONTINUOUS
 62
     2
100
AcDbLine
 10
2898.0
 20
2408.0
 30
0.0
 11
2763.85
 21
2408.0
 31
0.0
  0
LINE
  5
3D7
100
AcDbEntity
  8
LAY-1
  6
CONTINUOUS
 62
     2
100
AcDbLine
 10
2573.0
 20
2522.0
 30
0.0
 11
2473.0
 21
2522.0
 31
0.0
  0
LINE
  5
3D8
100
AcDbEntity
  8
LAY-1
  6
CONTINUOUS
 62
     2
100
AcDbLine
 10
2573.0
 20
2537.0
 30
0.0
 11
2473.0
 21
2537.0
 31
0.0
  0
LINE
  5
3D9
100
AcDbEntity
  8
LAY-1
  6
CONTINUOUS
 62
     2
100
AcDbLine
 10
2495.0
 20
2538.0
 30
0.0
 11
2495.0
 21
2537.0
 31
0.0
  0
LINE
  5
3DA
100
AcDbEntity
  8
LAY-1
  6
CONTINUOUS
 62
     2
100
AcDbLine
 10
2551.0
 20
2538.0
 30
0.0
 11
2551.0
 21
2537.0
 31
0.0
  0
LINE
  5
3DB
100
AcDbEntity
  8
LAY-1
  6
CONTINUOUS
 62
     2
100
AcDbLine
 10
2473.0
 20
2537.0
 30
0.0
 11
2473.0
 21
2522.0
 31
0.0
  0
LINE
  5
3DC
100
AcDbEntity
  8
LAY-1
  6
CONTINUOUS
 62
     2
100
AcDbLine
 10
2573.0
 20
2537.0
 30
0.0
 11
2573.0
 21
2522.0
 31
0.0
  0
LINE
  5
3DD
100
AcDbEntity
  8
LAY-1
  6
CONTINUOUS
 62
     2
100
AcDbLine
 10
2551.0
 20
2538.0
 30
0.0
 11
2495.0
 21
2538.0
 31
0.0
  0
LINE
  5
3DE
100
AcDbEntity
  8
LAY-1
  6
CONTINUOUS
 62
     2
100
AcDbLine
 10
2509.5
 20
2444.382686
 30
0.0
 11
2509.5
 21
2438.5
 31
0.0
  0
ARC
  5
3DF
100
AcDbEntity
  8
LAY-1
  6
CONTINUOUS
 62
     2
100
AcDbCircle
 10
2470.9905
 20
2425.392286
 30
0.0
 40
3.896364
100
AcDbArc
 50
301.046748
 51
47.767781
  0
ARC
  5
3E0
100
AcDbEntity
  8
LAY-1
  6
CONTINUOUS
 62
     2
100
AcDbCircle
 10
2460.565435
 20
2438.716326
 30
0.0
 40
15.065629
100
AcDbArc
 50
327.622609
 51
31.646269
  0
ARC
  5
3E1
100
AcDbEntity
  8
LAY-1
  6
CONTINUOUS
 62
     2
100
AcDbCircle
 10
2460.565435
 20
2457.283674
 30
0.0
 40
15.065629
100
AcDbArc
 50
328.353731
 51
32.377391
  0
ARC
  5
3E2
100
AcDbEntity
  8
LAY-1
  6
CONTINUOUS
 62
     2
100
AcDbCircle
 10
2470.9905
 20
2470.607714
 30
0.0
 40
3.896364
100
AcDbArc
 50
312.232219
 51
58.953252
  0
LINE
  5
3E3
100
AcDbEntity
  8
LAY-1
  6
CONTINUOUS
 62
     2
100
AcDbLine
 10
2509.5
 20
2457.5
 30
0.0
 11
2512.89637
 21
2457.5
 31
0.0
  0
LINE
  5
3E4
100
AcDbEntity
  8
LAY-1
  6
CONTINUOUS
 62
     2
100
AcDbLine
 10
2509.5
 20
2438.5
 30
0.0
 11
2512.89637
 21
2438.5
 31
0.0
  0
ARC
  5
3E5
100
AcDbEntity
  8
LAY-1
  6
CONTINUOUS
 62
     2
100
AcDbCircle
 10
2522.25
 20
2448.0
 30
0.0
 40
36.25
100
AcDbArc
 50
170.472717
 51
189.527283
  0
ARC
  5
3E6
100
AcDbEntity
  8
LAY-1
  6
CONTINUOUS
 62
     2
100
AcDbCircle
 10
2493.8125
 20
2439.25
 30
0.0
 40
7.8125
100
AcDbArc
 50
159.390307
 51
200.609693
  0
LINE
  5
3E7
100
AcDbEntity
  8
LAY-1
  6
CONTINUOUS
 62
     2
100
AcDbLine
 10
2486.5
 20
2454.0
 30
0.0
 11
2492.0
 21
2454.0
 31
0.0
  0
LINE
  5
3E8
100
AcDbEntity
  8
LAY-1
  6
CONTINUOUS
 62
     2
100
AcDbLine
 10
2486.5
 20
2442.0
 30
0.0
 11
2492.0
 21
2442.0
 31
0.0
  0
LINE
  5
3E9
100
AcDbEntity
  8
LAY-1
  6
CONTINUOUS
 62
     2
100
AcDbLine
 10
2486.5
 20
2436.5
 30
0.0
 11
2492.0
 21
2436.5
 31
0.0
  0
LINE
  5
3EA
100
AcDbEntity
  8
LAY-1
  6
CONTINUOUS
 62
     2
100
AcDbLine
 10
2486.0
 20
2456.75
 30
0.0
 11
2486.0
 21
2439.25
 31
0.0
  0
LINE
  5
3EB
100
AcDbEntity
  8
LAY-1
  6
CONTINUOUS
 62
     2
100
AcDbLine
 10
2483.0
 20
2445.0
 30
0.0
 11
2486.0
 21
2445.0
 31
0.0
  0
LINE
  5
3EC
100
AcDbEntity
  8
LAY-1
  6
CONTINUOUS
 62
     2
100
AcDbLine
 10
2483.0
 20
2451.0
 30
0.0
 11
2486.0
 21
2451.0
 31
0.0
  0
LINE
  5
3ED
100
AcDbEntity
  8
LAY-1
  6
CONTINUOUS
 62
     2
100
AcDbLine
 10
2492.0
 20
2456.5
 30
0.0
 11
2493.0
 21
2456.5
 31
0.0
  0
LINE
  5
3EE
100
AcDbEntity
  8
LAY-1
  6
CONTINUOUS
 62
     2
100
AcDbLine
 10
2492.0
 20
2439.5
 30
0.0
 11
2493.0
 21
2439.5
 31
0.0
  0
LINE
  5
3EF
100
AcDbEntity
  8
LAY-1
  6
CONTINUOUS
 62
     2
100
AcDbLine
 10
2493.0
 20
2435.0
 30
0.0
 11
2507.0
 21
2435.0
 31
0.0
  0
LINE
  5
3F0
100
AcDbEntity
  8
LAY-1
  6
CONTINUOUS
 62
     2
100
AcDbLine
 10
2509.5
 20
2457.5
 30
0.0
 11
2509.5
 21
2451.617314
 31
0.0
  0
LINE
  5
3F1
100
AcDbEntity
  8
LAY-1
  6
CONTINUOUS
 62
     2
100
AcDbLine
 10
2507.0
 20
2435.0
 30
0.0
 11
2509.5
 21
2438.5
 31
0.0
  0
LINE
  5
3F2
100
AcDbEntity
  8
LAY-1
  6
CONTINUOUS
 62
     2
100
AcDbLine
 10
2475.628562
 20
2450.628562
 30
0.0
 11
2483.0
 21
2450.628562
 31
0.0
  0
LINE
  5
3F3
100
AcDbEntity
  8
LAY-1
  6
CONTINUOUS
 62
     2
100
AcDbLine
 10
2475.628562
 20
2445.371438
 30
0.0
 11
2483.0
 21
2445.371438
 31
0.0
  0
ARC
  5
3F4
100
AcDbEntity
  8
LAY-1
  6
CONTINUOUS
 62
     2
100
AcDbCircle
 10
2475.628562
 20
2448.0
 30
0.0
 40
2.628562
100
AcDbArc
 50
90.0
 51
270.0
  0
LINE
  5
3F5
100
AcDbEntity
  8
LAY-1
  6
CONTINUOUS
 62
     2
100
AcDbLine
 10
2474.554089
 20
2420.5
 30
0.0
 11
2482.5
 21
2420.5
 31
0.0
  0
ARC
  5
3F6
100
AcDbEntity
  8
LAY-1
  6
CONTINUOUS
 62
     2
100
AcDbCircle
 10
2474.554089
 20
2422.054089
 30
0.0
 40
1.554089
100
AcDbArc
 50
180.0
 51
270.0
  0
LINE
  5
3F7
100
AcDbEntity
  8
LAY-1
  6
CONTINUOUS
 62
     2
100
AcDbLine
 10
2473.0
 20
2422.054089
 30
0.0
 11
2483.0
 21
2422.054089
 31
0.0
  0
LINE
  5
3F8
100
AcDbEntity
  8
LAY-1
  6
CONTINUOUS
 62
     2
100
AcDbLine
 10
2474.858674
 20
2431.512145
 30
0.0
 11
2483.0
 21
2431.512145
 31
0.0
  0
LINE
  5
3F9
100
AcDbEntity
  8
LAY-1
  6
CONTINUOUS
 62
     2
100
AcDbLine
 10
2474.858674
 20
2427.794796
 30
0.0
 11
2483.0
 21
2427.794796
 31
0.0
  0
ARC
  5
3FA
100
AcDbEntity
  8
LAY-1
  6
CONTINUOUS
 62
     2
100
AcDbCircle
 10
2474.858674
 20
2429.65347
 30
0.0
 40
1.858674
100
AcDbArc
 50
90.0
 51
270.0
  0
ARC
  5
3FB
100
AcDbEntity
  8
LAY-1
  6
CONTINUOUS
 62
     2
100
AcDbCircle
 10
2482.5
 20
2421.0
 30
0.0
 40
0.5
100
AcDbArc
 50
270.0
 51
0.0
  0
LINE
  5
3FC
100
AcDbEntity
  8
LAY-1
  6
CONTINUOUS
 62
     2
100
AcDbLine
 10
2486.5
 20
2459.5
 30
0.0
 11
2492.0
 21
2459.5
 31
0.0
  0
LINE
  5
3FD
100
AcDbEntity
  8
LAY-1
  6
CONTINUOUS
 62
     2
100
AcDbLine
 10
2493.0
 20
2461.0
 30
0.0
 11
2507.0
 21
2461.0
 31
0.0
  0
LINE
  5
3FE
100
AcDbEntity
  8
LAY-1
  6
CONTINUOUS
 62
     2
100
AcDbLine
 10
2474.554089
 20
2475.5
 30
0.0
 11
2482.5
 21
2475.5
 31
0.0
  0
LINE
  5
3FF
100
AcDbEntity
  8
LAY-1
  6
CONTINUOUS
 62
     2
100
AcDbLine
 10
2474.858674
 20
2464.487855
 30
0.0
 11
2483.0
 21
2464.487855
 31
0.0
  0
LINE
  5
400
100
AcDbEntity
  8
LAY-1
  6
CONTINUOUS
 62
     2
100
AcDbLine
 10
2474.858674
 20
2468.205204
 30
0.0
 11
2483.0
 21
2468.205204
 31
0.0
  0
LINE
  5
401
100
AcDbEntity
  8
LAY-1
  6
CONTINUOUS
 62
     2
100
AcDbLine
 10
2473.0
 20
2473.945911
 30
0.0
 11
2483.0
 21
2473.945911
 31
0.0
  0
ARC
  5
402
100
AcDbEntity
  8
LAY-1
  6
CONTINUOUS
 62
     2
100
AcDbCircle
 10
2474.858674
 20
2466.34653
 30
0.0
 40
1.858674
100
AcDbArc
 50
90.0
 51
270.0
  0
ARC
  5
403
100
AcDbEntity
  8
LAY-1
  6
CONTINUOUS
 62
     2
100
AcDbCircle
 10
2474.554089
 20
2473.945911
 30
0.0
 40
1.554089
100
AcDbArc
 50
90.0
 51
180.0
  0
ARC
  5
404
100
AcDbEntity
  8
LAY-1
  6
CONTINUOUS
 62
     2
100
AcDbCircle
 10
2482.5
 20
2475.0
 30
0.0
 40
0.5
100
AcDbArc
 50
0.0
 51
90.0
  0
LINE
  5
405
100
AcDbEntity
  8
LAY-1
  6
CONTINUOUS
 62
     2
100
AcDbLine
 10
2492.0
 20
2459.5
 30
0.0
 11
2492.0
 21
2436.5
 31
0.0
  0
ARC
  5
406
100
AcDbEntity
  8
LAY-1
  6
CONTINUOUS
 62
     2
100
AcDbCircle
 10
2493.8125
 20
2456.75
 30
0.0
 40
7.8125
100
AcDbArc
 50
159.390307
 51
200.609693
  0
LINE
  5
407
100
AcDbEntity
  8
LAY-1
  6
CONTINUOUS
 62
     2
100
AcDbLine
 10
2493.0
 20
2461.0
 30
0.0
 11
2493.0
 21
2435.0
 31
0.0
  0
LINE
  5
408
100
AcDbEntity
  8
LAY-1
  6
CONTINUOUS
 62
     2
100
AcDbLine
 10
2507.0
 20
2461.0
 30
0.0
 11
2507.0
 21
2435.0
 31
0.0
  0
LINE
  5
409
100
AcDbEntity
  8
LAY-1
  6
CONTINUOUS
 62
     2
100
AcDbLine
 10
2507.0
 20
2461.0
 30
0.0
 11
2509.5
 21
2457.5
 31
0.0
  0
LINE
  5
40A
100
AcDbEntity
  8
LAY-1
  6
CONTINUOUS
 62
     2
100
AcDbLine
 10
2473.0
 20
2473.945911
 30
0.0
 11
2473.0
 21
2422.054089
 31
0.0
  0
LINE
  5
40B
100
AcDbEntity
  8
LAY-1
  6
CONTINUOUS
 62
     2
100
AcDbLine
 10
2483.0
 20
2475.0
 30
0.0
 11
2483.0
 21
2421.0
 31
0.0
  0
CIRCLE
  5
40C
100
AcDbEntity
  8
LAY-1
  6
CONTINUOUS
 62
     2
100
AcDbCircle
 10
2523.0
 20
2448.0
 30
0.0
 40
11.0
  0
POLYLINE
  5
40D
100
AcDbEntity
  8
LAY-1
  6
CONTINUOUS
 62
     2
100
AcDb2dPolyline
 66
     1
 10
0.0
 20
0.0
 30
0.0
 70
   128
  0
VERTEX
  5
40E
100
AcDbEntity
  8
LAY-1
  6
CONTINUOUS
 62
     2
100
AcDbVertex
100
AcDb2dVertex
 10
2515.205771
 20
2461.5
 30
0.0
  0
VERTEX
  5
40F
100
AcDbEntity
  8
LAY-1
  6
CONTINUOUS
 62
     2
100
AcDbVertex
100
AcDb2dVertex
 10
2507.411543
 20
2448.0
 30
0.0
  0
VERTEX
  5
410
100
AcDbEntity
  8
LAY-1
  6
CONTINUOUS
 62
     2
100
AcDbVertex
100
AcDb2dVertex
 10
2515.205771
 20
2434.5
 30
0.0
  0
VERTEX
  5
411
100
AcDbEntity
  8
LAY-1
  6
CONTINUOUS
 62
     2
100
AcDbVertex
100
AcDb2dVertex
 10
2530.794229
 20
2434.5
 30
0.0
  0
VERTEX
  5
412
100
AcDbEntity
  8
LAY-1
  6
CONTINUOUS
 62
     2
100
AcDbVertex
100
AcDb2dVertex
 10
2538.588457
 20
2448.0
 30
0.0
  0
VERTEX
  5
413
100
AcDbEntity
  8
LAY-1
  6
CONTINUOUS
 62
     2
100
AcDbVertex
100
AcDb2dVertex
 10
2530.794229
 20
2461.5
 30
0.0
  0
VERTEX
  5
414
100
AcDbEntity
  8
LAY-1
  6
CONTINUOUS
 62
     2
100
AcDbVertex
100
AcDb2dVertex
 10
2515.205771
 20
2461.5
 30
0.0
  0
SEQEND
  5
415
100
AcDbEntity
  8
LAY-1
  6
CONTINUOUS
 62
     2
  0
CIRCLE
  5
416
100
AcDbEntity
  8
LAY-1
  6
CONTINUOUS
 62
     2
100
AcDbCircle
 10
2523.0
 20
2448.0
 30
0.0
 40
13.5
  0
LINE
  5
417
100
AcDbEntity
  8
LAY-1
  6
CONTINUOUS
 62
     2
100
AcDbLine
 10
2509.4
 20
2522.0
 30
0.0
 11
2509.4
 21
2457.64
 31
0.0
  0
LINE
  5
418
100
AcDbEntity
  8
LAY-1
  6
CONTINUOUS
 62
     2
100
AcDbLine
 10
2800.5
 20
2537.0
 30
0.0
 11
2705.5
 21
2537.0
 31
0.0
  0
LINE
  5
419
100
AcDbEntity
  8
LAY-1
  6
CONTINUOUS
 62
     2
100
AcDbLine
 10
2800.5
 20
2524.0
 30
0.0
 11
2705.5
 21
2524.0
 31
0.0
  0
LINE
  5
41A
100
AcDbEntity
  8
LAY-1
  6
CONTINUOUS
 62
     2
100
AcDbLine
 10
2778.5
 20
2538.0
 30
0.0
 11
2727.5
 21
2538.0
 31
0.0
  0
LINE
  5
41B
100
AcDbEntity
  8
LAY-1
  6
CONTINUOUS
 62
     2
100
AcDbLine
 10
2800.5
 20
2537.0
 30
0.0
 11
2800.5
 21
2524.0
 31
0.0
  0
LINE
  5
41C
100
AcDbEntity
  8
LAY-1
  6
CONTINUOUS
 62
     2
100
AcDbLine
 10
2705.5
 20
2537.0
 30
0.0
 11
2705.5
 21
2524.0
 31
0.0
  0
LINE
  5
41D
100
AcDbEntity
  8
LAY-1
  6
CONTINUOUS
 62
     2
100
AcDbLine
 10
2778.5
 20
2538.0
 30
0.0
 11
2778.5
 21
2537.0
 31
0.0
  0
LINE
  5
41E
100
AcDbEntity
  8
LAY-1
  6
CONTINUOUS
 62
     2
100
AcDbLine
 10
2727.5
 20
2538.0
 30
0.0
 11
2727.5
 21
2537.0
 31
0.0
  0
LINE
  5
41F
100
AcDbEntity
  8
LAY-1
  6
CONTINUOUS
 62
     2
100
AcDbLine
 10
2536.6
 20
2522.0
 30
0.0
 11
2536.6
 21
2451.444109
 31
0.0
  0
ARC
  5
420
100
AcDbEntity
  8
LAY-1
  6
CONTINUOUS
 62
     2
100
AcDbCircle
 10
2384.9905
 20
2111.607714
 30
0.0
 40
3.896364
100
AcDbArc
 50
312.232219
 51
58.953252
  0
ARC
  5
421
100
AcDbEntity
  8
LAY-1
  6
CONTINUOUS
 62
     2
100
AcDbCircle
 10
2374.565435
 20
2098.283674
 30
0.0
 40
15.065629
100
AcDbArc
 50
328.353731
 51
32.377391
  0
ARC
  5
422
100
AcDbEntity
  8
LAY-1
  6
CONTINUOUS
 62
     2
100
AcDbCircle
 10
2374.565435
 20
2079.716326
 30
0.0
 40
15.065629
100
AcDbArc
 50
327.622609
 51
31.646269
  0
ARC
  5
423
100
AcDbEntity
  8
LAY-1
  6
CONTINUOUS
 62
     2
100
AcDbCircle
 10
2384.9905
 20
2066.392286
 30
0.0
 40
3.896364
100
AcDbArc
 50
301.046748
 51
47.767781
  0
ARC
  5
424
100
AcDbEntity
  8
LAY-1
  6
CONTINUOUS
 62
     2
100
AcDbCircle
 10
2436.25
 20
2089.0
 30
0.0
 40
36.25
100
AcDbArc
 50
170.472717
 51
189.527283
  0
ARC
  5
425
100
AcDbEntity
  8
LAY-1
  6
CONTINUOUS
 62
     2
100
AcDbCircle
 10
2407.8125
 20
2097.75
 30
0.0
 40
7.8125
100
AcDbArc
 50
159.390307
 51
200.609693
  0
LINE
  5
426
100
AcDbEntity
  8
LAY-1
  6
CONTINUOUS
 62
     2
100
AcDbLine
 10
2400.5
 20
2083.0
 30
0.0
 11
2406.0
 21
2083.0
 31
0.0
  0
LINE
  5
427
100
AcDbEntity
  8
LAY-1
  6
CONTINUOUS
 62
     2
100
AcDbLine
 10
2400.5
 20
2095.0
 30
0.0
 11
2406.0
 21
2095.0
 31
0.0
  0
LINE
  5
428
100
AcDbEntity
  8
LAY-1
  6
CONTINUOUS
 62
     2
100
AcDbLine
 10
2400.5
 20
2100.5
 30
0.0
 11
2406.0
 21
2100.5
 31
0.0
  0
LINE
  5
429
100
AcDbEntity
  8
LAY-1
  6
CONTINUOUS
 62
     2
100
AcDbLine
 10
2400.0
 20
2080.25
 30
0.0
 11
2400.0
 21
2097.75
 31
0.0
  0
LINE
  5
42A
100
AcDbEntity
  8
LAY-1
  6
CONTINUOUS
 62
     2
100
AcDbLine
 10
2397.0
 20
2092.0
 30
0.0
 11
2400.0
 21
2092.0
 31
0.0
  0
LINE
  5
42B
100
AcDbEntity
  8
LAY-1
  6
CONTINUOUS
 62
     2
100
AcDbLine
 10
2397.0
 20
2086.0
 30
0.0
 11
2400.0
 21
2086.0
 31
0.0
  0
LINE
  5
42C
100
AcDbEntity
  8
LAY-1
  6
CONTINUOUS
 62
     2
100
AcDbLine
 10
2406.0
 20
2080.5
 30
0.0
 11
2407.0
 21
2080.5
 31
0.0
  0
LINE
  5
42D
100
AcDbEntity
  8
LAY-1
  6
CONTINUOUS
 62
     2
100
AcDbLine
 10
2406.0
 20
2097.5
 30
0.0
 11
2407.0
 21
2097.5
 31
0.0
  0
LINE
  5
42E
100
AcDbEntity
  8
LAY-1
  6
CONTINUOUS
 62
     2
100
AcDbLine
 10
2407.0
 20
2102.0
 30
0.0
 11
2414.0
 21
2102.0
 31
0.0
  0
LINE
  5
42F
100
AcDbEntity
  8
LAY-1
  6
CONTINUOUS
 62
     2
100
AcDbLine
 10
2389.628562
 20
2086.371438
 30
0.0
 11
2397.0
 21
2086.371438
 31
0.0
  0
LINE
  5
430
100
AcDbEntity
  8
LAY-1
  6
CONTINUOUS
 62
     2
100
AcDbLine
 10
2389.628562
 20
2091.628562
 30
0.0
 11
2397.0
 21
2091.628562
 31
0.0
  0
ARC
  5
431
100
AcDbEntity
  8
LAY-1
  6
CONTINUOUS
 62
     2
100
AcDbCircle
 10
2389.628562
 20
2089.0
 30
0.0
 40
2.628562
100
AcDbArc
 50
90.0
 51
270.0
  0
LINE
  5
432
100
AcDbEntity
  8
LAY-1
  6
CONTINUOUS
 62
     2
100
AcDbLine
 10
2388.554089
 20
2116.5
 30
0.0
 11
2396.5
 21
2116.5
 31
0.0
  0
ARC
  5
433
100
AcDbEntity
  8
LAY-1
  6
CONTINUOUS
 62
     2
100
AcDbCircle
 10
2388.554089
 20
2114.945911
 30
0.0
 40
1.554089
100
AcDbArc
 50
90.0
 51
180.0
  0
LINE
  5
434
100
AcDbEntity
  8
LAY-1
  6
CONTINUOUS
 62
     2
100
AcDbLine
 10
2387.0
 20
2114.945911
 30
0.0
 11
2397.0
 21
2114.945911
 31
0.0
  0
LINE
  5
435
100
AcDbEntity
  8
LAY-1
  6
CONTINUOUS
 62
     2
100
AcDbLine
 10
2388.858674
 20
2105.487855
 30
0.0
 11
2397.0
 21
2105.487855
 31
0.0
  0
LINE
  5
436
100
AcDbEntity
  8
LAY-1
  6
CONTINUOUS
 62
     2
100
AcDbLine
 10
2388.858674
 20
2109.205204
 30
0.0
 11
2397.0
 21
2109.205204
 31
0.0
  0
ARC
  5
437
100
AcDbEntity
  8
LAY-1
  6
CONTINUOUS
 62
     2
100
AcDbCircle
 10
2388.858674
 20
2107.34653
 30
0.0
 40
1.858674
100
AcDbArc
 50
90.0
 51
270.0
  0
ARC
  5
438
100
AcDbEntity
  8
LAY-1
  6
CONTINUOUS
 62
     2
100
AcDbCircle
 10
2396.5
 20
2116.0
 30
0.0
 40
0.5
100
AcDbArc
 50
0.0
 51
90.0
  0
LINE
  5
439
100
AcDbEntity
  8
LAY-1
  6
CONTINUOUS
 62
     2
100
AcDbLine
 10
2400.5
 20
2077.5
 30
0.0
 11
2406.0
 21
2077.5
 31
0.0
  0
LINE
  5
43A
100
AcDbEntity
  8
LAY-1
  6
CONTINUOUS
 62
     2
100
AcDbLine
 10
2407.0
 20
2076.0
 30
0.0
 11
2414.0
 21
2076.0
 31
0.0
  0
LINE
  5
43B
100
AcDbEntity
  8
LAY-1
  6
CONTINUOUS
 62
     2
100
AcDbLine
 10
2388.554089
 20
2061.5
 30
0.0
 11
2396.5
 21
2061.5
 31
0.0
  0
LINE
  5
43C
100
AcDbEntity
  8
LAY-1
  6
CONTINUOUS
 62
     2
100
AcDbLine
 10
2388.858674
 20
2072.512145
 30
0.0
 11
2397.0
 21
2072.512145
 31
0.0
  0
LINE
  5
43D
100
AcDbEntity
  8
LAY-1
  6
CONTINUOUS
 62
     2
100
AcDbLine
 10
2388.858674
 20
2068.794796
 30
0.0
 11
2397.0
 21
2068.794796
 31
0.0
  0
LINE
  5
43E
100
AcDbEntity
  8
LAY-1
  6
CONTINUOUS
 62
     2
100
AcDbLine
 10
2387.0
 20
2063.054089
 30
0.0
 11
2397.0
 21
2063.054089
 31
0.0
  0
ARC
  5
43F
100
AcDbEntity
  8
LAY-1
  6
CONTINUOUS
 62
     2
100
AcDbCircle
 10
2388.858674
 20
2070.65347
 30
0.0
 40
1.858674
100
AcDbArc
 50
90.0
 51
270.0
  0
ARC
  5
440
100
AcDbEntity
  8
LAY-1
  6
CONTINUOUS
 62
     2
100
AcDbCircle
 10
2388.554089
 20
2063.054089
 30
0.0
 40
1.554089
100
AcDbArc
 50
180.0
 51
270.0
  0
ARC
  5
441
100
AcDbEntity
  8
LAY-1
  6
CONTINUOUS
 62
     2
100
AcDbCircle
 10
2396.5
 20
2062.0
 30
0.0
 40
0.5
100
AcDbArc
 50
270.0
 51
0.0
  0
LINE
  5
442
100
AcDbEntity
  8
LAY-1
  6
CONTINUOUS
 62
     2
100
AcDbLine
 10
2406.0
 20
2077.5
 30
0.0
 11
2406.0
 21
2100.5
 31
0.0
  0
ARC
  5
443
100
AcDbEntity
  8
LAY-1
  6
CONTINUOUS
 62
     2
100
AcDbCircle
 10
2407.8125
 20
2080.25
 30
0.0
 40
7.8125
100
AcDbArc
 50
159.390307
 51
200.609693
  0
LINE
  5
444
100
AcDbEntity
  8
LAY-1
  6
CONTINUOUS
 62
     2
100
AcDbLine
 10
2407.0
 20
2076.0
 30
0.0
 11
2407.0
 21
2102.0
 31
0.0
  0
LINE
  5
445
100
AcDbEntity
  8
LAY-1
  6
CONTINUOUS
 62
     2
100
AcDbLine
 10
2387.0
 20
2063.054089
 30
0.0
 11
2387.0
 21
2114.945911
 31
0.0
  0
LINE
  5
446
100
AcDbEntity
  8
LAY-1
  6
CONTINUOUS
 62
     2
100
AcDbLine
 10
2397.0
 20
2062.0
 30
0.0
 11
2397.0
 21
2116.0
 31
0.0
  0
CIRCLE
  5
447
100
AcDbEntity
  8
LAY-1
  6
CONTINUOUS
 62
     2
100
AcDbCircle
 10
2378.0
 20
2323.0
 30
0.0
 40
7.5
  0
ARC
  5
448
100
AcDbEntity
  8
LAY-1
  6
CONTINUOUS
 62
     2
100
AcDbCircle
 10
2638.0
 20
2099.0
 30
0.0
 40
197.0
100
AcDbArc
 50
261.828766
 51
278.171234
  0
LINE
  5
449
100
AcDbEntity
  8
LAY-1
  6
CONTINUOUS
 62
     2
100
AcDbLine
 10
2608.0
 20
1914.0
 30
0.0
 11
2608.0
 21
1904.0
 31
0.0
  0
LINE
  5
44A
100
AcDbEntity
  8
LAY-1
  6
CONTINUOUS
 62
     2
100
AcDbLine
 10
2668.0
 20
1914.0
 30
0.0
 11
2668.0
 21
1904.0
 31
0.0
  0
LINE
  5
44B
100
AcDbEntity
  8
LAY-1
  6
CONTINUOUS
 62
     2
100
AcDbLine
 10
2668.0
 20
1904.0
 30
0.0
 11
2608.0
 21
1904.0
 31
0.0
  0
LINE
  5
44C
100
AcDbEntity
  8
LAY-1
  6
CONTINUOUS
 62
     2
100
AcDbLine
 10
2668.0
 20
1914.0
 30
0.0
 11
2608.0
 21
1914.0
 31
0.0
  0
LINE
  5
44D
100
AcDbEntity
  8
LAY-1
  6
CONTINUOUS
 62
     2
100
AcDbLine
 10
2616.5
 20
1916.0
 30
0.0
 11
2616.5
 21
1914.0
 31
0.0
  0
LINE
  5
44E
100
AcDbEntity
  8
LAY-1
  6
CONTINUOUS
 62
     2
100
AcDbLine
 10
2659.5
 20
1916.0
 30
0.0
 11
2659.5
 21
1914.0
 31
0.0
  0
LINE
  5
44F
100
AcDbEntity
  8
LAY-1
  6
CONTINUOUS
 62
     2
100
AcDbLine
 10
2648.5
 20
1919.0
 30
0.0
 11
2648.5
 21
1916.0
 31
0.0
  0
LINE
  5
450
100
AcDbEntity
  8
LAY-1
  6
CONTINUOUS
 62
     2
100
AcDbLine
 10
2627.5
 20
1919.0
 30
0.0
 11
2627.5
 21
1916.0
 31
0.0
  0
LINE
  5
451
100
AcDbEntity
  8
LAY-1
  6
CONTINUOUS
 62
     2
100
AcDbLine
 10
2659.5
 20
1916.0
 30
0.0
 11
2616.5
 21
1916.0
 31
0.0
  0
LINE
  5
452
100
AcDbEntity
  8
LAY-1
  6
CONTINUOUS
 62
     2
100
AcDbLine
 10
2631.0
 20
1924.0
 30
0.0
 11
2631.0
 21
1920.0
 31
0.0
  0
LINE
  5
453
100
AcDbEntity
  8
LAY-1
  6
CONTINUOUS
 62
     2
100
AcDbLine
 10
2645.0
 20
1924.0
 30
0.0
 11
2645.0
 21
1920.0
 31
0.0
  0
ARC
  5
454
100
AcDbEntity
  8
LAY-1
  6
CONTINUOUS
 62
     2
100
AcDbCircle
 10
2638.0
 20
1944.0
 30
0.0
 40
25.0
100
AcDbArc
 50
253.739795
 51
286.260205
  0
ARC
  5
455
100
AcDbEntity
  8
LAY-1
  6
CONTINUOUS
 62
     2
100
AcDbCircle
 10
2627.5
 20
1925.625
 30
0.0
 40
6.625
100
AcDbArc
 50
238.109208
 51
301.890792
  0
ARC
  5
456
100
AcDbEntity
  8
LAY-1
  6
CONTINUOUS
 62
     2
100
AcDbCircle
 10
2648.5
 20
1925.625
 30
0.0
 40
6.625
100
AcDbArc
 50
238.109208
 51
301.890792
  0
LINE
  5
457
100
AcDbEntity
  8
LAY-1
  6
CONTINUOUS
 62
     2
100
AcDbLine
 10
2624.0
 20
1924.0
 30
0.0
 11
2624.0
 21
1920.0
 31
0.0
  0
LINE
  5
458
100
AcDbEntity
  8
LAY-1
  6
CONTINUOUS
 62
     2
100
AcDbLine
 10
2652.0
 20
1924.0
 30
0.0
 11
2652.0
 21
1920.0
 31
0.0
  0
LINE
  5
459
100
AcDbEntity
  8
LAY-1
  6
CONTINUOUS
 62
     2
100
AcDbLine
 10
2648.5
 20
1919.0
 30
0.0
 11
2627.5
 21
1919.0
 31
0.0
  0
CIRCLE
  5
45A
100
AcDbEntity
  8
LAY-1
  6
CONTINUOUS
 62
     2
100
AcDbCircle
 10
858.0
 20
1164.0
 30
0.0
 40
28.0
  0
CIRCLE
  5
45B
100
AcDbEntity
  8
LAY-1
  6
CONTINUOUS
 62
     2
100
AcDbCircle
 10
629.0
 20
1229.0
 30
0.0
 40
25.5
  0
CIRCLE
  5
45C
100
AcDbEntity
  8
LAY-1
  6
CONTINUOUS
 62
     2
100
AcDbCircle
 10
653.748737
 20
1204.251263
 30
0.0
 40
7.5
  0
CIRCLE
  5
45D
100
AcDbEntity
  8
LAY-1
  6
CONTINUOUS
 62
     2
100
AcDbCircle
 10
604.251263
 20
1204.251263
 30
0.0
 40
7.5
  0
CIRCLE
  5
45E
100
AcDbEntity
  8
LAY-1
  6
CONTINUOUS
 62
     2
100
AcDbCircle
 10
653.748737
 20
1253.748737
 30
0.0
 40
7.5
  0
CIRCLE
  5
45F
100
AcDbEntity
  8
LAY-1
  6
CONTINUOUS
 62
     2
100
AcDbCircle
 10
604.251263
 20
1253.748737
 30
0.0
 40
7.5
  0
LINE
  5
460
100
AcDbEntity
  8
LAY-1
  6
EXLTYPE3
 62
     1
100
AcDbLine
 10
573.8
 20
1229.0
 30
0.0
 11
681.0
 21
1229.0
 31
0.0
  0
LINE
  5
461
100
AcDbEntity
  8
LAY-1
  6
EXLTYPE3
 62
     1
100
AcDbLine
 10
629.0
 20
1283.0
 30
0.0
 11
629.0
 21
1169.4
 31
0.0
  0
LINE
  5
462
100
AcDbEntity
  8
LAY-1
  6
EXLTYPE3
 62
     1
100
AcDbLine
 10
800.7
 20
1164.0
 30
0.0
 11
916.1
 21
1164.0
 31
0.0
  0
CIRCLE
  5
463
100
AcDbEntity
  8
LAY-1
  6
CONTINUOUS
 62
     2
100
AcDbCircle
 10
629.0
 20
1229.0
 30
0.0
 40
8.05
  0
CIRCLE
  5
464
100
AcDbEntity
  8
LAY-1
  6
CONTINUOUS
 62
     2
100
AcDbCircle
 10
884.516504
 20
1137.483496
 30
0.0
 40
7.5
  0
CIRCLE
  5
465
100
AcDbEntity
  8
LAY-1
  6
CONTINUOUS
 62
     2
100
AcDbCircle
 10
831.483496
 20
1137.483496
 30
0.0
 40
7.5
  0
CIRCLE
  5
466
100
AcDbEntity
  8
LAY-1
  6
CONTINUOUS
 62
     2
100
AcDbCircle
 10
884.516504
 20
1190.516504
 30
0.0
 40
7.5
  0
CIRCLE
  5
467
100
AcDbEntity
  8
LAY-1
  6
CONTINUOUS
 62
     2
100
AcDbCircle
 10
831.483496
 20
1190.516504
 30
0.0
 40
7.5
  0
CIRCLE
  5
468
100
AcDbEntity
  8
LAY-1
  6
CONTINUOUS
 62
     2
100
AcDbCircle
 10
858.0
 20
1164.0
 30
0.0
 40
10.7
  0
LINE
  5
469
100
AcDbEntity
  8
LAY-1
  6
EXLTYPE3
 62
     1
100
AcDbLine
 10
858.0
 20
1624.0
 30
0.0
 11
858.0
 21
1105.8
 31
0.0
  0
LINE
  5
46A
100
AcDbEntity
  8
LAY-1
  6
EXLTYPE3
 62
     1
100
AcDbLine
 10
2365.0
 20
2003.0
 30
0.0
 11
2393.7
 21
2003.0
 31
0.0
  0
LINE
  5
46B
100
AcDbEntity
  8
LAY-1
  6
EXLTYPE3
 62
     1
100
AcDbLine
 10
2378.0
 20
2339.1
 30
0.0
 11
2378.0
 21
1987.1
 31
0.0
  0
LINE
  5
46C
100
AcDbEntity
  8
LAY-1
  6
EXLTYPE3
 62
     1
100
AcDbLine
 10
2365.0
 20
2323.0
 30
0.0
 11
2393.7
 21
2323.0
 31
0.0
  0
LINE
  5
46D
100
AcDbEntity
  8
LAY-1
  6
EXLTYPE3
 62
     1
100
AcDbLine
 10
2911.0
 20
2323.0
 30
0.0
 11
2882.3
 21
2323.0
 31
0.0
  0
LINE
  5
46E
100
AcDbEntity
  8
LAY-1
  6
EXLTYPE3
 62
     1
100
AcDbLine
 10
2898.0
 20
2339.1
 30
0.0
 11
2898.0
 21
1987.1
 31
0.0
  0
LINE
  5
46F
100
AcDbEntity
  8
LAY-1
  6
EXLTYPE3
 62
     1
100
AcDbLine
 10
2911.0
 20
2003.0
 30
0.0
 11
2882.3
 21
2003.0
 31
0.0
  0
ARC
  5
470
100
AcDbEntity
  8
LAY-1
  6
CONTINUOUS
 62
     2
100
AcDbCircle
 10
910.0095
 20
1246.327714
 30
0.0
 40
3.896364
100
AcDbArc
 50
121.046748
 51
227.767781
  0
ARC
  5
471
100
AcDbEntity
  8
LAY-1
  6
CONTINUOUS
 62
     2
100
AcDbCircle
 10
920.434565
 20
1233.003674
 30
0.0
 40
15.065629
100
AcDbArc
 50
147.622609
 51
211.646269
  0
ARC
  5
472
100
AcDbEntity
  8
LAY-1
  6
CONTINUOUS
 62
     2
100
AcDbCircle
 10
920.434565
 20
1214.436326
 30
0.0
 40
15.065629
100
AcDbArc
 50
148.353731
 51
212.377391
  0
ARC
  5
473
100
AcDbEntity
  8
LAY-1
  6
CONTINUOUS
 62
     2
100
AcDbCircle
 10
910.0095
 20
1201.112286
 30
0.0
 40
3.896364
100
AcDbArc
 50
132.232219
 51
238.953252
  0
ARC
  5
474
100
AcDbEntity
  8
LAY-1
  6
CONTINUOUS
 62
     2
100
AcDbCircle
 10
858.75
 20
1223.72
 30
0.0
 40
36.25
100
AcDbArc
 50
350.472717
 51
9.527283
  0
ARC
  5
475
100
AcDbEntity
  8
LAY-1
  6
CONTINUOUS
 62
     2
100
AcDbCircle
 10
887.1875
 20
1232.47
 30
0.0
 40
7.8125
100
AcDbArc
 50
339.390307
 51
20.609693
  0
LINE
  5
476
100
AcDbEntity
  8
LAY-1
  6
CONTINUOUS
 62
     2
100
AcDbLine
 10
895.0
 20
1214.97
 30
0.0
 11
895.0
 21
1232.47
 31
0.0
  0
LINE
  5
477
100
AcDbEntity
  8
LAY-1
  6
CONTINUOUS
 62
     2
100
AcDbLine
 10
898.0
 20
1226.72
 30
0.0
 11
895.0
 21
1226.72
 31
0.0
  0
LINE
  5
478
100
AcDbEntity
  8
LAY-1
  6
CONTINUOUS
 62
     2
100
AcDbLine
 10
898.0
 20
1220.72
 30
0.0
 11
895.0
 21
1220.72
 31
0.0
  0
LINE
  5
479
100
AcDbEntity
  8
LAY-1
  6
CONTINUOUS
 62
     2
100
AcDbLine
 10
905.371438
 20
1221.091438
 30
0.0
 11
898.0
 21
1221.091438
 31
0.0
  0
LINE
  5
47A
100
AcDbEntity
  8
LAY-1
  6
CONTINUOUS
 62
     2
100
AcDbLine
 10
905.371438
 20
1226.348562
 30
0.0
 11
898.0
 21
1226.348562
 31
0.0
  0
ARC
  5
47B
100
AcDbEntity
  8
LAY-1
  6
CONTINUOUS
 62
     2
100
AcDbCircle
 10
905.371438
 20
1223.72
 30
0.0
 40
2.628562
100
AcDbArc
 50
270.0
 51
90.0
  0
LINE
  5
47C
100
AcDbEntity
  8
LAY-1
  6
CONTINUOUS
 62
     2
100
AcDbLine
 10
906.445911
 20
1251.22
 30
0.0
 11
898.5
 21
1251.22
 31
0.0
  0
ARC
  5
47D
100
AcDbEntity
  8
LAY-1
  6
CONTINUOUS
 62
     2
100
AcDbCircle
 10
906.445911
 20
1249.665911
 30
0.0
 40
1.554089
100
AcDbArc
 50
0.0
 51
90.0
  0
LINE
  5
47E
100
AcDbEntity
  8
LAY-1
  6
CONTINUOUS
 62
     2
100
AcDbLine
 10
908.0
 20
1249.665911
 30
0.0
 11
898.0
 21
1249.665911
 31
0.0
  0
LINE
  5
47F
100
AcDbEntity
  8
LAY-1
  6
CONTINUOUS
 62
     2
100
AcDbLine
 10
906.141326
 20
1240.207855
 30
0.0
 11
898.0
 21
1240.207855
 31
0.0
  0
LINE
  5
480
100
AcDbEntity
  8
LAY-1
  6
CONTINUOUS
 62
     2
100
AcDbLine
 10
906.141326
 20
1243.925204
 30
0.0
 11
898.0
 21
1243.925204
 31
0.0
  0
ARC
  5
481
100
AcDbEntity
  8
LAY-1
  6
CONTINUOUS
 62
     2
100
AcDbCircle
 10
906.141326
 20
1242.06653
 30
0.0
 40
1.858674
100
AcDbArc
 50
270.0
 51
90.0
  0
ARC
  5
482
100
AcDbEntity
  8
LAY-1
  6
CONTINUOUS
 62
     2
100
AcDbCircle
 10
898.5
 20
1250.72
 30
0.0
 40
0.5
100
AcDbArc
 50
90.0
 51
180.0
  0
LINE
  5
483
100
AcDbEntity
  8
LAY-1
  6
CONTINUOUS
 62
     2
100
AcDbLine
 10
906.445911
 20
1196.22
 30
0.0
 11
898.5
 21
1196.22
 31
0.0
  0
LINE
  5
484
100
AcDbEntity
  8
LAY-1
  6
CONTINUOUS
 62
     2
100
AcDbLine
 10
906.141326
 20
1207.232145
 30
0.0
 11
898.0
 21
1207.232145
 31
0.0
  0
LINE
  5
485
100
AcDbEntity
  8
LAY-1
  6
CONTINUOUS
 62
     2
100
AcDbLine
 10
906.141326
 20
1203.514796
 30
0.0
 11
898.0
 21
1203.514796
 31
0.0
  0
LINE
  5
486
100
AcDbEntity
  8
LAY-1
  6
CONTINUOUS
 62
     2
100
AcDbLine
 10
908.0
 20
1197.774089
 30
0.0
 11
898.0
 21
1197.774089
 31
0.0
  0
ARC
  5
487
100
AcDbEntity
  8
LAY-1
  6
CONTINUOUS
 62
     2
100
AcDbCircle
 10
906.141326
 20
1205.37347
 30
0.0
 40
1.858674
100
AcDbArc
 50
270.0
 51
90.0
  0
ARC
  5
488
100
AcDbEntity
  8
LAY-1
  6
CONTINUOUS
 62
     2
100
AcDbCircle
 10
906.445911
 20
1197.774089
 30
0.0
 40
1.554089
100
AcDbArc
 50
270.0
 51
0.0
  0
ARC
  5
489
100
AcDbEntity
  8
LAY-1
  6
CONTINUOUS
 62
     2
100
AcDbCircle
 10
898.5
 20
1196.72
 30
0.0
 40
0.5
100
AcDbArc
 50
180.0
 51
270.0
  0
ARC
  5
48A
100
AcDbEntity
  8
LAY-1
  6
CONTINUOUS
 62
     2
100
AcDbCircle
 10
887.1875
 20
1214.97
 30
0.0
 40
7.8125
100
AcDbArc
 50
339.390307
 51
20.609693
  0
LINE
  5
48B
100
AcDbEntity
  8
LAY-1
  6
CONTINUOUS
 62
     2
100
AcDbLine
 10
908.0
 20
1197.774089
 30
0.0
 11
908.0
 21
1249.665911
 31
0.0
  0
LINE
  5
48C
100
AcDbEntity
  8
LAY-1
  6
CONTINUOUS
 62
     2
100
AcDbLine
 10
898.0
 20
1196.72
 30
0.0
 11
898.0
 21
1250.72
 31
0.0
  0
LINE
  5
48D
100
AcDbEntity
  8
LAY-1
  6
CONTINUOUS
 62
     2
100
AcDbLine
 10
894.5
 20
1212.22
 30
0.0
 11
889.0
 21
1212.22
 31
0.0
  0
LINE
  5
48E
100
AcDbEntity
  8
LAY-1
  6
CONTINUOUS
 62
     2
100
AcDbLine
 10
894.5
 20
1217.72
 30
0.0
 11
889.0
 21
1217.72
 31
0.0
  0
LINE
  5
48F
100
AcDbEntity
  8
LAY-1
  6
CONTINUOUS
 62
     2
100
AcDbLine
 10
894.5
 20
1229.72
 30
0.0
 11
889.0
 21
1229.72
 31
0.0
  0
LINE
  5
490
100
AcDbEntity
  8
LAY-1
  6
CONTINUOUS
 62
     2
100
AcDbLine
 10
894.5
 20
1235.22
 30
0.0
 11
889.0
 21
1235.22
 31
0.0
  0
LINE
  5
491
100
AcDbEntity
  8
LAY-1
  6
CONTINUOUS
 62
     2
100
AcDbLine
 10
889.0
 20
1215.22
 30
0.0
 11
888.0
 21
1215.22
 31
0.0
  0
LINE
  5
492
100
AcDbEntity
  8
LAY-1
  6
CONTINUOUS
 62
     2
100
AcDbLine
 10
889.0
 20
1232.22
 30
0.0
 11
888.0
 21
1232.22
 31
0.0
  0
LINE
  5
493
100
AcDbEntity
  8
LAY-1
  6
CONTINUOUS
 62
     2
100
AcDbLine
 10
888.0
 20
1236.72
 30
0.0
 11
874.0
 21
1236.72
 31
0.0
  0
LINE
  5
494
100
AcDbEntity
  8
LAY-1
  6
CONTINUOUS
 62
     2
100
AcDbLine
 10
874.0
 20
1236.72
 30
0.0
 11
871.5
 21
1233.22
 31
0.0
  0
LINE
  5
495
100
AcDbEntity
  8
LAY-1
  6
CONTINUOUS
 62
     2
100
AcDbLine
 10
889.0
 20
1212.22
 30
0.0
 11
889.0
 21
1235.22
 31
0.0
  0
LINE
  5
496
100
AcDbEntity
  8
LAY-1
  6
CONTINUOUS
 62
     2
100
AcDbLine
 10
888.0
 20
1210.72
 30
0.0
 11
888.0
 21
1236.72
 31
0.0
  0
LINE
  5
497
100
AcDbEntity
  8
LAY-1
  6
CONTINUOUS
 62
     2
100
AcDbLine
 10
844.5
 20
1212.143016
 30
0.0
 11
844.5
 21
1240.72
 31
0.0
  0
LINE
  5
498
100
AcDbEntity
  8
LAY-1
  6
CONTINUOUS
 62
     2
100
AcDbLine
 10
871.5
 20
1212.143016
 30
0.0
 11
871.5
 21
1240.72
 31
0.0
  0
LINE
  5
499
100
AcDbEntity
  8
LAY-1
  6
CONTINUOUS
 62
     2
100
AcDbLine
 10
888.0
 20
1210.72
 30
0.0
 11
875.811277
 21
1210.72
 31
0.0
  0
LINE
  5
49A
100
AcDbEntity
  8
LAY-1
  6
CONTINUOUS
 62
     2
100
AcDbLine
 10
874.0
 20
1211.370877
 30
0.0
 11
874.0
 21
1236.72
 31
0.0
  0
LINE
  5
49B
100
AcDbEntity
  8
LAY-1
  6
CONTINUOUS
 62
     2
100
AcDbLine
 10
873.391343
 20
1211.57212
 30
0.0
 11
871.5
 21
1214.22
 31
0.0
  0
LINE
  5
49C
100
AcDbEntity
  8
LAY-1
  6
CONTINUOUS
 62
     2
100
AcDbLine
 10
871.5
 20
1240.72
 30
0.0
 11
844.5
 21
1240.72
 31
0.0
  0
LINE
  5
49D
100
AcDbEntity
  8
LAY-1
  6
CONTINUOUS
 62
     1
100
AcDbLine
 10
865.15
 20
1249.22
 30
0.0
 11
865.15
 21
1240.72
 31
0.0
  0
LINE
  5
49E
100
AcDbEntity
  8
LAY-1
  6
CONTINUOUS
 62
     2
100
AcDbLine
 10
866.65
 20
1251.22
 30
0.0
 11
866.65
 21
1240.72
 31
0.0
  0
LINE
  5
49F
100
AcDbEntity
  8
LAY-1
  6
CONTINUOUS
 62
     2
100
AcDbLine
 10
858.0
 20
1249.22
 30
0.0
 11
866.65
 21
1249.22
 31
0.0
  0
LINE
  5
4A0
100
AcDbEntity
  8
LAY-1
  6
CONTINUOUS
 62
     2
100
AcDbLine
 10
849.35
 20
1249.22
 30
0.0
 11
858.0
 21
1249.22
 31
0.0
  0
LINE
  5
4A1
100
AcDbEntity
  8
LAY-1
  6
CONTINUOUS
 62
     1
100
AcDbLine
 10
850.85
 20
1249.22
 30
0.0
 11
850.85
 21
1240.72
 31
0.0
  0
LINE
  5
4A2
100
AcDbEntity
  8
LAY-1
  6
CONTINUOUS
 62
     2
100
AcDbLine
 10
849.35
 20
1251.22
 30
0.0
 11
849.35
 21
1240.72
 31
0.0
  0
INSERT
  5
4A3
100
AcDbEntity
  8
LAY-1
  6
CONTINUOUS
 62
     0
100
AcDbBlockReference
  2
SYM-1
 10
2753.0
 20
2577.0
 30
0.0
 41
10.0
 42
10.0
 50
270.0
  0
INSERT
  5
4A4
100
AcDbEntity
  8
LAY-1
  6
CONTINUOUS
 62
     0
100
AcDbBlockReference
  2
SYM-1
 10
2523.0
 20
2778.5
 30
0.0
 41
10.0
 42
10.0
 50
90.0
  0
TEXT
  5
4A5
100
AcDbEntity
  8
LAY-1
  6
CONTINUOUS
 62
     3
100
AcDbText
 10
3394.96
 20
454.64
 30
0.0
 40
40.0
  1
２０１８年　５月３０日
 41
0.84
  7
EXCADSTD
 72
     5
 11
3834.96
 21
454.64
 31
0.0
100
AcDbText
  0
TEXT
  5
4A6
100
AcDbEntity
  8
LAY-1
  6
CONTINUOUS
 62
     3
100
AcDbText
 10
3373.872
 20
399.44
 30
0.0
 40
40.0
  1
ＶＨ－５０Ｆ
 41
0.84
  7
EXCADSTD
 72
     5
 11
3613.872
 21
399.44
 31
0.0
100
AcDbText
  0
LINE
  5
4A7
100
AcDbEntity
  8
LAY-1
  6
CONTINUOUS
 62
     2
100
AcDbLine
 10
2768.0
 20
2424.0
 30
0.0
 11
2768.0
 21
2402.0
 31
0.0
  0
LINE
  5
4A8
100
AcDbEntity
  8
LAY-1
  6
CONTINUOUS
 62
     2
100
AcDbLine
 10
2738.0
 20
2424.0
 30
0.0
 11
2738.0
 21
2402.0
 31
0.0
  0
LINE
  5
4A9
100
AcDbEntity
  8
LAY-1
  6
CONTINUOUS
 62
     2
100
AcDbLine
 10
2768.0
 20
2495.75
 30
0.0
 11
2768.0
 21
2507.25
 31
0.0
  0
LINE
  5
4AA
100
AcDbEntity
  8
LAY-1
  6
CONTINUOUS
 62
     2
100
AcDbLine
 10
2738.0
 20
2495.75
 30
0.0
 11
2738.0
 21
2507.25
 31
0.0
  0
LINE
  5
4AB
100
AcDbEntity
  8
LAY-1
  6
CONTINUOUS
 62
     2
100
AcDbLine
 10
2767.0
 20
2462.0
 30
0.0
 11
2766.0
 21
2485.0
 31
0.0
  0
LINE
  5
4AC
100
AcDbEntity
  8
LAY-1
  6
CONTINUOUS
 62
     2
100
AcDbLine
 10
2739.0
 20
2462.0
 30
0.0
 11
2740.0
 21
2485.0
 31
0.0
  0
LINE
  5
4AD
100
AcDbEntity
  8
LAY-1
  6
CONTINUOUS
 62
     2
100
AcDbLine
 10
2766.0
 20
2485.0
 30
0.0
 11
2766.0
 21
2495.0
 31
0.0
  0
LINE
  5
4AE
100
AcDbEntity
  8
LAY-1
  6
CONTINUOUS
 62
     2
100
AcDbLine
 10
2740.0
 20
2485.0
 30
0.0
 11
2740.0
 21
2495.0
 31
0.0
  0
LINE
  5
4AF
100
AcDbEntity
  8
LAY-1
  6
CONTINUOUS
 62
     2
100
AcDbLine
 10
2769.0
 20
2456.0
 30
0.0
 11
2769.0
 21
2462.0
 31
0.0
  0
LINE
  5
4B0
100
AcDbEntity
  8
LAY-1
  6
CONTINUOUS
 62
     2
100
AcDbLine
 10
2737.0
 20
2456.0
 30
0.0
 11
2737.0
 21
2462.0
 31
0.0
  0
LINE
  5
4B1
100
AcDbEntity
  8
LAY-1
  6
CONTINUOUS
 62
     2
100
AcDbLine
 10
2768.0
 20
2443.75
 30
0.0
 11
2768.0
 21
2456.0
 31
0.0
  0
LINE
  5
4B2
100
AcDbEntity
  8
LAY-1
  6
CONTINUOUS
 62
     2
100
AcDbLine
 10
2738.0
 20
2443.75
 30
0.0
 11
2738.0
 21
2456.0
 31
0.0
  0
LINE
  5
4B3
100
AcDbEntity
  8
LAY-1
  6
CONTINUOUS
 62
     2
100
AcDbLine
 10
2769.0
 20
2484.5
 30
0.0
 11
2769.0
 21
2466.5
 31
0.0
  0
LINE
  5
4B4
100
AcDbEntity
  8
LAY-1
  6
CONTINUOUS
 62
     2
100
AcDbLine
 10
2740.0
 20
2470.5
 30
0.0
 11
2740.0
 21
2466.5
 31
0.0
  0
LINE
  5
4B5
100
AcDbEntity
  8
LAY-1
  6
CONTINUOUS
 62
     2
100
AcDbLine
 10
2825.786604
 20
2481.993678
 30
0.0
 11
2769.0
 21
2484.5
 31
0.0
  0
LINE
  5
4B6
100
AcDbEntity
  8
LAY-1
  6
CONTINUOUS
 62
     2
100
AcDbLine
 10
2825.786604
 20
2469.006322
 30
0.0
 11
2769.0
 21
2466.5
 31
0.0
  0
ARC
  5
4B7
100
AcDbEntity
  8
LAY-1
  6
CONTINUOUS
 62
     2
100
AcDbCircle
 10
2825.5
 20
2475.5
 30
0.0
 40
6.5
100
AcDbArc
 50
272.527154
 51
87.472846
  0
LINE
  5
4B8
100
AcDbEntity
  8
LAY-1
  6
CONTINUOUS
 62
     2
100
AcDbLine
 10
2740.5
 20
2508.0
 30
0.0
 11
2742.15
 21
2508.0
 31
0.0
  0
LINE
  5
4B9
100
AcDbEntity
  8
LAY-1
  6
CONTINUOUS
 62
     2
100
AcDbLine
 10
2768.0
 20
2424.0
 30
0.0
 11
2763.85
 21
2424.0
 31
0.0
  0
LINE
  5
4BA
100
AcDbEntity
  8
LAY-1
  6
CONTINUOUS
 62
     2
100
AcDbLine
 10
2742.15
 20
2424.0
 30
0.0
 11
2738.0
 21
2424.0
 31
0.0
  0
LINE
  5
4BB
100
AcDbEntity
  8
LAY-1
  6
CONTINUOUS
 62
     2
100
AcDbLine
 10
2740.5
 20
2443.0
 30
0.0
 11
2742.15
 21
2443.0
 31
0.0
  0
LINE
  5
4BC
100
AcDbEntity
  8
LAY-1
  6
CONTINUOUS
 62
     2
100
AcDbLine
 10
2763.85
 20
2443.0
 30
0.0
 11
2765.5
 21
2443.0
 31
0.0
  0
ARC
  5
4BD
100
AcDbEntity
  8
LAY-1
  6
CONTINUOUS
 62
     2
100
AcDbCircle
 10
2740.5
 20
2447.541667
 30
0.0
 40
4.541667
100
AcDbArc
 50
236.601512
 51
291.303168
  0
ARC
  5
4BE
100
AcDbEntity
  8
LAY-1
  6
CONTINUOUS
 62
     2
100
AcDbCircle
 10
2765.5
 20
2447.541667
 30
0.0
 40
4.541667
100
AcDbArc
 50
248.696832
 51
303.398488
  0
LINE
  5
4BF
100
AcDbEntity
  8
LAY-1
  6
CONTINUOUS
 62
     2
100
AcDbLine
 10
2737.0
 20
2456.0
 30
0.0
 11
2742.15
 21
2456.0
 31
0.0
  0
LINE
  5
4C0
100
AcDbEntity
  8
LAY-1
  6
CONTINUOUS
 62
     2
100
AcDbLine
 10
2763.85
 20
2456.0
 30
0.0
 11
2769.0
 21
2456.0
 31
0.0
  0
LINE
  5
4C1
100
AcDbEntity
  8
LAY-1
  6
CONTINUOUS
 62
     2
100
AcDbLine
 10
2737.0
 20
2459.0
 30
0.0
 11
2742.15
 21
2459.0
 31
0.0
  0
LINE
  5
4C2
100
AcDbEntity
  8
LAY-1
  6
CONTINUOUS
 62
     2
100
AcDbLine
 10
2763.85
 20
2459.0
 30
0.0
 11
2769.0
 21
2459.0
 31
0.0
  0
LINE
  5
4C3
100
AcDbEntity
  8
LAY-1
  6
CONTINUOUS
 62
     2
100
AcDbLine
 10
2737.0
 20
2462.0
 30
0.0
 11
2742.15
 21
2462.0
 31
0.0
  0
LINE
  5
4C4
100
AcDbEntity
  8
LAY-1
  6
CONTINUOUS
 62
     2
100
AcDbLine
 10
2763.85
 20
2462.0
 30
0.0
 11
2769.0
 21
2462.0
 31
0.0
  0
LINE
  5
4C5
100
AcDbEntity
  8
LAY-1
  6
CONTINUOUS
 62
     2
100
AcDbLine
 10
2740.0
 20
2466.5
 30
0.0
 11
2742.15
 21
2466.5
 31
0.0
  0
LINE
  5
4C6
100
AcDbEntity
  8
LAY-1
  6
CONTINUOUS
 62
     2
100
AcDbLine
 10
2763.85
 20
2466.5
 30
0.0
 11
2769.0
 21
2466.5
 31
0.0
  0
LINE
  5
4C7
100
AcDbEntity
  8
LAY-1
  6
CONTINUOUS
 62
     2
100
AcDbLine
 10
2740.0
 20
2470.5
 30
0.0
 11
2742.15
 21
2470.5
 31
0.0
  0
LINE
  5
4C8
100
AcDbEntity
  8
LAY-1
  6
CONTINUOUS
 62
     2
100
AcDbLine
 10
2763.85
 20
2484.5
 30
0.0
 11
2769.0
 21
2484.5
 31
0.0
  0
LINE
  5
4C9
100
AcDbEntity
  8
LAY-1
  6
CONTINUOUS
 62
     2
100
AcDbLine
 10
2763.85
 20
2508.0
 30
0.0
 11
2765.5
 21
2508.0
 31
0.0
  0
LINE
  5
4CA
100
AcDbEntity
  8
LAY-1
  6
CONTINUOUS
 62
     2
100
AcDbLine
 10
2740.5
 20
2495.0
 30
0.0
 11
2742.15
 21
2495.0
 31
0.0
  0
ARC
  5
4CB
100
AcDbEntity
  8
LAY-1
  6
CONTINUOUS
 62
     2
100
AcDbCircle
 10
2740.5
 20
2499.541667
 30
0.0
 40
4.541667
100
AcDbArc
 50
236.601512
 51
291.303168
  0
LINE
  5
4CC
100
AcDbEntity
  8
LAY-1
  6
CONTINUOUS
 62
     2
100
AcDbLine
 10
2763.85
 20
2495.0
 30
0.0
 11
2765.5
 21
2495.0
 31
0.0
  0
ARC
  5
4CD
100
AcDbEntity
  8
LAY-1
  6
CONTINUOUS
 62
     2
100
AcDbCircle
 10
2765.5
 20
2499.541667
 30
0.0
 40
4.541667
100
AcDbArc
 50
248.696832
 51
303.398488
  0
ARC
  5
4CE
100
AcDbEntity
  8
LAY-1
  6
CONTINUOUS
 62
     2
100
AcDbCircle
 10
2765.5
 20
2503.458333
 30
0.0
 40
4.541667
100
AcDbArc
 50
56.601512
 51
111.303168
  0
ARC
  5
4CF
100
AcDbEntity
  8
LAY-1
  6
CONTINUOUS
 62
     2
100
AcDbCircle
 10
2740.5
 20
2503.458333
 30
0.0
 40
4.541667
100
AcDbArc
 50
68.696832
 51
123.398488
  0
LINE
  5
4D0
100
AcDbEntity
  8
LAY-1
  6
CONTINUOUS
 62
     2
100
AcDbLine
 10
2358.0
 20
2388.0
 30
0.0
 11
2358.0
 21
1938.0
 31
0.0
  0
LINE
  5
4D1
100
AcDbEntity
  8
LAY-1
  6
CONTINUOUS
 62
     2
100
AcDbLine
 10
1506.0
 20
712.0
 30
0.0
 11
1976.0
 21
712.0
 31
0.0
  0
LINE
  5
4D2
100
AcDbEntity
  8
LAY-1
  6
CONTINUOUS
 62
     2
100
AcDbLine
 10
1499.0
 20
699.0
 30
0.0
 11
1551.0
 21
699.0
 31
0.0
  0
LINE
  5
4D3
100
AcDbEntity
  8
LAY-1
  6
CONTINUOUS
 62
     2
100
AcDbLine
 10
1499.0
 20
729.0
 30
0.0
 11
1499.0
 21
699.0
 31
0.0
  0
LINE
  5
4D4
100
AcDbEntity
  8
LAY-1
  6
CONTINUOUS
 62
     2
100
AcDbLine
 10
1441.0
 20
749.3
 30
0.0
 11
1440.5
 21
748.8
 31
0.0
  0
LINE
  5
4D5
100
AcDbEntity
  8
LAY-1
  6
CONTINUOUS
 62
     2
100
AcDbLine
 10
1446.5
 20
748.8
 30
0.0
 11
1446.0
 21
749.3
 31
0.0
  0
LINE
  5
4D6
100
AcDbEntity
  8
LAY-1
  6
CONTINUOUS
 62
     2
100
AcDbLine
 10
1440.5
 20
747.3
 30
0.0
 11
1440.5
 21
748.8
 31
0.0
  0
LINE
  5
4D7
100
AcDbEntity
  8
LAY-1
  6
CONTINUOUS
 62
     2
100
AcDbLine
 10
1446.5
 20
747.3
 30
0.0
 11
1446.5
 21
748.8
 31
0.0
  0
LINE
  5
4D8
100
AcDbEntity
  8
LAY-1
  6
CONTINUOUS
 62
     2
100
AcDbLine
 10
1446.0
 20
749.3
 30
0.0
 11
1441.0
 21
749.3
 31
0.0
  0
LINE
  5
4D9
100
AcDbEntity
  8
LAY-1
  6
CONTINUOUS
 62
     2
100
AcDbLine
 10
1449.5
 20
746.8
 30
0.0
 11
1449.5
 21
743.8
 31
0.0
  0
LINE
  5
4DA
100
AcDbEntity
  8
LAY-1
  6
CONTINUOUS
 62
     2
100
AcDbLine
 10
1448.0
 20
747.3
 30
0.0
 11
1439.0
 21
747.3
 31
0.0
  0
LINE
  5
4DB
100
AcDbEntity
  8
LAY-1
  6
CONTINUOUS
 62
     2
100
AcDbLine
 10
1437.5
 20
746.8
 30
0.0
 11
1437.5
 21
743.8
 31
0.0
  0
ARC
  5
4DC
100
AcDbEntity
  8
LAY-1
  6
CONTINUOUS
 62
     2
100
AcDbCircle
 10
1439.0
 20
745.8
 30
0.0
 40
2.5
100
AcDbArc
 50
233.130102
 51
306.869898
  0
ARC
  5
4DD
100
AcDbEntity
  8
LAY-1
  6
CONTINUOUS
 62
     2
100
AcDbCircle
 10
1443.5
 20
752.55
 30
0.0
 40
9.25
100
AcDbArc
 50
251.075356
 51
288.924644
  0
ARC
  5
4DE
100
AcDbEntity
  8
LAY-1
  6
CONTINUOUS
 62
     2
100
AcDbCircle
 10
1448.0
 20
745.8
 30
0.0
 40
2.5
100
AcDbArc
 50
233.130102
 51
306.869898
  0
ARC
  5
4DF
100
AcDbEntity
  8
LAY-1
  6
CONTINUOUS
 62
     2
100
AcDbCircle
 10
1439.0
 20
744.8
 30
0.0
 40
2.5
100
AcDbArc
 50
53.130102
 51
126.869898
  0
ARC
  5
4E0
100
AcDbEntity
  8
LAY-1
  6
CONTINUOUS
 62
     2
100
AcDbCircle
 10
1443.5
 20
738.05
 30
0.0
 40
9.25
100
AcDbArc
 50
71.075356
 51
108.924644
  0
ARC
  5
4E1
100
AcDbEntity
  8
LAY-1
  6
CONTINUOUS
 62
     2
100
AcDbCircle
 10
1448.0
 20
744.8
 30
0.0
 40
2.5
100
AcDbArc
 50
53.130102
 51
126.869898
  0
LINE
  5
4E2
100
AcDbEntity
  8
LAY-1
  6
CONTINUOUS
 62
     2
100
AcDbLine
 10
1440.5
 20
740.0
 30
0.0
 11
1440.5
 21
739.0
 31
0.0
  0
LINE
  5
4E3
100
AcDbEntity
  8
LAY-1
  6
CONTINUOUS
 62
     2
100
AcDbLine
 10
1446.5
 20
740.0
 30
0.0
 11
1446.5
 21
739.0
 31
0.0
  0
LINE
  5
4E4
100
AcDbEntity
  8
LAY-1
  6
CONTINUOUS
 62
     2
100
AcDbLine
 10
1446.5
 20
746.8
 30
0.0
 11
1446.5
 21
743.8
 31
0.0
  0
LINE
  5
4E5
100
AcDbEntity
  8
LAY-1
  6
CONTINUOUS
 62
     2
100
AcDbLine
 10
1440.5
 20
746.8
 30
0.0
 11
1440.5
 21
743.8
 31
0.0
  0
LINE
  5
4E6
100
AcDbEntity
  8
LAY-1
  6
CONTINUOUS
 62
     2
100
AcDbLine
 10
1437.0
 20
732.5
 30
0.0
 11
1436.0
 21
727.086957
 31
0.0
  0
LINE
  5
4E7
100
AcDbEntity
  8
LAY-1
  6
CONTINUOUS
 62
     2
100
AcDbLine
 10
1450.0
 20
732.5
 30
0.0
 11
1451.0
 21
727.73913
 31
0.0
  0
LINE
  5
4E8
100
AcDbEntity
  8
LAY-1
  6
CONTINUOUS
 62
     2
100
AcDbLine
 10
1450.0
 20
739.0
 30
0.0
 11
1450.0
 21
732.5
 31
0.0
  0
LINE
  5
4E9
100
AcDbEntity
  8
LAY-1
  6
CONTINUOUS
 62
     2
100
AcDbLine
 10
1437.0
 20
739.0
 30
0.0
 11
1437.0
 21
732.5
 31
0.0
  0
LINE
  5
4EA
100
AcDbEntity
  8
LAY-1
  6
CONTINUOUS
 62
     2
100
AcDbLine
 10
1450.0
 20
739.0
 30
0.0
 11
1437.0
 21
739.0
 31
0.0
  0
LINE
  5
4EB
100
AcDbEntity
  8
LAY-1
  6
CONTINUOUS
 62
     2
100
AcDbLine
 10
1436.0
 20
727.086957
 30
0.0
 11
1434.0
 21
727.0
 31
0.0
  0
ARC
  5
4EC
100
AcDbEntity
  8
LAY-1
  6
CONTINUOUS
 62
     2
100
AcDbCircle
 10
1443.157285
 20
735.295483
 30
0.0
 40
10.890668
100
AcDbArc
 50
228.913753
 51
316.065353
  0
LINE
  5
4ED
100
AcDbEntity
  8
LAY-1
  6
CONTINUOUS
 62
     2
100
AcDbLine
 10
1434.0
 20
727.0
 30
0.0
 11
1424.0
 21
727.0
 31
0.0
  0
ARC
  5
4EE
100
AcDbEntity
  8
LAY-1
  6
CONTINUOUS
 62
     2
100
AcDbCircle
 10
1428.041667
 20
719.0
 30
0.0
 40
17.041667
100
AcDbArc
 50
162.938469
 51
197.061531
  0
ARC
  5
4EF
100
AcDbEntity
  8
LAY-1
  6
CONTINUOUS
 62
     2
100
AcDbCircle
 10
1415.541667
 20
726.5
 30
0.0
 40
4.541667
100
AcDbArc
 50
146.601512
 51
213.398488
  0
ARC
  5
4F0
100
AcDbEntity
  8
LAY-1
  6
CONTINUOUS
 62
     2
100
AcDbCircle
 10
1419.458333
 20
726.5
 30
0.0
 40
4.541667
100
AcDbArc
 50
326.601512
 51
33.398488
  0
ARC
  5
4F1
100
AcDbEntity
  8
LAY-1
  6
CONTINUOUS
 62
     2
100
AcDbCircle
 10
1406.958333
 20
719.0
 30
0.0
 40
17.041667
100
AcDbArc
 50
342.938469
 51
17.061531
  0
LINE
  5
4F2
100
AcDbEntity
  8
LAY-1
  6
CONTINUOUS
 62
     2
100
AcDbLine
 10
1411.75
 20
724.0
 30
0.0
 11
1423.25
 21
724.0
 31
0.0
  0
LINE
  5
4F3
100
AcDbEntity
  8
LAY-1
  6
CONTINUOUS
 62
     2
100
AcDbLine
 10
1423.25
 20
729.0
 30
0.0
 11
1411.75
 21
729.0
 31
0.0
  0
LINE
  5
4F4
100
AcDbEntity
  8
LAY-1
  6
CONTINUOUS
 62
     2
100
AcDbLine
 10
1463.0
 20
730.0
 30
0.0
 11
1457.0
 21
730.0
 31
0.0
  0
ARC
  5
4F5
100
AcDbEntity
  8
LAY-1
  6
CONTINUOUS
 62
     2
100
AcDbCircle
 10
1471.458333
 20
726.5
 30
0.0
 40
4.541667
100
AcDbArc
 50
326.601512
 51
33.398488
  0
ARC
  5
4F6
100
AcDbEntity
  8
LAY-1
  6
CONTINUOUS
 62
     2
100
AcDbCircle
 10
1458.958333
 20
719.0
 30
0.0
 40
17.041667
100
AcDbArc
 50
342.938469
 51
17.061531
  0
LINE
  5
4F7
100
AcDbEntity
  8
LAY-1
  6
CONTINUOUS
 62
     2
100
AcDbLine
 10
1475.25
 20
729.0
 30
0.0
 11
1463.0
 21
729.0
 31
0.0
  0
LINE
  5
4F8
100
AcDbEntity
  8
LAY-1
  6
CONTINUOUS
 62
     2
100
AcDbLine
 10
1475.25
 20
724.0
 30
0.0
 11
1463.0
 21
724.0
 31
0.0
  0
LINE
  5
4F9
100
AcDbEntity
  8
LAY-1
  6
CONTINUOUS
 62
     2
100
AcDbLine
 10
1457.0
 20
728.0
 30
0.0
 11
1451.0
 21
727.73913
 31
0.0
  0
LINE
  5
4FA
100
AcDbEntity
  8
LAY-1
  6
CONTINUOUS
 62
     2
100
AcDbLine
 10
1434.0
 20
701.0
 30
0.0
 11
1424.0
 21
701.0
 31
0.0
  0
ARC
  5
4FB
100
AcDbEntity
  8
LAY-1
  6
CONTINUOUS
 62
     2
100
AcDbCircle
 10
1415.541667
 20
701.5
 30
0.0
 40
4.541667
100
AcDbArc
 50
146.601512
 51
213.398488
  0
ARC
  5
4FC
100
AcDbEntity
  8
LAY-1
  6
CONTINUOUS
 62
     2
100
AcDbCircle
 10
1419.458333
 20
701.5
 30
0.0
 40
4.541667
100
AcDbArc
 50
326.601512
 51
33.398488
  0
LINE
  5
4FD
100
AcDbEntity
  8
LAY-1
  6
CONTINUOUS
 62
     2
100
AcDbLine
 10
1423.25
 20
699.0
 30
0.0
 11
1411.75
 21
699.0
 31
0.0
  0
LINE
  5
4FE
100
AcDbEntity
  8
LAY-1
  6
CONTINUOUS
 62
     2
100
AcDbLine
 10
1411.75
 20
704.0
 30
0.0
 11
1423.25
 21
704.0
 31
0.0
  0
LINE
  5
4FF
100
AcDbEntity
  8
LAY-1
  6
CONTINUOUS
 62
     2
100
AcDbLine
 10
1463.0
 20
698.0
 30
0.0
 11
1457.0
 21
698.0
 31
0.0
  0
ARC
  5
500
100
AcDbEntity
  8
LAY-1
  6
CONTINUOUS
 62
     2
100
AcDbCircle
 10
1471.458333
 20
701.5
 30
0.0
 40
4.541667
100
AcDbArc
 50
326.601512
 51
33.398488
  0
LINE
  5
501
100
AcDbEntity
  8
LAY-1
  6
CONTINUOUS
 62
     2
100
AcDbLine
 10
1475.25
 20
699.0
 30
0.0
 11
1463.0
 21
699.0
 31
0.0
  0
LINE
  5
502
100
AcDbEntity
  8
LAY-1
  6
CONTINUOUS
 62
     2
100
AcDbLine
 10
1475.25
 20
704.0
 30
0.0
 11
1463.0
 21
704.0
 31
0.0
  0
LINE
  5
503
100
AcDbEntity
  8
LAY-1
  6
CONTINUOUS
 62
     2
100
AcDbLine
 10
1457.0
 20
700.0
 30
0.0
 11
1434.0
 21
701.0
 31
0.0
  0
LINE
  5
504
100
AcDbEntity
  8
LAY-1
  6
CONTINUOUS
 62
     2
100
AcDbLine
 10
1463.0
 20
730.0
 30
0.0
 11
1463.0
 21
698.0
 31
0.0
  0
LINE
  5
505
100
AcDbEntity
  8
LAY-1
  6
CONTINUOUS
 62
     2
100
AcDbLine
 10
1460.0
 20
730.0
 30
0.0
 11
1460.0
 21
698.0
 31
0.0
  0
LINE
  5
506
100
AcDbEntity
  8
LAY-1
  6
CONTINUOUS
 62
     2
100
AcDbLine
 10
1457.0
 20
730.0
 30
0.0
 11
1457.0
 21
698.0
 31
0.0
  0
ARC
  5
507
100
AcDbEntity
  8
LAY-1
  6
CONTINUOUS
 62
     2
100
AcDbCircle
 10
1458.958333
 20
709.0
 30
0.0
 40
17.041667
100
AcDbArc
 50
342.938469
 51
17.061531
  0
LINE
  5
508
100
AcDbEntity
  8
LAY-1
  6
CONTINUOUS
 62
     2
100
AcDbLine
 10
1476.0
 20
726.5
 30
0.0
 11
1476.0
 21
701.5
 31
0.0
  0
ARC
  5
509
100
AcDbEntity
  8
LAY-1
  6
CONTINUOUS
 62
     2
100
AcDbCircle
 10
1428.041667
 20
709.0
 30
0.0
 40
17.041667
100
AcDbArc
 50
162.938469
 51
197.061531
  0
ARC
  5
50A
100
AcDbEntity
  8
LAY-1
  6
CONTINUOUS
 62
     2
100
AcDbCircle
 10
1406.958333
 20
709.0
 30
0.0
 40
17.041667
100
AcDbArc
 50
342.938469
 51
17.061531
  0
LINE
  5
50B
100
AcDbEntity
  8
LAY-1
  6
CONTINUOUS
 62
     2
100
AcDbLine
 10
1424.0
 20
726.5
 30
0.0
 11
1424.0
 21
701.5
 31
0.0
  0
LINE
  5
50C
100
AcDbEntity
  8
LAY-1
  6
CONTINUOUS
 62
     2
100
AcDbLine
 10
1411.0
 20
726.5
 30
0.0
 11
1411.0
 21
701.5
 31
0.0
  0
LINE
  5
50D
100
AcDbEntity
  8
LAY-1
  6
CONTINUOUS
 62
     2
100
AcDbLine
 10
1434.0
 20
724.0
 30
0.0
 11
1434.0
 21
704.0
 31
0.0
  0
LINE
  5
50E
100
AcDbEntity
  8
LAY-1
  6
CONTINUOUS
 62
     2
100
AcDbLine
 10
1499.0
 20
703.15
 30
0.0
 11
1476.0
 21
703.15
 31
0.0
  0
LINE
  5
50F
100
AcDbEntity
  8
LAY-1
  6
CONTINUOUS
 62
     2
100
AcDbLine
 10
1499.0
 20
724.85
 30
0.0
 11
1476.0
 21
724.85
 31
0.0
  0
LINE
  5
510
100
AcDbEntity
  8
LAY-1
  6
CONTINUOUS
 62
     2
100
AcDbLine
 10
1493.0
 20
703.15
 30
0.0
 11
1493.0
 21
724.85
 31
0.0
  0
LINE
  5
511
100
AcDbEntity
  8
LAY-1
  6
CONTINUOUS
 62
     2
100
AcDbLine
 10
1495.0
 20
703.15
 30
0.0
 11
1495.0
 21
724.85
 31
0.0
  0
LINE
  5
512
100
AcDbEntity
  8
LAY-1
  6
CONTINUOUS
 62
     2
100
AcDbLine
 10
1497.0
 20
703.15
 30
0.0
 11
1497.0
 21
724.85
 31
0.0
  0
LINE
  5
513
100
AcDbEntity
  8
LAY-1
  6
CONTINUOUS
 62
     2
100
AcDbLine
 10
1449.5
 20
760.0
 30
0.0
 11
1451.5
 21
743.3
 31
0.0
  0
LINE
  5
514
100
AcDbEntity
  8
LAY-1
  6
CONTINUOUS
 62
     2
100
AcDbLine
 10
1437.5
 20
760.0
 30
0.0
 11
1435.5
 21
743.3
 31
0.0
  0
LINE
  5
515
100
AcDbEntity
  8
LAY-1
  6
CONTINUOUS
 62
     2
100
AcDbLine
 10
1449.5
 20
762.3
 30
0.0
 11
1449.5
 21
760.0
 31
0.0
  0
LINE
  5
516
100
AcDbEntity
  8
LAY-1
  6
CONTINUOUS
 62
     2
100
AcDbLine
 10
1437.5
 20
762.3
 30
0.0
 11
1437.5
 21
760.0
 31
0.0
  0
LINE
  5
517
100
AcDbEntity
  8
LAY-1
  6
CONTINUOUS
 62
     2
100
AcDbLine
 10
1449.5
 20
762.3
 30
0.0
 11
1437.5
 21
762.3
 31
0.0
  0
LINE
  5
518
100
AcDbEntity
  8
LAY-1
  6
CONTINUOUS
 62
     2
100
AcDbLine
 10
1446.0
 20
749.3
 30
0.0
 11
1446.0
 21
747.3
 31
0.0
  0
LINE
  5
519
100
AcDbEntity
  8
LAY-1
  6
CONTINUOUS
 62
     2
100
AcDbLine
 10
1441.0
 20
749.3
 30
0.0
 11
1441.0
 21
747.3
 31
0.0
  0
LINE
  5
51A
100
AcDbEntity
  8
LAY-1
  6
CONTINUOUS
 62
     2
100
AcDbLine
 10
1446.5
 20
748.8
 30
0.0
 11
1440.5
 21
748.8
 31
0.0
  0
LINE
  5
51B
100
AcDbEntity
  8
LAY-1
  6
CONTINUOUS
 62
     2
100
AcDbLine
 10
1435.5
 20
743.3
 30
0.0
 11
1435.5
 21
740.0
 31
0.0
  0
LINE
  5
51C
100
AcDbEntity
  8
LAY-1
  6
CONTINUOUS
 62
     2
100
AcDbLine
 10
1451.5
 20
743.3
 30
0.0
 11
1451.5
 21
740.0
 31
0.0
  0
LINE
  5
51D
100
AcDbEntity
  8
LAY-1
  6
CONTINUOUS
 62
     2
100
AcDbLine
 10
1451.5
 20
743.3
 30
0.0
 11
1435.5
 21
743.3
 31
0.0
  0
LINE
  5
51E
100
AcDbEntity
  8
LAY-1
  6
CONTINUOUS
 62
     2
100
AcDbLine
 10
1451.5
 20
742.3
 30
0.0
 11
1435.5
 21
742.3
 31
0.0
  0
LINE
  5
51F
100
AcDbEntity
  8
LAY-1
  6
CONTINUOUS
 62
     2
100
AcDbLine
 10
1451.5
 20
740.0
 30
0.0
 11
1435.5
 21
740.0
 31
0.0
  0
LINE
  5
520
100
AcDbEntity
  8
LAY-1
  6
CONTINUOUS
 62
     2
100
AcDbLine
 10
1482.0
 20
703.15
 30
0.0
 11
1482.0
 21
724.85
 31
0.0
  0
LINE
  5
521
100
AcDbEntity
  8
LAY-1
  6
CONTINUOUS
 62
     2
100
AcDbLine
 10
1480.0
 20
703.15
 30
0.0
 11
1480.0
 21
724.85
 31
0.0
  0
LINE
  5
522
100
AcDbEntity
  8
LAY-1
  6
CONTINUOUS
 62
     2
100
AcDbLine
 10
1478.0
 20
703.15
 30
0.0
 11
1478.0
 21
724.85
 31
0.0
  0
LINE
  5
523
100
AcDbEntity
  8
LAY-1
  6
CONTINUOUS
 62
     2
100
AcDbLine
 10
1395.0
 20
720.859343
 30
0.0
 11
1405.0
 21
720.859343
 31
0.0
  0
LINE
  5
524
100
AcDbEntity
  8
LAY-1
  6
CONTINUOUS
 62
     2
100
AcDbLine
 10
1395.0
 20
706.859343
 30
0.0
 11
1405.0
 21
706.859343
 31
0.0
  0
LINE
  5
525
100
AcDbEntity
  8
LAY-1
  6
CONTINUOUS
 62
     2
100
AcDbLine
 10
1405.0
 20
703.009343
 30
0.0
 11
1411.0
 21
703.009343
 31
0.0
  0
LINE
  5
526
100
AcDbEntity
  8
LAY-1
  6
CONTINUOUS
 62
     2
100
AcDbLine
 10
1405.0
 20
724.709343
 30
0.0
 11
1411.0
 21
724.709343
 31
0.0
  0
LINE
  5
527
100
AcDbEntity
  8
LAY-1
  6
CONTINUOUS
 62
     2
100
AcDbLine
 10
1409.0
 20
724.709343
 30
0.0
 11
1409.0
 21
703.009343
 31
0.0
  0
LINE
  5
528
100
AcDbEntity
  8
LAY-1
  6
CONTINUOUS
 62
     2
100
AcDbLine
 10
1407.0
 20
724.709343
 30
0.0
 11
1407.0
 21
703.009343
 31
0.0
  0
LINE
  5
529
100
AcDbEntity
  8
LAY-1
  6
CONTINUOUS
 62
     2
100
AcDbLine
 10
1405.0
 20
724.709343
 30
0.0
 11
1405.0
 21
703.009343
 31
0.0
  0
LINE
  5
52A
100
AcDbEntity
  8
LAY-1
  6
CONTINUOUS
 62
     2
100
AcDbLine
 10
1395.0
 20
720.859343
 30
0.0
 11
1395.0
 21
706.859343
 31
0.0
  0
LINE
  5
52B
100
AcDbEntity
  8
LAY-1
  6
CONTINUOUS
 62
     2
100
AcDbLine
 10
1499.0
 20
729.0
 30
0.0
 11
1506.0
 21
729.0
 31
0.0
  0
ARC
  5
52C
100
AcDbEntity
  8
LAY-1
  6
CONTINUOUS
 62
     2
100
AcDbCircle
 10
639.0
 20
735.400855
 30
0.0
 40
2.0
100
AcDbArc
 50
289.983107
 51
0.0
  0
LINE
  5
52D
100
AcDbEntity
  8
LAY-1
  6
CONTINUOUS
 62
     2
100
AcDbLine
 10
639.683486
 20
733.521268
 30
0.0
 11
635.5
 21
732.0
 31
0.0
  0
LINE
  5
52E
100
AcDbEntity
  8
LAY-1
  6
CONTINUOUS
 62
     2
100
AcDbLine
 10
638.0
 20
740.3
 30
0.0
 11
641.0
 21
740.3
 31
0.0
  0
LINE
  5
52F
100
AcDbEntity
  8
LAY-1
  6
CONTINUOUS
 62
     2
100
AcDbLine
 10
638.0
 20
740.3
 30
0.0
 11
638.0
 21
737.0
 31
0.0
  0
LINE
  5
530
100
AcDbEntity
  8
LAY-1
  6
CONTINUOUS
 62
     2
100
AcDbLine
 10
641.0
 20
740.3
 30
0.0
 11
641.0
 21
735.400855
 31
0.0
  0
LINE
  5
531
100
AcDbEntity
  8
LAY-1
  6
CONTINUOUS
 62
     2
100
AcDbLine
 10
637.0
 20
738.0
 30
0.0
 11
621.0
 21
738.0
 31
0.0
  0
LINE
  5
532
100
AcDbEntity
  8
LAY-1
  6
CONTINUOUS
 62
     2
100
AcDbLine
 10
637.0
 20
740.3
 30
0.0
 11
621.0
 21
740.3
 31
0.0
  0
LINE
  5
533
100
AcDbEntity
  8
LAY-1
  6
CONTINUOUS
 62
     2
100
AcDbLine
 10
622.5
 20
730.5
 30
0.0
 11
621.748963
 21
726.434602
 31
0.0
  0
LINE
  5
534
100
AcDbEntity
  8
LAY-1
  6
CONTINUOUS
 62
     2
100
AcDbLine
 10
635.5
 20
730.5
 30
0.0
 11
636.366191
 21
726.376178
 31
0.0
  0
LINE
  5
535
100
AcDbEntity
  8
LAY-1
  6
CONTINUOUS
 62
     2
100
AcDbLine
 10
635.5
 20
737.0
 30
0.0
 11
635.5
 21
730.5
 31
0.0
  0
LINE
  5
536
100
AcDbEntity
  8
LAY-1
  6
CONTINUOUS
 62
     2
100
AcDbLine
 10
622.5
 20
737.0
 30
0.0
 11
622.5
 21
730.5
 31
0.0
  0
ARC
  5
537
100
AcDbEntity
  8
LAY-1
  6
CONTINUOUS
 62
     2
100
AcDbCircle
 10
624.5
 20
743.8
 30
0.0
 40
2.5
100
AcDbArc
 50
233.130102
 51
306.869898
  0
ARC
  5
538
100
AcDbEntity
  8
LAY-1
  6
CONTINUOUS
 62
     2
100
AcDbCircle
 10
624.5
 20
742.8
 30
0.0
 40
2.5
100
AcDbArc
 50
53.130102
 51
126.869898
  0
LINE
  5
539
100
AcDbEntity
  8
LAY-1
  6
CONTINUOUS
 62
     2
100
AcDbLine
 10
638.0
 20
737.0
 30
0.0
 11
622.5
 21
737.0
 31
0.0
  0
LINE
  5
53A
100
AcDbEntity
  8
LAY-1
  6
CONTINUOUS
 62
     2
100
AcDbLine
 10
626.0
 20
745.3
 30
0.0
 11
626.0
 21
746.8
 31
0.0
  0
LINE
  5
53B
100
AcDbEntity
  8
LAY-1
  6
CONTINUOUS
 62
     2
100
AcDbLine
 10
632.0
 20
745.3
 30
0.0
 11
632.0
 21
746.8
 31
0.0
  0
LINE
  5
53C
100
AcDbEntity
  8
LAY-1
  6
CONTINUOUS
 62
     2
100
AcDbLine
 10
626.5
 20
747.3
 30
0.0
 11
626.0
 21
746.8
 31
0.0
  0
LINE
  5
53D
100
AcDbEntity
  8
LAY-1
  6
CONTINUOUS
 62
     2
100
AcDbLine
 10
631.5
 20
747.3
 30
0.0
 11
626.5
 21
747.3
 31
0.0
  0
LINE
  5
53E
100
AcDbEntity
  8
LAY-1
  6
CONTINUOUS
 62
     2
100
AcDbLine
 10
632.0
 20
746.8
 30
0.0
 11
631.5
 21
747.3
 31
0.0
  0
LINE
  5
53F
100
AcDbEntity
  8
LAY-1
  6
CONTINUOUS
 62
     2
100
AcDbLine
 10
635.0
 20
744.8
 30
0.0
 11
635.0
 21
741.8
 31
0.0
  0
LINE
  5
540
100
AcDbEntity
  8
LAY-1
  6
CONTINUOUS
 62
     2
100
AcDbLine
 10
633.5
 20
745.3
 30
0.0
 11
624.5
 21
745.3
 31
0.0
  0
LINE
  5
541
100
AcDbEntity
  8
LAY-1
  6
CONTINUOUS
 62
     2
100
AcDbLine
 10
632.0
 20
744.8
 30
0.0
 11
632.0
 21
741.8
 31
0.0
  0
LINE
  5
542
100
AcDbEntity
  8
LAY-1
  6
CONTINUOUS
 62
     2
100
AcDbLine
 10
626.0
 20
744.8
 30
0.0
 11
626.0
 21
741.8
 31
0.0
  0
ARC
  5
543
100
AcDbEntity
  8
LAY-1
  6
CONTINUOUS
 62
     2
100
AcDbCircle
 10
629.0
 20
750.55
 30
0.0
 40
9.25
100
AcDbArc
 50
251.075356
 51
288.924644
  0
ARC
  5
544
100
AcDbEntity
  8
LAY-1
  6
CONTINUOUS
 62
     2
100
AcDbCircle
 10
633.5
 20
743.8
 30
0.0
 40
2.5
100
AcDbArc
 50
233.130102
 51
306.869898
  0
ARC
  5
545
100
AcDbEntity
  8
LAY-1
  6
CONTINUOUS
 62
     2
100
AcDbCircle
 10
629.0
 20
736.05
 30
0.0
 40
9.25
100
AcDbArc
 50
71.075356
 51
108.924644
  0
ARC
  5
546
100
AcDbEntity
  8
LAY-1
  6
CONTINUOUS
 62
     2
100
AcDbCircle
 10
633.5
 20
742.8
 30
0.0
 40
2.5
100
AcDbArc
 50
53.130102
 51
126.869898
  0
LINE
  5
547
100
AcDbEntity
  8
LAY-1
  6
CONTINUOUS
 62
     2
100
AcDbLine
 10
632.0
 20
738.0
 30
0.0
 11
632.0
 21
737.0
 31
0.0
  0
LINE
  5
548
100
AcDbEntity
  8
LAY-1
  6
CONTINUOUS
 62
     2
100
AcDbLine
 10
626.0
 20
738.0
 30
0.0
 11
626.0
 21
737.0
 31
0.0
  0
LINE
  5
549
100
AcDbEntity
  8
LAY-1
  6
CONTINUOUS
 62
     2
100
AcDbLine
 10
623.0
 20
744.8
 30
0.0
 11
623.0
 21
741.8
 31
0.0
  0
LINE
  5
54A
100
AcDbEntity
  8
LAY-1
  6
CONTINUOUS
 62
     2
100
AcDbLine
 10
621.0
 20
738.0
 30
0.0
 11
613.0
 21
738.0
 31
0.0
  0
LINE
  5
54B
100
AcDbEntity
  8
LAY-1
  6
CONTINUOUS
 62
     2
100
AcDbLine
 10
621.0
 20
740.3
 30
0.0
 11
614.795786
 21
740.3
 31
0.0
  0
LINE
  5
54C
100
AcDbEntity
  8
LAY-1
  6
CONTINUOUS
 62
     2
100
AcDbLine
 10
637.0
 20
741.3
 30
0.0
 11
621.0
 21
741.3
 31
0.0
  0
LINE
  5
54D
100
AcDbEntity
  8
LAY-1
  6
CONTINUOUS
 62
     2
100
AcDbLine
 10
637.0
 20
741.3
 30
0.0
 11
637.0
 21
738.0
 31
0.0
  0
LINE
  5
54E
100
AcDbEntity
  8
LAY-1
  6
CONTINUOUS
 62
     2
100
AcDbLine
 10
631.5
 20
747.3
 30
0.0
 11
631.5
 21
745.3
 31
0.0
  0
LINE
  5
54F
100
AcDbEntity
  8
LAY-1
  6
CONTINUOUS
 62
     2
100
AcDbLine
 10
626.5
 20
747.3
 30
0.0
 11
626.5
 21
745.3
 31
0.0
  0
LINE
  5
550
100
AcDbEntity
  8
LAY-1
  6
CONTINUOUS
 62
     2
100
AcDbLine
 10
632.0
 20
746.8
 30
0.0
 11
626.0
 21
746.8
 31
0.0
  0
LINE
  5
551
100
AcDbEntity
  8
LAY-1
  6
CONTINUOUS
 62
     2
100
AcDbLine
 10
621.0
 20
741.3
 30
0.0
 11
621.0
 21
738.0
 31
0.0
  0
LINE
  5
552
100
AcDbEntity
  8
LAY-1
  6
CONTINUOUS
 62
     2
100
AcDbLine
 10
608.0
 20
758.0
 30
0.0
 11
613.0
 21
738.0
 31
0.0
  0
LINE
  5
553
100
AcDbEntity
  8
LAY-1
  6
CONTINUOUS
 62
     2
100
AcDbLine
 10
609.795786
 20
760.3
 30
0.0
 11
614.795786
 21
740.3
 31
0.0
  0
LINE
  5
554
100
AcDbEntity
  8
LAY-1
  6
CONTINUOUS
 62
     2
100
AcDbLine
 10
609.795786
 20
760.3
 30
0.0
 11
550.0
 21
760.3
 31
0.0
  0
LINE
  5
555
100
AcDbEntity
  8
LAY-1
  6
CONTINUOUS
 62
     2
100
AcDbLine
 10
608.0
 20
758.0
 30
0.0
 11
550.0
 21
758.0
 31
0.0
  0
LINE
  5
556
100
AcDbEntity
  8
LAY-1
  6
CONTINUOUS
 62
     2
100
AcDbLine
 10
550.0
 20
760.3
 30
0.0
 11
550.0
 21
758.0
 31
0.0
  0
CIRCLE
  5
557
100
AcDbEntity
  8
LAY-1
  6
CONTINUOUS
 62
     2
100
AcDbCircle
 10
629.0
 20
712.0
 30
0.0
 40
16.153491
  0
CIRCLE
  5
558
100
AcDbEntity
  8
LAY-1
  6
CONTINUOUS
 62
     2
100
AcDbCircle
 10
629.0
 20
712.0
 30
0.0
 40
15.0
  0
LINE
  5
559
100
AcDbEntity
  8
LAY-1
  6
CONTINUOUS
 62
     2
100
AcDbLine
 10
523.0
 20
712.0
 30
0.0
 11
614.0
 21
712.0
 31
0.0
  0
LINE
  5
55A
100
AcDbEntity
  8
LAY-1
  6
CONTINUOUS
 62
     2
100
AcDbLine
 10
644.0
 20
712.0
 30
0.0
 11
963.0
 21
712.0
 31
0.0
  0
LINE
  5
55B
100
AcDbEntity
  8
LAY-1
  6
EXLTYPE3
 62
     1
100
AcDbLine
 10
3829.5
 20
748.8
 30
0.0
 11
3835.5
 21
748.8
 31
0.0
  0
LINE
  5
55C
100
AcDbEntity
  8
LAY-1
  6
EXLTYPE3
 62
     1
100
AcDbLine
 10
3835.0
 20
749.3
 30
0.0
 11
3835.0
 21
747.3
 31
0.0
  0
LINE
  5
55D
100
AcDbEntity
  8
LAY-1
  6
EXLTYPE3
 62
     1
100
AcDbLine
 10
3830.0
 20
749.3
 30
0.0
 11
3830.0
 21
747.3
 31
0.0
  0
LINE
  5
55E
100
AcDbEntity
  8
LAY-1
  6
CONTINUOUS
 62
     2
100
AcDbLine
 10
3777.0
 20
724.85
 30
0.0
 11
3800.0
 21
724.85
 31
0.0
  0
LINE
  5
55F
100
AcDbEntity
  8
LAY-1
  6
CONTINUOUS
 62
     2
100
AcDbLine
 10
3777.0
 20
703.15
 30
0.0
 11
3800.0
 21
703.15
 31
0.0
  0
LINE
  5
560
100
AcDbEntity
  8
LAY-1
  6
CONTINUOUS
 62
     2
100
AcDbLine
 10
3842.0
 20
724.0
 30
0.0
 11
3842.0
 21
704.0
 31
0.0
  0
LINE
  5
561
100
AcDbEntity
  8
LAY-1
  6
CONTINUOUS
 62
     2
100
AcDbLine
 10
3865.0
 20
726.5
 30
0.0
 11
3865.0
 21
701.5
 31
0.0
  0
LINE
  5
562
100
AcDbEntity
  8
LAY-1
  6
CONTINUOUS
 62
     2
100
AcDbLine
 10
3852.0
 20
726.5
 30
0.0
 11
3852.0
 21
701.5
 31
0.0
  0
ARC
  5
563
100
AcDbEntity
  8
LAY-1
  6
CONTINUOUS
 62
     2
100
AcDbCircle
 10
3869.041667
 20
709.0
 30
0.0
 40
17.041667
100
AcDbArc
 50
162.938469
 51
197.061531
  0
ARC
  5
564
100
AcDbEntity
  8
LAY-1
  6
CONTINUOUS
 62
     2
100
AcDbCircle
 10
3847.958333
 20
709.0
 30
0.0
 40
17.041667
100
AcDbArc
 50
342.938469
 51
17.061531
  0
LINE
  5
565
100
AcDbEntity
  8
LAY-1
  6
CONTINUOUS
 62
     2
100
AcDbLine
 10
3800.0
 20
726.5
 30
0.0
 11
3800.0
 21
701.5
 31
0.0
  0
ARC
  5
566
100
AcDbEntity
  8
LAY-1
  6
CONTINUOUS
 62
     2
100
AcDbCircle
 10
3817.041667
 20
709.0
 30
0.0
 40
17.041667
100
AcDbArc
 50
162.938469
 51
197.061531
  0
LINE
  5
567
100
AcDbEntity
  8
LAY-1
  6
CONTINUOUS
 62
     2
100
AcDbLine
 10
3819.0
 20
730.0
 30
0.0
 11
3819.0
 21
698.0
 31
0.0
  0
LINE
  5
568
100
AcDbEntity
  8
LAY-1
  6
CONTINUOUS
 62
     2
100
AcDbLine
 10
3816.0
 20
730.0
 30
0.0
 11
3816.0
 21
698.0
 31
0.0
  0
LINE
  5
569
100
AcDbEntity
  8
LAY-1
  6
CONTINUOUS
 62
     2
100
AcDbLine
 10
3813.0
 20
730.0
 30
0.0
 11
3813.0
 21
698.0
 31
0.0
  0
LINE
  5
56A
100
AcDbEntity
  8
LAY-1
  6
CONTINUOUS
 62
     2
100
AcDbLine
 10
3819.0
 20
700.0
 30
0.0
 11
3842.0
 21
701.0
 31
0.0
  0
LINE
  5
56B
100
AcDbEntity
  8
LAY-1
  6
CONTINUOUS
 62
     2
100
AcDbLine
 10
3800.75
 20
704.0
 30
0.0
 11
3813.0
 21
704.0
 31
0.0
  0
LINE
  5
56C
100
AcDbEntity
  8
LAY-1
  6
CONTINUOUS
 62
     2
100
AcDbLine
 10
3800.75
 20
699.0
 30
0.0
 11
3813.0
 21
699.0
 31
0.0
  0
ARC
  5
56D
100
AcDbEntity
  8
LAY-1
  6
CONTINUOUS
 62
     2
100
AcDbCircle
 10
3804.541667
 20
701.5
 30
0.0
 40
4.541667
100
AcDbArc
 50
146.601512
 51
213.398488
  0
LINE
  5
56E
100
AcDbEntity
  8
LAY-1
  6
CONTINUOUS
 62
     2
100
AcDbLine
 10
3813.0
 20
698.0
 30
0.0
 11
3819.0
 21
698.0
 31
0.0
  0
LINE
  5
56F
100
AcDbEntity
  8
LAY-1
  6
CONTINUOUS
 62
     2
100
AcDbLine
 10
3864.25
 20
704.0
 30
0.0
 11
3852.75
 21
704.0
 31
0.0
  0
LINE
  5
570
100
AcDbEntity
  8
LAY-1
  6
CONTINUOUS
 62
     2
100
AcDbLine
 10
3852.75
 20
699.0
 30
0.0
 11
3864.25
 21
699.0
 31
0.0
  0
ARC
  5
571
100
AcDbEntity
  8
LAY-1
  6
CONTINUOUS
 62
     2
100
AcDbCircle
 10
3856.541667
 20
701.5
 30
0.0
 40
4.541667
100
AcDbArc
 50
146.601512
 51
213.398488
  0
ARC
  5
572
100
AcDbEntity
  8
LAY-1
  6
CONTINUOUS
 62
     2
100
AcDbCircle
 10
3860.458333
 20
701.5
 30
0.0
 40
4.541667
100
AcDbArc
 50
326.601512
 51
33.398488
  0
LINE
  5
573
100
AcDbEntity
  8
LAY-1
  6
CONTINUOUS
 62
     2
100
AcDbLine
 10
3842.0
 20
701.0
 30
0.0
 11
3852.0
 21
701.0
 31
0.0
  0
LINE
  5
574
100
AcDbEntity
  8
LAY-1
  6
CONTINUOUS
 62
     2
100
AcDbLine
 10
3819.0
 20
728.0
 30
0.0
 11
3825.0
 21
727.73913
 31
0.0
  0
LINE
  5
575
100
AcDbEntity
  8
LAY-1
  6
CONTINUOUS
 62
     2
100
AcDbLine
 10
3800.75
 20
724.0
 30
0.0
 11
3813.0
 21
724.0
 31
0.0
  0
LINE
  5
576
100
AcDbEntity
  8
LAY-1
  6
CONTINUOUS
 62
     2
100
AcDbLine
 10
3800.75
 20
729.0
 30
0.0
 11
3813.0
 21
729.0
 31
0.0
  0
ARC
  5
577
100
AcDbEntity
  8
LAY-1
  6
CONTINUOUS
 62
     2
100
AcDbCircle
 10
3817.041667
 20
719.0
 30
0.0
 40
17.041667
100
AcDbArc
 50
162.938469
 51
197.061531
  0
ARC
  5
578
100
AcDbEntity
  8
LAY-1
  6
CONTINUOUS
 62
     2
100
AcDbCircle
 10
3804.541667
 20
726.5
 30
0.0
 40
4.541667
100
AcDbArc
 50
146.601512
 51
213.398488
  0
LINE
  5
579
100
AcDbEntity
  8
LAY-1
  6
CONTINUOUS
 62
     2
100
AcDbLine
 10
3813.0
 20
730.0
 30
0.0
 11
3819.0
 21
730.0
 31
0.0
  0
LINE
  5
57A
100
AcDbEntity
  8
LAY-1
  6
CONTINUOUS
 62
     2
100
AcDbLine
 10
3852.75
 20
729.0
 30
0.0
 11
3864.25
 21
729.0
 31
0.0
  0
LINE
  5
57B
100
AcDbEntity
  8
LAY-1
  6
CONTINUOUS
 62
     2
100
AcDbLine
 10
3864.25
 20
724.0
 30
0.0
 11
3852.75
 21
724.0
 31
0.0
  0
ARC
  5
57C
100
AcDbEntity
  8
LAY-1
  6
CONTINUOUS
 62
     2
100
AcDbCircle
 10
3869.041667
 20
719.0
 30
0.0
 40
17.041667
100
AcDbArc
 50
162.938469
 51
197.061531
  0
ARC
  5
57D
100
AcDbEntity
  8
LAY-1
  6
CONTINUOUS
 62
     2
100
AcDbCircle
 10
3856.541667
 20
726.5
 30
0.0
 40
4.541667
100
AcDbArc
 50
146.601512
 51
213.398488
  0
ARC
  5
57E
100
AcDbEntity
  8
LAY-1
  6
CONTINUOUS
 62
     2
100
AcDbCircle
 10
3860.458333
 20
726.5
 30
0.0
 40
4.541667
100
AcDbArc
 50
326.601512
 51
33.398488
  0
ARC
  5
57F
100
AcDbEntity
  8
LAY-1
  6
CONTINUOUS
 62
     2
100
AcDbCircle
 10
3847.958333
 20
719.0
 30
0.0
 40
17.041667
100
AcDbArc
 50
342.938469
 51
17.061531
  0
LINE
  5
580
100
AcDbEntity
  8
LAY-1
  6
CONTINUOUS
 62
     2
100
AcDbLine
 10
3842.0
 20
727.0
 30
0.0
 11
3852.0
 21
727.0
 31
0.0
  0
ARC
  5
581
100
AcDbEntity
  8
LAY-1
  6
CONTINUOUS
 62
     2
100
AcDbCircle
 10
3832.842715
 20
735.295483
 30
0.0
 40
10.890668
100
AcDbArc
 50
223.934647
 51
311.086247
  0
LINE
  5
582
100
AcDbEntity
  8
LAY-1
  6
CONTINUOUS
 62
     2
100
AcDbLine
 10
3840.0
 20
727.086957
 30
0.0
 11
3842.0
 21
727.0
 31
0.0
  0
LINE
  5
583
100
AcDbEntity
  8
LAY-1
  6
CONTINUOUS
 62
     2
100
AcDbLine
 10
3826.0
 20
739.0
 30
0.0
 11
3839.0
 21
739.0
 31
0.0
  0
LINE
  5
584
100
AcDbEntity
  8
LAY-1
  6
CONTINUOUS
 62
     2
100
AcDbLine
 10
3839.0
 20
739.0
 30
0.0
 11
3839.0
 21
732.5
 31
0.0
  0
LINE
  5
585
100
AcDbEntity
  8
LAY-1
  6
CONTINUOUS
 62
     2
100
AcDbLine
 10
3826.0
 20
739.0
 30
0.0
 11
3826.0
 21
732.5
 31
0.0
  0
LINE
  5
586
100
AcDbEntity
  8
LAY-1
  6
CONTINUOUS
 62
     2
100
AcDbLine
 10
3826.0
 20
732.5
 30
0.0
 11
3825.0
 21
727.73913
 31
0.0
  0
LINE
  5
587
100
AcDbEntity
  8
LAY-1
  6
CONTINUOUS
 62
     2
100
AcDbLine
 10
3839.0
 20
732.5
 30
0.0
 11
3840.0
 21
727.086957
 31
0.0
  0
LINE
  5
588
100
AcDbEntity
  8
LAY-1
  6
CONTINUOUS
 62
     2
100
AcDbLine
 10
3835.5
 20
746.8
 30
0.0
 11
3835.5
 21
743.8
 31
0.0
  0
LINE
  5
589
100
AcDbEntity
  8
LAY-1
  6
CONTINUOUS
 62
     2
100
AcDbLine
 10
3829.5
 20
746.8
 30
0.0
 11
3829.5
 21
743.8
 31
0.0
  0
LINE
  5
58A
100
AcDbEntity
  8
LAY-1
  6
CONTINUOUS
 62
     2
100
AcDbLine
 10
3829.5
 20
740.0
 30
0.0
 11
3829.5
 21
739.0
 31
0.0
  0
LINE
  5
58B
100
AcDbEntity
  8
LAY-1
  6
CONTINUOUS
 62
     2
100
AcDbLine
 10
3835.5
 20
740.0
 30
0.0
 11
3835.5
 21
739.0
 31
0.0
  0
ARC
  5
58C
100
AcDbEntity
  8
LAY-1
  6
CONTINUOUS
 62
     2
100
AcDbCircle
 10
3828.0
 20
744.8
 30
0.0
 40
2.5
100
AcDbArc
 50
53.130102
 51
126.869898
  0
ARC
  5
58D
100
AcDbEntity
  8
LAY-1
  6
CONTINUOUS
 62
     2
100
AcDbCircle
 10
3832.5
 20
738.05
 30
0.0
 40
9.25
100
AcDbArc
 50
71.075356
 51
108.924644
  0
ARC
  5
58E
100
AcDbEntity
  8
LAY-1
  6
CONTINUOUS
 62
     2
100
AcDbCircle
 10
3837.0
 20
744.8
 30
0.0
 40
2.5
100
AcDbArc
 50
53.130102
 51
126.869898
  0
ARC
  5
58F
100
AcDbEntity
  8
LAY-1
  6
CONTINUOUS
 62
     2
100
AcDbCircle
 10
3828.0
 20
745.8
 30
0.0
 40
2.5
100
AcDbArc
 50
233.130102
 51
306.869898
  0
ARC
  5
590
100
AcDbEntity
  8
LAY-1
  6
CONTINUOUS
 62
     2
100
AcDbCircle
 10
3832.5
 20
752.55
 30
0.0
 40
9.25
100
AcDbArc
 50
251.075356
 51
288.924644
  0
ARC
  5
591
100
AcDbEntity
  8
LAY-1
  6
CONTINUOUS
 62
     2
100
AcDbCircle
 10
3837.0
 20
745.8
 30
0.0
 40
2.5
100
AcDbArc
 50
233.130102
 51
306.869898
  0
LINE
  5
592
100
AcDbEntity
  8
LAY-1
  6
CONTINUOUS
 62
     2
100
AcDbLine
 10
3838.5
 20
746.8
 30
0.0
 11
3838.5
 21
743.8
 31
0.0
  0
LINE
  5
593
100
AcDbEntity
  8
LAY-1
  6
CONTINUOUS
 62
     2
100
AcDbLine
 10
3828.0
 20
747.3
 30
0.0
 11
3837.0
 21
747.3
 31
0.0
  0
LINE
  5
594
100
AcDbEntity
  8
LAY-1
  6
CONTINUOUS
 62
     2
100
AcDbLine
 10
3826.5
 20
746.8
 30
0.0
 11
3826.5
 21
743.8
 31
0.0
  0
LINE
  5
595
100
AcDbEntity
  8
LAY-1
  6
CONTINUOUS
 62
     2
100
AcDbLine
 10
3830.0
 20
749.3
 30
0.0
 11
3835.0
 21
749.3
 31
0.0
  0
LINE
  5
596
100
AcDbEntity
  8
LAY-1
  6
CONTINUOUS
 62
     2
100
AcDbLine
 10
3829.5
 20
747.3
 30
0.0
 11
3829.5
 21
748.8
 31
0.0
  0
LINE
  5
597
100
AcDbEntity
  8
LAY-1
  6
CONTINUOUS
 62
     2
100
AcDbLine
 10
3835.5
 20
747.3
 30
0.0
 11
3835.5
 21
748.8
 31
0.0
  0
LINE
  5
598
100
AcDbEntity
  8
LAY-1
  6
CONTINUOUS
 62
     2
100
AcDbLine
 10
3829.5
 20
748.8
 30
0.0
 11
3830.0
 21
749.3
 31
0.0
  0
LINE
  5
599
100
AcDbEntity
  8
LAY-1
  6
CONTINUOUS
 62
     2
100
AcDbLine
 10
3835.0
 20
749.3
 30
0.0
 11
3835.5
 21
748.8
 31
0.0
  0
LINE
  5
59A
100
AcDbEntity
  8
LAY-1
  6
CONTINUOUS
 62
     2
100
AcDbLine
 10
3777.0
 20
729.0
 30
0.0
 11
3777.0
 21
699.0
 31
0.0
  0
LINE
  5
59B
100
AcDbEntity
  8
LAY-1
  6
CONTINUOUS
 62
     2
100
AcDbLine
 10
3777.0
 20
699.0
 30
0.0
 11
3725.0
 21
699.0
 31
0.0
  0
LINE
  5
59C
100
AcDbEntity
  8
LAY-1
  6
CONTINUOUS
 62
     2
100
AcDbLine
 10
3798.0
 20
703.15
 30
0.0
 11
3798.0
 21
724.85
 31
0.0
  0
LINE
  5
59D
100
AcDbEntity
  8
LAY-1
  6
CONTINUOUS
 62
     2
100
AcDbLine
 10
3796.0
 20
703.15
 30
0.0
 11
3796.0
 21
724.85
 31
0.0
  0
LINE
  5
59E
100
AcDbEntity
  8
LAY-1
  6
CONTINUOUS
 62
     2
100
AcDbLine
 10
3794.0
 20
703.15
 30
0.0
 11
3794.0
 21
724.85
 31
0.0
  0
LINE
  5
59F
100
AcDbEntity
  8
LAY-1
  6
CONTINUOUS
 62
     2
100
AcDbLine
 10
3824.5
 20
740.0
 30
0.0
 11
3840.5
 21
740.0
 31
0.0
  0
LINE
  5
5A0
100
AcDbEntity
  8
LAY-1
  6
CONTINUOUS
 62
     2
100
AcDbLine
 10
3824.5
 20
742.3
 30
0.0
 11
3840.5
 21
742.3
 31
0.0
  0
LINE
  5
5A1
100
AcDbEntity
  8
LAY-1
  6
CONTINUOUS
 62
     2
100
AcDbLine
 10
3824.5
 20
743.3
 30
0.0
 11
3840.5
 21
743.3
 31
0.0
  0
LINE
  5
5A2
100
AcDbEntity
  8
LAY-1
  6
CONTINUOUS
 62
     2
100
AcDbLine
 10
3824.5
 20
743.3
 30
0.0
 11
3824.5
 21
740.0
 31
0.0
  0
LINE
  5
5A3
100
AcDbEntity
  8
LAY-1
  6
CONTINUOUS
 62
     2
100
AcDbLine
 10
3840.5
 20
743.3
 30
0.0
 11
3840.5
 21
740.0
 31
0.0
  0
LINE
  5
5A4
100
AcDbEntity
  8
LAY-1
  6
CONTINUOUS
 62
     2
100
AcDbLine
 10
3826.5
 20
762.3
 30
0.0
 11
3838.5
 21
762.3
 31
0.0
  0
LINE
  5
5A5
100
AcDbEntity
  8
LAY-1
  6
CONTINUOUS
 62
     2
100
AcDbLine
 10
3838.5
 20
762.3
 30
0.0
 11
3838.5
 21
760.0
 31
0.0
  0
LINE
  5
5A6
100
AcDbEntity
  8
LAY-1
  6
CONTINUOUS
 62
     2
100
AcDbLine
 10
3826.5
 20
762.3
 30
0.0
 11
3826.5
 21
760.0
 31
0.0
  0
LINE
  5
5A7
100
AcDbEntity
  8
LAY-1
  6
CONTINUOUS
 62
     2
100
AcDbLine
 10
3838.5
 20
760.0
 30
0.0
 11
3840.5
 21
743.3
 31
0.0
  0
LINE
  5
5A8
100
AcDbEntity
  8
LAY-1
  6
CONTINUOUS
 62
     2
100
AcDbLine
 10
3826.5
 20
760.0
 30
0.0
 11
3824.5
 21
743.3
 31
0.0
  0
LINE
  5
5A9
100
AcDbEntity
  8
LAY-1
  6
CONTINUOUS
 62
     2
100
AcDbLine
 10
3779.0
 20
703.15
 30
0.0
 11
3779.0
 21
724.85
 31
0.0
  0
LINE
  5
5AA
100
AcDbEntity
  8
LAY-1
  6
CONTINUOUS
 62
     2
100
AcDbLine
 10
3781.0
 20
703.15
 30
0.0
 11
3781.0
 21
724.85
 31
0.0
  0
LINE
  5
5AB
100
AcDbEntity
  8
LAY-1
  6
CONTINUOUS
 62
     2
100
AcDbLine
 10
3783.0
 20
703.15
 30
0.0
 11
3783.0
 21
724.85
 31
0.0
  0
LINE
  5
5AC
100
AcDbEntity
  8
LAY-1
  6
CONTINUOUS
 62
     2
100
AcDbLine
 10
3881.0
 20
707.140657
 30
0.0
 11
3871.0
 21
707.140657
 31
0.0
  0
LINE
  5
5AD
100
AcDbEntity
  8
LAY-1
  6
CONTINUOUS
 62
     2
100
AcDbLine
 10
3881.0
 20
721.140657
 30
0.0
 11
3871.0
 21
721.140657
 31
0.0
  0
LINE
  5
5AE
100
AcDbEntity
  8
LAY-1
  6
CONTINUOUS
 62
     2
100
AcDbLine
 10
3871.0
 20
724.990657
 30
0.0
 11
3865.0
 21
724.990657
 31
0.0
  0
LINE
  5
5AF
100
AcDbEntity
  8
LAY-1
  6
CONTINUOUS
 62
     2
100
AcDbLine
 10
3871.0
 20
703.290657
 30
0.0
 11
3865.0
 21
703.290657
 31
0.0
  0
LINE
  5
5B0
100
AcDbEntity
  8
LAY-1
  6
CONTINUOUS
 62
     2
100
AcDbLine
 10
3867.0
 20
703.290657
 30
0.0
 11
3867.0
 21
724.990657
 31
0.0
  0
LINE
  5
5B1
100
AcDbEntity
  8
LAY-1
  6
CONTINUOUS
 62
     2
100
AcDbLine
 10
3869.0
 20
703.290657
 30
0.0
 11
3869.0
 21
724.990657
 31
0.0
  0
LINE
  5
5B2
100
AcDbEntity
  8
LAY-1
  6
CONTINUOUS
 62
     2
100
AcDbLine
 10
3871.0
 20
703.290657
 30
0.0
 11
3871.0
 21
724.990657
 31
0.0
  0
LINE
  5
5B3
100
AcDbEntity
  8
LAY-1
  6
CONTINUOUS
 62
     2
100
AcDbLine
 10
3881.0
 20
707.140657
 30
0.0
 11
3881.0
 21
721.140657
 31
0.0
  0
LINE
  5
5B4
100
AcDbEntity
  8
LAY-1
  6
CONTINUOUS
 62
     2
100
AcDbLine
 10
3777.0
 20
729.0
 30
0.0
 11
3770.0
 21
729.0
 31
0.0
  0
LINE
  5
5B5
100
AcDbEntity
  8
LAY-5
  6
CONTINUOUS
 62
     1
100
AcDbLine
 10
2911.0
 20
2003.0
 30
0.0
 11
3068.5
 21
2003.0
 31
0.0
  0
LINE
  5
5B6
100
AcDbEntity
  8
LAY-5
  6
CONTINUOUS
 62
     1
100
AcDbLine
 10
2911.0
 20
2323.0
 30
0.0
 11
3068.5
 21
2323.0
 31
0.0
  0
TEXT
  5
5B7
100
AcDbEntity
  8
LAY-5
  6
CONTINUOUS
 62
     3
100
AcDbText
 10
3067.0
 20
2088.0
 30
0.0
 40
50.0
  1
３２０
 50
90.0
 41
0.84
  7
EXCADSTD
 72
     5
 11
3067.0
 21
2238.0
 31
0.0
100
AcDbText
  0
LINE
  5
5B8
100
AcDbEntity
  8
LAY-5
  6
CONTINUOUS
 62
     1
100
AcDbLine
 10
3068.0
 20
2003.0
 30
0.0
 11
3068.0
 21
2323.0
 31
0.0
  0
LINE
  5
5B9
100
AcDbEntity
  8
LAY-5
  6
CONTINUOUS
 62
     1
100
AcDbLine
 10
3059.666667
 20
2053.0
 30
0.0
 11
3068.0
 21
2003.0
 31
0.0
  0
LINE
  5
5BA
100
AcDbEntity
  8
LAY-5
  6
CONTINUOUS
 62
     1
100
AcDbLine
 10
3068.0
 20
2003.0
 30
0.0
 11
3076.333333
 21
2053.0
 31
0.0
  0
LINE
  5
5BB
100
AcDbEntity
  8
LAY-5
  6
CONTINUOUS
 62
     1
100
AcDbLine
 10
3076.333333
 20
2273.0
 30
0.0
 11
3068.0
 21
2323.0
 31
0.0
  0
LINE
  5
5BC
100
AcDbEntity
  8
LAY-5
  6
CONTINUOUS
 62
     1
100
AcDbLine
 10
3068.0
 20
2323.0
 30
0.0
 11
3059.666667
 21
2273.0
 31
0.0
  0
LINE
  5
5BD
100
AcDbEntity
  8
LAY-5
  6
CONTINUOUS
 62
     1
100
AcDbLine
 10
2898.0
 20
1918.0
 30
0.0
 11
3169.5
 21
1918.0
 31
0.0
  0
LINE
  5
5BE
100
AcDbEntity
  8
LAY-5
  6
CONTINUOUS
 62
     1
100
AcDbLine
 10
2898.0
 20
2408.0
 30
0.0
 11
3169.5
 21
2408.0
 31
0.0
  0
TEXT
  5
5BF
100
AcDbEntity
  8
LAY-5
  6
CONTINUOUS
 62
     3
100
AcDbText
 10
3168.0
 20
2088.0
 30
0.0
 40
50.0
  1
４９０
 50
90.0
 41
0.84
  7
EXCADSTD
 72
     5
 11
3168.0
 21
2238.0
 31
0.0
100
AcDbText
  0
LINE
  5
5C0
100
AcDbEntity
  8
LAY-5
  6
CONTINUOUS
 62
     1
100
AcDbLine
 10
3169.0
 20
1918.0
 30
0.0
 11
3169.0
 21
2408.0
 31
0.0
  0
LINE
  5
5C1
100
AcDbEntity
  8
LAY-5
  6
CONTINUOUS
 62
     1
100
AcDbLine
 10
3160.666667
 20
1968.0
 30
0.0
 11
3169.0
 21
1918.0
 31
0.0
  0
LINE
  5
5C2
100
AcDbEntity
  8
LAY-5
  6
CONTINUOUS
 62
     1
100
AcDbLine
 10
3169.0
 20
1918.0
 30
0.0
 11
3177.333333
 21
1968.0
 31
0.0
  0
LINE
  5
5C3
100
AcDbEntity
  8
LAY-5
  6
CONTINUOUS
 62
     1
100
AcDbLine
 10
3177.333333
 20
2358.0
 30
0.0
 11
3169.0
 21
2408.0
 31
0.0
  0
LINE
  5
5C4
100
AcDbEntity
  8
LAY-5
  6
CONTINUOUS
 62
     1
100
AcDbLine
 10
3169.0
 20
2408.0
 30
0.0
 11
3160.666667
 21
2358.0
 31
0.0
  0
LINE
  5
5C5
100
AcDbEntity
  8
LAY-5
  6
CONTINUOUS
 62
     1
100
AcDbLine
 10
2378.0
 20
1987.1
 30
0.0
 11
2378.0
 21
1796.5
 31
0.0
  0
LINE
  5
5C6
100
AcDbEntity
  8
LAY-5
  6
CONTINUOUS
 62
     1
100
AcDbLine
 10
2898.0
 20
1987.1
 30
0.0
 11
2898.0
 21
1796.5
 31
0.0
  0
TEXT
  5
5C7
100
AcDbEntity
  8
LAY-5
  6
CONTINUOUS
 62
     3
100
AcDbText
 10
2563.0
 20
1798.0
 30
0.0
 40
50.0
  1
５２０
 41
0.84
  7
EXCADSTD
 72
     5
 11
2713.0
 21
1798.0
 31
0.0
100
AcDbText
  0
LINE
  5
5C8
100
AcDbEntity
  8
LAY-5
  6
CONTINUOUS
 62
     1
100
AcDbLine
 10
2378.0
 20
1797.0
 30
0.0
 11
2898.0
 21
1797.0
 31
0.0
  0
LINE
  5
5C9
100
AcDbEntity
  8
LAY-5
  6
CONTINUOUS
 62
     1
100
AcDbLine
 10
2428.0
 20
1805.333333
 30
0.0
 11
2378.0
 21
1797.0
 31
0.0
  0
LINE
  5
5CA
100
AcDbEntity
  8
LAY-5
  6
CONTINUOUS
 62
     1
100
AcDbLine
 10
2378.0
 20
1797.0
 30
0.0
 11
2428.0
 21
1788.666667
 31
0.0
  0
LINE
  5
5CB
100
AcDbEntity
  8
LAY-5
  6
CONTINUOUS
 62
     1
100
AcDbLine
 10
2848.0
 20
1788.666667
 30
0.0
 11
2898.0
 21
1797.0
 31
0.0
  0
LINE
  5
5CC
100
AcDbEntity
  8
LAY-5
  6
CONTINUOUS
 62
     1
100
AcDbLine
 10
2898.0
 20
1797.0
 30
0.0
 11
2848.0
 21
1805.333333
 31
0.0
  0
LINE
  5
5CD
100
AcDbEntity
  8
LAY-5
  6
CONTINUOUS
 62
     1
100
AcDbLine
 10
2358.0
 20
1938.0
 30
0.0
 11
2358.0
 21
1703.5
 31
0.0
  0
LINE
  5
5CE
100
AcDbEntity
  8
LAY-5
  6
CONTINUOUS
 62
     1
100
AcDbLine
 10
2918.0
 20
1938.0
 30
0.0
 11
2918.0
 21
1703.5
 31
0.0
  0
TEXT
  5
5CF
100
AcDbEntity
  8
LAY-5
  6
CONTINUOUS
 62
     3
100
AcDbText
 10
2563.0
 20
1705.0
 30
0.0
 40
50.0
  1
５６０
 41
0.84
  7
EXCADSTD
 72
     5
 11
2713.0
 21
1705.0
 31
0.0
100
AcDbText
  0
LINE
  5
5D0
100
AcDbEntity
  8
LAY-5
  6
CONTINUOUS
 62
     1
100
AcDbLine
 10
2358.0
 20
1704.0
 30
0.0
 11
2918.0
 21
1704.0
 31
0.0
  0
LINE
  5
5D1
100
AcDbEntity
  8
LAY-5
  6
CONTINUOUS
 62
     1
100
AcDbLine
 10
2408.0
 20
1712.333333
 30
0.0
 11
2358.0
 21
1704.0
 31
0.0
  0
LINE
  5
5D2
100
AcDbEntity
  8
LAY-5
  6
CONTINUOUS
 62
     1
100
AcDbLine
 10
2358.0
 20
1704.0
 30
0.0
 11
2408.0
 21
1695.666667
 31
0.0
  0
LINE
  5
5D3
100
AcDbEntity
  8
LAY-5
  6
CONTINUOUS
 62
     1
100
AcDbLine
 10
2868.0
 20
1695.666667
 30
0.0
 11
2918.0
 21
1704.0
 31
0.0
  0
LINE
  5
5D4
100
AcDbEntity
  8
LAY-5
  6
CONTINUOUS
 62
     1
100
AcDbLine
 10
2918.0
 20
1704.0
 30
0.0
 11
2868.0
 21
1712.333333
 31
0.0
  0
TEXT
  5
5D5
100
AcDbEntity
  8
LAY-5
  6
CONTINUOUS
 62
     3
100
AcDbText
 10
1972.5
 20
1885.3
 30
0.0
 40
50.0
  1
４－φ１５
 41
0.84
  7
EXCADSTD
 72
     5
 11
2222.5
 21
1885.3
 31
0.0
100
AcDbText
  0
POLYLINE
  5
5D6
100
AcDbEntity
  8
LAY-5
  6
CONTINUOUS
 62
     1
100
AcDb2dPolyline
 66
     1
 10
0.0
 20
0.0
 30
0.0
 70
   128
  0
VERTEX
  5
5D7
100
AcDbEntity
  8
LAY-5
  6
CONTINUOUS
 62
     1
100
AcDbVertex
100
AcDb2dVertex
 10
2373.5
 20
1997.0
 30
0.0
  0
VERTEX
  5
5D8
100
AcDbEntity
  8
LAY-5
  6
CONTINUOUS
 62
     1
100
AcDbVertex
100
AcDb2dVertex
 10
2239.0
 20
1885.0
 30
0.0
  0
VERTEX
  5
5D9
100
AcDbEntity
  8
LAY-5
  6
CONTINUOUS
 62
     1
100
AcDbVertex
100
AcDb2dVertex
 10
1961.0
 20
1885.0
 30
0.0
  0
SEQEND
  5
5DA
100
AcDbEntity
  8
LAY-5
  6
CONTINUOUS
 62
     1
  0
LINE
  5
5DB
100
AcDbEntity
  8
LAY-5
  6
CONTINUOUS
 62
     1
100
AcDbLine
 10
2340.409759
 20
1958.601037
 30
0.0
 11
2373.5
 21
1997.0
 31
0.0
  0
LINE
  5
5DC
100
AcDbEntity
  8
LAY-5
  6
CONTINUOUS
 62
     1
100
AcDbLine
 10
2373.5
 20
1997.0
 30
0.0
 11
2329.744703
 21
1971.408626
 31
0.0
  0
TEXT
  5
5DD
100
AcDbEntity
  8
LAY-5
  6
CONTINUOUS
 62
     3
100
AcDbText
 10
779.5
 20
1684.03
 30
0.0
 40
50.0
  1
ＪＩＳ ２０Ｋ ２０Ａフランジ
 41
0.803911
  7
EXCADSTD
 72
     5
 11
1479.5
 21
1684.03
 31
0.0
100
AcDbText
  0
POLYLINE
  5
5DE
100
AcDbEntity
  8
LAY-5
  6
CONTINUOUS
 62
     1
100
AcDb2dPolyline
 66
     1
 10
0.0
 20
0.0
 30
0.0
 70
   128
  0
VERTEX
  5
5DF
100
AcDbEntity
  8
LAY-5
  6
CONTINUOUS
 62
     1
100
AcDbVertex
100
AcDb2dVertex
 10
832.868977
 20
1207.225359
 30
0.0
  0
VERTEX
  5
5E0
100
AcDbEntity
  8
LAY-5
  6
CONTINUOUS
 62
     1
100
AcDbVertex
100
AcDb2dVertex
 10
741.0
 20
1684.0
 30
0.0
  0
VERTEX
  5
5E1
100
AcDbEntity
  8
LAY-5
  6
CONTINUOUS
 62
     1
100
AcDbVertex
100
AcDb2dVertex
 10
1518.0
 20
1684.0
 30
0.0
  0
SEQEND
  5
5E2
100
AcDbEntity
  8
LAY-5
  6
CONTINUOUS
 62
     1
  0
LINE
  5
5E3
100
AcDbEntity
  8
LAY-5
  6
CONTINUOUS
 62
     1
100
AcDbLine
 10
815.225771
 20
1254.745478
 30
0.0
 11
832.868977
 21
1207.225359
 31
0.0
  0
LINE
  5
5E4
100
AcDbEntity
  8
LAY-5
  6
CONTINUOUS
 62
     1
100
AcDbLine
 10
832.868977
 20
1207.225359
 30
0.0
 11
831.591388
 21
1257.898944
 31
0.0
  0
POLYLINE
  5
5E5
100
AcDbEntity
  8
LAY-5
  6
CONTINUOUS
 62
     1
100
AcDb2dPolyline
 66
     1
 10
0.0
 20
0.0
 30
0.0
 70
   128
  0
VERTEX
  5
5E6
100
AcDbEntity
  8
LAY-5
  6
CONTINUOUS
 62
     1
100
AcDbVertex
100
AcDb2dVertex
 10
609.622847
 20
1272.367914
 30
0.0
  0
VERTEX
  5
5E7
100
AcDbEntity
  8
LAY-5
  6
CONTINUOUS
 62
     1
100
AcDbVertex
100
AcDb2dVertex
 10
513.0
 20
1784.0
 30
0.0
  0
VERTEX
  5
5E8
100
AcDbEntity
  8
LAY-5
  6
CONTINUOUS
 62
     1
100
AcDbVertex
100
AcDb2dVertex
 10
1290.0
 20
1784.0
 30
0.0
  0
SEQEND
  5
5E9
100
AcDbEntity
  8
LAY-5
  6
CONTINUOUS
 62
     1
  0
LINE
  5
5EA
100
AcDbEntity
  8
LAY-5
  6
CONTINUOUS
 62
     1
100
AcDbLine
 10
592.15566
 20
1319.953014
 30
0.0
 11
609.622847
 21
1272.367914
 31
0.0
  0
LINE
  5
5EB
100
AcDbEntity
  8
LAY-5
  6
CONTINUOUS
 62
     1
100
AcDbLine
 10
609.622847
 20
1272.367914
 30
0.0
 11
608.532838
 21
1323.045881
 31
0.0
  0
TEXT
  5
5EC
100
AcDbEntity
  8
LAY-5
  6
CONTINUOUS
 62
     3
100
AcDbText
 10
551.5
 20
1784.03
 30
0.0
 40
50.0
  1
ＪＩＳ ２０Ｋ １５Ａフランジ
 41
0.803911
  7
EXCADSTD
 72
     5
 11
1251.5
 21
1784.03
 31
0.0
100
AcDbText
  0
LINE
  5
5ED
100
AcDbEntity
  8
LAY-5
  6
CONTINUOUS
 62
     1
100
AcDbLine
 10
916.1
 20
1164.0
 30
0.0
 11
1166.5
 21
1164.0
 31
0.0
  0
LINE
  5
5EE
100
AcDbEntity
  8
LAY-5
  6
CONTINUOUS
 62
     1
100
AcDbLine
 10
1023.0
 20
654.0
 30
0.0
 11
1166.5
 21
654.0
 31
0.0
  0
TEXT
  5
5EF
100
AcDbEntity
  8
LAY-5
  6
CONTINUOUS
 62
     3
100
AcDbText
 10
1165.0
 20
834.0
 30
0.0
 40
50.0
  1
５１０
 50
90.0
 41
0.84
  7
EXCADSTD
 72
     5
 11
1165.0
 21
984.0
 31
0.0
100
AcDbText
  0
LINE
  5
5F0
100
AcDbEntity
  8
LAY-5
  6
CONTINUOUS
 62
     1
100
AcDbLine
 10
1166.0
 20
1164.0
 30
0.0
 11
1166.0
 21
654.0
 31
0.0
  0
LINE
  5
5F1
100
AcDbEntity
  8
LAY-5
  6
CONTINUOUS
 62
     1
100
AcDbLine
 10
1174.333333
 20
1114.0
 30
0.0
 11
1166.0
 21
1164.0
 31
0.0
  0
LINE
  5
5F2
100
AcDbEntity
  8
LAY-5
  6
CONTINUOUS
 62
     1
100
AcDbLine
 10
1166.0
 20
1164.0
 30
0.0
 11
1157.666667
 21
1114.0
 31
0.0
  0
LINE
  5
5F3
100
AcDbEntity
  8
LAY-5
  6
CONTINUOUS
 62
     1
100
AcDbLine
 10
1157.666667
 20
704.0
 30
0.0
 11
1166.0
 21
654.0
 31
0.0
  0
LINE
  5
5F4
100
AcDbEntity
  8
LAY-5
  6
CONTINUOUS
 62
     1
100
AcDbLine
 10
1166.0
 20
654.0
 30
0.0
 11
1174.333333
 21
704.0
 31
0.0
  0
LINE
  5
5F5
100
AcDbEntity
  8
LAY-5
  6
CONTINUOUS
 62
     1
100
AcDbLine
 10
463.0
 20
654.0
 30
0.0
 11
398.5
 21
654.0
 31
0.0
  0
LINE
  5
5F6
100
AcDbEntity
  8
LAY-5
  6
CONTINUOUS
 62
     1
100
AcDbLine
 10
573.8
 20
1229.0
 30
0.0
 11
398.5
 21
1229.0
 31
0.0
  0
TEXT
  5
5F7
100
AcDbEntity
  8
LAY-5
  6
CONTINUOUS
 62
     3
100
AcDbText
 10
398.0
 20
866.5
 30
0.0
 40
50.0
  1
５７５
 50
90.0
 41
0.84
  7
EXCADSTD
 72
     5
 11
398.0
 21
1016.5
 31
0.0
100
AcDbText
  0
LINE
  5
5F8
100
AcDbEntity
  8
LAY-5
  6
CONTINUOUS
 62
     1
100
AcDbLine
 10
399.0
 20
654.0
 30
0.0
 11
399.0
 21
1229.0
 31
0.0
  0
LINE
  5
5F9
100
AcDbEntity
  8
LAY-5
  6
CONTINUOUS
 62
     1
100
AcDbLine
 10
390.666667
 20
704.0
 30
0.0
 11
399.0
 21
654.0
 31
0.0
  0
LINE
  5
5FA
100
AcDbEntity
  8
LAY-5
  6
CONTINUOUS
 62
     1
100
AcDbLine
 10
399.0
 20
654.0
 30
0.0
 11
407.333333
 21
704.0
 31
0.0
  0
LINE
  5
5FB
100
AcDbEntity
  8
LAY-5
  6
CONTINUOUS
 62
     1
100
AcDbLine
 10
407.333333
 20
1179.0
 30
0.0
 11
399.0
 21
1229.0
 31
0.0
  0
LINE
  5
5FC
100
AcDbEntity
  8
LAY-5
  6
CONTINUOUS
 62
     1
100
AcDbLine
 10
399.0
 20
1229.0
 30
0.0
 11
390.666667
 21
1179.0
 31
0.0
  0
LINE
  5
5FD
100
AcDbEntity
  8
LAY-5
  6
CONTINUOUS
 62
     1
100
AcDbLine
 10
463.0
 20
654.0
 30
0.0
 11
315.5
 21
654.0
 31
0.0
  0
LINE
  5
5FE
100
AcDbEntity
  8
LAY-5
  6
CONTINUOUS
 62
     1
100
AcDbLine
 10
519.0
 20
1344.0
 30
0.0
 11
315.5
 21
1344.0
 31
0.0
  0
TEXT
  5
5FF
100
AcDbEntity
  8
LAY-5
  6
CONTINUOUS
 62
     3
100
AcDbText
 10
315.0
 20
924.0
 30
0.0
 40
50.0
  1
６９０
 50
90.0
 41
0.84
  7
EXCADSTD
 72
     5
 11
315.0
 21
1074.0
 31
0.0
100
AcDbText
  0
LINE
  5
600
100
AcDbEntity
  8
LAY-5
  6
CONTINUOUS
 62
     1
100
AcDbLine
 10
316.0
 20
654.0
 30
0.0
 11
316.0
 21
1344.0
 31
0.0
  0
LINE
  5
601
100
AcDbEntity
  8
LAY-5
  6
CONTINUOUS
 62
     1
100
AcDbLine
 10
307.666667
 20
704.0
 30
0.0
 11
316.0
 21
654.0
 31
0.0
  0
LINE
  5
602
100
AcDbEntity
  8
LAY-5
  6
CONTINUOUS
 62
     1
100
AcDbLine
 10
316.0
 20
654.0
 30
0.0
 11
324.333333
 21
704.0
 31
0.0
  0
LINE
  5
603
100
AcDbEntity
  8
LAY-5
  6
CONTINUOUS
 62
     1
100
AcDbLine
 10
324.333333
 20
1294.0
 30
0.0
 11
316.0
 21
1344.0
 31
0.0
  0
LINE
  5
604
100
AcDbEntity
  8
LAY-5
  6
CONTINUOUS
 62
     1
100
AcDbLine
 10
316.0
 20
1344.0
 30
0.0
 11
307.666667
 21
1294.0
 31
0.0
  0
ENDSEC
  0
SECTION
  2
OBJECTS
  0
DICTIONARY
  5
19
100
AcDbDictionary
  3
ACAD_GROUP
350
1A
  3
ACAD_MLINESTYLE
350
1B
  0
DICTIONARY
  5
1A
102
{ACAD_REACTORS
330
19
102
}
100
AcDbDictionary
  0
DICTIONARY
  5
1B
102
{ACAD_REACTORS
330
19
102
}
100
AcDbDictionary
  3
STANDARD
350
1C
  0
MLINESTYLE
  5
1C
102
{ACAD_REACTORS
330
1B
102
}
100
AcDbMlineStyle
  2
Standard
 70
     0
  3

 62
     0
 51
90.0
 52
90.0
 71
     2
 49
0.5
 62
   256
  6
ByLayer
 49
-0.5
 62
   256
  6
ByLayer
  0
ENDSEC
  0
EOF
